ISO-10303-21;
HEADER;
FILE_DESCRIPTION (( 'STEP AP214' ),
    '1' );
FILE_NAME ('06423.STEP',
    '2023-07-05T16:02:48',
    ( '' ),
    ( '' ),
    'SwSTEP 2.0',
    'SolidWorks 2023',
    '' );
FILE_SCHEMA (( 'AUTOMOTIVE_DESIGN' ));
ENDSEC;

DATA;
#1 =( NAMED_UNIT ( * ) SI_UNIT ( $, .STERADIAN. ) SOLID_ANGLE_UNIT ( ) );
#2 = FACE_OUTER_BOUND ( 'NONE', #29, .T. ) ;
#3 = PRESENTATION_LAYER_ASSIGNMENT (  '', '', ( #119 ) ) ;
#4 = MECHANICAL_DESIGN_GEOMETRIC_PRESENTATION_REPRESENTATION (  '', ( #119 ), #181 ) ;
#5 = DIRECTION ( 'NONE',  ( 0.000000000000000000, 0.000000000000000000, 1.000000000000000000 ) ) ;
#6 = PRESENTATION_LAYER_ASSIGNMENT (  '', '', ( #37 ) ) ;
#7 = AXIS2_PLACEMENT_3D ( 'NONE', #123, #103, #73 ) ;
#8 = DIRECTION ( 'NONE',  ( 0.000000000000000000, 1.000000000000000000, 0.000000000000000000 ) ) ;
#9 = ORIENTED_EDGE ( 'NONE', *, *, #169, .T. ) ;
#10 = CYLINDRICAL_SURFACE ( 'NONE', #238, 0.09374999999999981959 ) ;
#11 = EDGE_LOOP ( 'NONE', ( #108, #17, #65, #171 ) ) ;
#12 = UNCERTAINTY_MEASURE_WITH_UNIT (LENGTH_MEASURE( 1.000000000000000082E-05 ), #51, 'distance_accuracy_value', 'NONE');
#13 = LENGTH_MEASURE_WITH_UNIT ( LENGTH_MEASURE( 0.02539999999999999897 ), #229 );
#14 = CONICAL_SURFACE ( 'NONE', #45, 68.19097667594041923, 1.047197551196600074 ) ;
#15 = ORIENTED_EDGE ( 'NONE', *, *, #233, .F. ) ;
#16 = CARTESIAN_POINT ( 'NONE',  ( 0.000000000000000000, 39.37007874015748143, 0.000000000000000000 ) ) ;
#17 = ORIENTED_EDGE ( 'NONE', *, *, #233, .T. ) ;
#18 = CIRCLE ( 'NONE', #219, 0.09375000000000001388 ) ;
#19 = DIRECTION ( 'NONE',  ( -5.990729859209552644E-17, 1.000000000000000000, -0.000000000000000000 ) ) ;
#20 = CARTESIAN_POINT ( 'NONE',  ( 0.000000000000000000, 0.05412658773652713473, 0.000000000000000000 ) ) ;
#21 = CARTESIAN_POINT ( 'NONE',  ( 0.09374999999999998612, 2.000000000000000000, 0.000000000000000000 ) ) ;
#22 = ADVANCED_FACE ( 'NONE', ( #114 ), #39, .F. ) ;
#23 = LENGTH_MEASURE_WITH_UNIT ( LENGTH_MEASURE( 0.02539999999999999897 ), #143 );
#24 = AXIS2_PLACEMENT_3D ( 'NONE', #21, #36, #140 ) ;
#25 =( LENGTH_UNIT ( ) NAMED_UNIT ( * ) SI_UNIT ( $, .METRE. ) );
#26 = CLOSED_SHELL ( 'NONE', ( #125, #245, #195, #22 ) ) ;
#27 = EDGE_CURVE ( 'NONE', #130, #159, #54, .T. ) ;
#28 =( NAMED_UNIT ( * ) PLANE_ANGLE_UNIT ( ) SI_UNIT ( $, .RADIAN. ) );
#29 = EDGE_LOOP ( 'NONE', ( #254, #9, #220 ) ) ;
#30 = LINE ( 'NONE', #40, #109 ) ;
#31 = ORIENTED_EDGE ( 'NONE', *, *, #210, .F. ) ;
#32 = PRESENTATION_STYLE_ASSIGNMENT (( #110 ) ) ;
#33 = COLOUR_RGB ( '',0.7921568627450980005, 0.8196078431372548767, 0.9333333333333333481 ) ;
#34 = UNCERTAINTY_MEASURE_WITH_UNIT (LENGTH_MEASURE( 1.000000000000000082E-05 ), #158, 'distance_accuracy_value', 'NONE');
#35 = DIRECTION ( 'NONE',  ( 0.000000000000000000, 0.000000000000000000, -1.000000000000000000 ) ) ;
#36 = DIRECTION ( 'NONE',  ( 5.990729859209552644E-17, -1.000000000000000000, 0.000000000000000000 ) ) ;
#37 = STYLED_ITEM ( 'NONE', ( #32 ), #175 ) ;
#38 = SURFACE_STYLE_FILL_AREA ( #223 ) ;
#39 = PLANE ( 'NONE',  #24 ) ;
#40 = CARTESIAN_POINT ( 'NONE',  ( -0.09374999999999969469, 2.000000000000000000, 0.000000000000000000 ) ) ;
#41 =( NAMED_UNIT ( * ) PLANE_ANGLE_UNIT ( ) SI_UNIT ( $, .RADIAN. ) );
#42 = LINE ( 'NONE', #184, #151 ) ;
#43 = ADVANCED_BREP_SHAPE_REPRESENTATION ( '06423', ( #79, #162, #155 ), #69 ) ;
#44 = APPLICATION_CONTEXT ( 'automotive_design' ) ;
#45 = AXIS2_PLACEMENT_3D ( 'NONE', #16, #8, #251 ) ;
#46 = CARTESIAN_POINT ( 'NONE',  ( 0.09374999999999998612, 2.000000000000000000, 1.148106374200641860E-17 ) ) ;
#47 = EDGE_LOOP ( 'NONE', ( #192, #240 ) ) ;
#48 = AXIS2_PLACEMENT_3D ( 'NONE', #57, #156, #120 ) ;
#49 = CARTESIAN_POINT ( 'NONE',  ( 0.000000000000000000, 0.000000000000000000, 0.000000000000000000 ) ) ;
#50 = DIRECTION ( 'NONE',  ( 1.060575238724908024E-16, 0.4999999999999979461, -0.8660254037844397068 ) ) ;
#51 =( CONVERSION_BASED_UNIT ( 'INCH', #91 ) LENGTH_UNIT ( ) NAMED_UNIT ( #132 ) );
#52 =( NAMED_UNIT ( * ) PLANE_ANGLE_UNIT ( ) SI_UNIT ( $, .RADIAN. ) );
#53 = CARTESIAN_POINT ( 'NONE',  ( 0.000000000000000000, 0.000000000000000000, 0.000000000000000000 ) ) ;
#54 = CIRCLE ( 'NONE', #7, 0.09374999999999987510 ) ;
#55 = PRODUCT_RELATED_PRODUCT_CATEGORY ( 'part', '', ( #138 ) ) ;
#56 = SURFACE_STYLE_USAGE ( .BOTH. , #134 ) ;
#57 = CARTESIAN_POINT ( 'NONE',  ( 2.390366994456230070E-16, 0.05412658773652723881, 0.000000000000000000 ) ) ;
#58 = FILL_AREA_STYLE_COLOUR ( '', #68 ) ;
#59 = FACE_OUTER_BOUND ( 'NONE', #47, .T. ) ;
#60 = AXIS2_PLACEMENT_3D ( 'NONE', #263, #19, #205 ) ;
#61 = CARTESIAN_POINT ( 'NONE',  ( -0.09374999999999975020, 2.000000000000000000, 0.000000000000000000 ) ) ;
#62 = SURFACE_STYLE_FILL_AREA ( #218 ) ;
#63 = AXIS2_PLACEMENT_3D ( 'NONE', #139, #107, #5 ) ;
#64 =( NAMED_UNIT ( * ) PLANE_ANGLE_UNIT ( ) SI_UNIT ( $, .RADIAN. ) );
#65 = ORIENTED_EDGE ( 'NONE', *, *, #210, .T. ) ;
#66 = PRODUCT_DEFINITION_CONTEXT ( 'detailed design', #154, 'design' ) ;
#67 = LINE ( 'NONE', #111, #214 ) ;
#68 = COLOUR_RGB ( '',1.000000000000000000, 0.000000000000000000, 0.000000000000000000 ) ;
#69 =( GEOMETRIC_REPRESENTATION_CONTEXT ( 3 ) GLOBAL_UNCERTAINTY_ASSIGNED_CONTEXT ( ( #259 ) ) GLOBAL_UNIT_ASSIGNED_CONTEXT ( ( #165, #167, #1 ) ) REPRESENTATION_CONTEXT ( 'NONE', 'WORKASPACE' ) );
#70 =( NAMED_UNIT ( * ) SI_UNIT ( $, .STERADIAN. ) SOLID_ANGLE_UNIT ( ) );
#71 =( CONVERSION_BASED_UNIT ( 'INCH', #13 ) LENGTH_UNIT ( ) NAMED_UNIT ( #72 ) );
#72 = DIMENSIONAL_EXPONENTS ( 1.000000000000000000, 0.000000000000000000, 0.000000000000000000, 0.000000000000000000, 0.000000000000000000, 0.000000000000000000, 0.000000000000000000 ) ;
#73 = DIRECTION ( 'NONE',  ( -1.000000000000000000, 0.000000000000000000, 0.000000000000000000 ) ) ;
#74 = PRODUCT_DEFINITION ( 'UNKNOWN', '', #248, #66 ) ;
#75 = ORIENTED_EDGE ( 'NONE', *, *, #230, .T. ) ;
#76 = AXIS2_PLACEMENT_3D ( 'NONE', #77, #161, #255 ) ;
#77 = CARTESIAN_POINT ( 'NONE',  ( 2.390366994456230070E-16, 0.05412658773652712085, 0.000000000000000000 ) ) ;
#78 = SURFACE_SIDE_STYLE ('',( #38 ) ) ;
#79 = MANIFOLD_SOLID_BREP ( 'Revolve - Cutting Edge', #90 ) ;
#80 = ORIENTED_EDGE ( 'NONE', *, *, #87, .T. ) ;
#81 = SURFACE_SIDE_STYLE ('',( #98 ) ) ;
#82 = VERTEX_POINT ( 'NONE', #221 ) ;
#83 = CARTESIAN_POINT ( 'NONE',  ( 0.000000000000000000, 0.05412658773652713473, 0.09375000000000001388 ) ) ;
#84 = PRESENTATION_LAYER_ASSIGNMENT (  '', '', ( #127 ) ) ;
#85 = PLANE ( 'NONE',  #76 ) ;
#86 = EDGE_CURVE ( 'NONE', #82, #250, #131, .T. ) ;
#87 = EDGE_CURVE ( 'NONE', #159, #130, #256, .T. ) ;
#88 = COLOUR_RGB ( '',1.000000000000000000, 0.000000000000000000, 0.000000000000000000 ) ;
#89 =( NAMED_UNIT ( * ) SI_UNIT ( $, .STERADIAN. ) SOLID_ANGLE_UNIT ( ) );
#90 = CLOSED_SHELL ( 'NONE', ( #175, #227, #261 ) ) ;
#91 = LENGTH_MEASURE_WITH_UNIT ( LENGTH_MEASURE( 0.02539999999999999897 ), #215 );
#92 = CARTESIAN_POINT ( 'NONE',  ( 1.224646799147353700E-16, 2.000000000000000000, 0.000000000000000000 ) ) ;
#93 = EDGE_LOOP ( 'NONE', ( #115, #15 ) ) ;
#94 = VECTOR ( 'NONE', #50, 39.37007874015748854 ) ;
#95 = VERTEX_POINT ( 'NONE', #182 ) ;
#96 = CARTESIAN_POINT ( 'NONE',  ( -0.09374999999999951428, 0.05412658773652723188, 0.000000000000000000 ) ) ;
#97 =( LENGTH_UNIT ( ) NAMED_UNIT ( * ) SI_UNIT ( $, .METRE. ) );
#98 = SURFACE_STYLE_FILL_AREA ( #196 ) ;
#99 = DIMENSIONAL_EXPONENTS ( 1.000000000000000000, 0.000000000000000000, 0.000000000000000000, 0.000000000000000000, 0.000000000000000000, 0.000000000000000000, 0.000000000000000000 ) ;
#100 =( CONVERSION_BASED_UNIT ( 'INCH', #157 ) LENGTH_UNIT ( ) NAMED_UNIT ( #118 ) );
#101 = CYLINDRICAL_SURFACE ( 'NONE', #60, 0.09374999999999981959 ) ;
#102 =( LENGTH_UNIT ( ) NAMED_UNIT ( * ) SI_UNIT ( $, .METRE. ) );
#103 = DIRECTION ( 'NONE',  ( -5.990729859209552644E-17, 1.000000000000000000, -0.000000000000000000 ) ) ;
#104 =( NAMED_UNIT ( * ) SI_UNIT ( $, .STERADIAN. ) SOLID_ANGLE_UNIT ( ) );
#105 = APPLICATION_PROTOCOL_DEFINITION ( 'draft international standard', 'automotive_design', 1998, #44 ) ;
#106 = PRESENTATION_LAYER_ASSIGNMENT (  '', '', ( #264 ) ) ;
#107 = DIRECTION ( 'NONE',  ( 0.000000000000000000, 1.000000000000000000, 0.000000000000000000 ) ) ;
#108 = ORIENTED_EDGE ( 'NONE', *, *, #129, .F. ) ;
#109 = VECTOR ( 'NONE', #260, 39.37007874015748143 ) ;
#110 = SURFACE_STYLE_USAGE ( .BOTH. , #211 ) ;
#111 = CARTESIAN_POINT ( 'NONE',  ( 0.000000000000000000, 0.000000000000000000, 0.000000000000000000 ) ) ;
#112 = ORIENTED_EDGE ( 'NONE', *, *, #129, .T. ) ;
#113 = MECHANICAL_DESIGN_GEOMETRIC_PRESENTATION_REPRESENTATION (  '', ( #37 ), #160 ) ;
#114 = FACE_OUTER_BOUND ( 'NONE', #209, .T. ) ;
#115 = ORIENTED_EDGE ( 'NONE', *, *, #225, .F. ) ;
#116 =( CONVERSION_BASED_UNIT ( 'INCH', #23 ) LENGTH_UNIT ( ) NAMED_UNIT ( #213 ) );
#117 = EDGE_LOOP ( 'NONE', ( #179, #262, #75 ) ) ;
#118 = DIMENSIONAL_EXPONENTS ( 1.000000000000000000, 0.000000000000000000, 0.000000000000000000, 0.000000000000000000, 0.000000000000000000, 0.000000000000000000, 0.000000000000000000 ) ;
#119 = STYLED_ITEM ( 'NONE', ( #176 ), #261 ) ;
#120 = DIRECTION ( 'NONE',  ( -1.000000000000000000, -9.106159978880902047E-17, 0.000000000000000000 ) ) ;
#121 = DIRECTION ( 'NONE',  ( -0.000000000000000000, -1.000000000000000000, -0.000000000000000000 ) ) ;
#122 = PLANE ( 'NONE',  #135 ) ;
#123 = CARTESIAN_POINT ( 'NONE',  ( 1.224646799147353700E-16, 2.000000000000000000, 0.000000000000000000 ) ) ;
#124 = CARTESIAN_POINT ( 'NONE',  ( 2.390366994456230070E-16, 0.05412658773652723881, 0.000000000000000000 ) ) ;
#125 = ADVANCED_FACE ( 'NONE', ( #164 ), #101, .T. ) ;
#126 = AXIS2_PLACEMENT_3D ( 'NONE', #226, #246, #242 ) ;
#127 = STYLED_ITEM ( 'NONE', ( #202 ), #227 ) ;
#128 = DIRECTION ( 'NONE',  ( 1.000000000000000000, 0.000000000000000000, 0.000000000000000000 ) ) ;
#129 = EDGE_CURVE ( 'NONE', #95, #159, #42, .T. ) ;
#130 = VERTEX_POINT ( 'NONE', #61 ) ;
#131 = CIRCLE ( 'NONE', #142, 0.09375000000000001388 ) ;
#132 = DIMENSIONAL_EXPONENTS ( 1.000000000000000000, 0.000000000000000000, 0.000000000000000000, 0.000000000000000000, 0.000000000000000000, 0.000000000000000000, 0.000000000000000000 ) ;
#133 = FILL_AREA_STYLE ('',( #150 ) ) ;
#134 = SURFACE_SIDE_STYLE ('',( #237 ) ) ;
#135 = AXIS2_PLACEMENT_3D ( 'NONE', #265, #204, #200 ) ;
#136 = SURFACE_STYLE_FILL_AREA ( #133 ) ;
#137 = PRESENTATION_STYLE_ASSIGNMENT (( #56 ) ) ;
#138 = PRODUCT ( '06423', '06423', '', ( #145 ) ) ;
#139 = CARTESIAN_POINT ( 'NONE',  ( 0.000000000000000000, 39.37007874015748143, 0.000000000000000000 ) ) ;
#140 = DIRECTION ( 'NONE',  ( 1.000000000000000000, 5.990729859209552644E-17, 0.000000000000000000 ) ) ;
#141 = FILL_AREA_STYLE_COLOUR ( '', #33 ) ;
#142 = AXIS2_PLACEMENT_3D ( 'NONE', #197, #121, #203 ) ;
#143 =( LENGTH_UNIT ( ) NAMED_UNIT ( * ) SI_UNIT ( $, .METRE. ) );
#144 = AXIS2_PLACEMENT_3D ( 'NONE', #124, #239, #174 ) ;
#145 = PRODUCT_CONTEXT ( 'NONE', #44, 'mechanical' ) ;
#146 = LENGTH_MEASURE_WITH_UNIT ( LENGTH_MEASURE( 0.02539999999999999897 ), #25 );
#147 = SURFACE_SIDE_STYLE ('',( #62 ) ) ;
#148 =( GEOMETRIC_REPRESENTATION_CONTEXT ( 3 ) GLOBAL_UNCERTAINTY_ASSIGNED_CONTEXT ( ( #252 ) ) GLOBAL_UNIT_ASSIGNED_CONTEXT ( ( #71, #64, #153 ) ) REPRESENTATION_CONTEXT ( 'NONE', 'WORKASPACE' ) );
#149 = ORIENTED_EDGE ( 'NONE', *, *, #27, .F. ) ;
#150 = FILL_AREA_STYLE_COLOUR ( '', #166 ) ;
#151 = VECTOR ( 'NONE', #168, 39.37007874015748143 ) ;
#152 = PRESENTATION_STYLE_ASSIGNMENT (( #170 ) ) ;
#153 =( NAMED_UNIT ( * ) SI_UNIT ( $, .STERADIAN. ) SOLID_ANGLE_UNIT ( ) );
#154 = APPLICATION_CONTEXT ( 'automotive_design' ) ;
#155 = AXIS2_PLACEMENT_3D ( 'NONE', #208, #186, #128 ) ;
#156 = DIRECTION ( 'NONE',  ( -5.990729859209552644E-17, 1.000000000000000000, -0.000000000000000000 ) ) ;
#157 = LENGTH_MEASURE_WITH_UNIT ( LENGTH_MEASURE( 0.02539999999999999897 ), #97 );
#158 =( CONVERSION_BASED_UNIT ( 'INCH', #199 ) LENGTH_UNIT ( ) NAMED_UNIT ( #99 ) );
#159 = VERTEX_POINT ( 'NONE', #46 ) ;
#160 =( GEOMETRIC_REPRESENTATION_CONTEXT ( 3 ) GLOBAL_UNCERTAINTY_ASSIGNED_CONTEXT ( ( #12 ) ) GLOBAL_UNIT_ASSIGNED_CONTEXT ( ( #51, #28, #70 ) ) REPRESENTATION_CONTEXT ( 'NONE', 'WORKASPACE' ) );
#161 = DIRECTION ( 'NONE',  ( -5.990729859209552644E-17, 1.000000000000000000, 0.000000000000000000 ) ) ;
#162 = MANIFOLD_SOLID_BREP ( 'Revolve - Tool Body (Pointed)', #26 ) ;
#163 = APPLICATION_PROTOCOL_DEFINITION ( 'draft international standard', 'automotive_design', 1998, #154 ) ;
#164 = FACE_OUTER_BOUND ( 'NONE', #217, .T. ) ;
#165 =( CONVERSION_BASED_UNIT ( 'INCH', #146 ) LENGTH_UNIT ( ) NAMED_UNIT ( #235 ) );
#166 = COLOUR_RGB ( '',1.000000000000000000, 0.000000000000000000, 0.000000000000000000 ) ;
#167 =( NAMED_UNIT ( * ) PLANE_ANGLE_UNIT ( ) SI_UNIT ( $, .RADIAN. ) );
#168 = DIRECTION ( 'NONE',  ( -5.990729859209552644E-17, 1.000000000000000000, -0.000000000000000000 ) ) ;
#169 = EDGE_CURVE ( 'NONE', #188, #82, #236, .T. ) ;
#170 = SURFACE_STYLE_USAGE ( .BOTH. , #147 ) ;
#171 = ORIENTED_EDGE ( 'NONE', *, *, #87, .F. ) ;
#172 = DIRECTION ( 'NONE',  ( -5.990729859209552644E-17, 1.000000000000000000, -0.000000000000000000 ) ) ;
#173 = UNCERTAINTY_MEASURE_WITH_UNIT (LENGTH_MEASURE( 1.000000000000000082E-05 ), #116, 'distance_accuracy_value', 'NONE');
#174 = DIRECTION ( 'NONE',  ( -1.000000000000000000, -9.106159978880902047E-17, 0.000000000000000000 ) ) ;
#175 = ADVANCED_FACE ( 'NONE', ( #2 ), #14, .T. ) ;
#176 = PRESENTATION_STYLE_ASSIGNMENT (( #241 ) ) ;
#177 = SURFACE_STYLE_USAGE ( .BOTH. , #78 ) ;
#178 = DIRECTION ( 'NONE',  ( -0.000000000000000000, -1.000000000000000000, -0.000000000000000000 ) ) ;
#179 = ORIENTED_EDGE ( 'NONE', *, *, #169, .F. ) ;
#180 = PRESENTATION_LAYER_ASSIGNMENT (  '', '', ( #198 ) ) ;
#181 =( GEOMETRIC_REPRESENTATION_CONTEXT ( 3 ) GLOBAL_UNCERTAINTY_ASSIGNED_CONTEXT ( ( #34 ) ) GLOBAL_UNIT_ASSIGNED_CONTEXT ( ( #158, #247, #89 ) ) REPRESENTATION_CONTEXT ( 'NONE', 'WORKASPACE' ) );
#182 = CARTESIAN_POINT ( 'NONE',  ( 0.09374999999999998612, 0.05412658773652724575, 1.148106374200641860E-17 ) ) ;
#183 = MECHANICAL_DESIGN_GEOMETRIC_PRESENTATION_REPRESENTATION (  '', ( #198 ), #148 ) ;
#184 = CARTESIAN_POINT ( 'NONE',  ( 0.09374999999999994449, 2.000000000000000000, 1.148106374200641398E-17 ) ) ;
#185 = EDGE_CURVE ( 'NONE', #188, #250, #67, .T. ) ;
#186 = DIRECTION ( 'NONE',  ( 0.000000000000000000, 0.000000000000000000, 1.000000000000000000 ) ) ;
#187 = CIRCLE ( 'NONE', #48, 0.09374999999999975020 ) ;
#188 = VERTEX_POINT ( 'NONE', #49 ) ;
#189 = UNCERTAINTY_MEASURE_WITH_UNIT (LENGTH_MEASURE( 1.000000000000000082E-05 ), #100, 'distance_accuracy_value', 'NONE');
#190 = FACE_OUTER_BOUND ( 'NONE', #11, .T. ) ;
#191 = ORIENTED_EDGE ( 'NONE', *, *, #225, .T. ) ;
#192 = ORIENTED_EDGE ( 'NONE', *, *, #230, .F. ) ;
#193 = CIRCLE ( 'NONE', #144, 0.09374999999999975020 ) ;
#194 = FILL_AREA_STYLE ('',( #234 ) ) ;
#195 = ADVANCED_FACE ( 'NONE', ( #190 ), #10, .T. ) ;
#196 = FILL_AREA_STYLE ('',( #216 ) ) ;
#197 = CARTESIAN_POINT ( 'NONE',  ( 0.000000000000000000, 0.05412658773652713473, 0.000000000000000000 ) ) ;
#198 = STYLED_ITEM ( 'NONE', ( #152 ), #162 ) ;
#199 = LENGTH_MEASURE_WITH_UNIT ( LENGTH_MEASURE( 0.02539999999999999897 ), #102 );
#200 = DIRECTION ( 'NONE',  ( 0.000000000000000000, -0.000000000000000000, 1.000000000000000000 ) ) ;
#201 = ORIENTED_EDGE ( 'NONE', *, *, #27, .T. ) ;
#202 = PRESENTATION_STYLE_ASSIGNMENT (( #177 ) ) ;
#203 = DIRECTION ( 'NONE',  ( 0.000000000000000000, 0.000000000000000000, -1.000000000000000000 ) ) ;
#204 = DIRECTION ( 'NONE',  ( 0.000000000000000000, 1.000000000000000000, 0.000000000000000000 ) ) ;
#205 = DIRECTION ( 'NONE',  ( -1.000000000000000000, 0.000000000000000000, 0.000000000000000000 ) ) ;
#206 = SHAPE_DEFINITION_REPRESENTATION ( #224, #43 ) ;
#207 = COLOUR_RGB ( '',0.7921568627450980005, 0.8196078431372548767, 0.9333333333333333481 ) ;
#208 = CARTESIAN_POINT ( 'NONE',  ( 0.000000000000000000, 0.000000000000000000, 0.000000000000000000 ) ) ;
#209 = EDGE_LOOP ( 'NONE', ( #201, #80 ) ) ;
#210 = EDGE_CURVE ( 'NONE', #257, #130, #30, .T. ) ;
#211 = SURFACE_SIDE_STYLE ('',( #136 ) ) ;
#212 = DIRECTION ( 'NONE',  ( -1.000000000000000000, 0.000000000000000000, 0.000000000000000000 ) ) ;
#213 = DIMENSIONAL_EXPONENTS ( 1.000000000000000000, 0.000000000000000000, 0.000000000000000000, 0.000000000000000000, 0.000000000000000000, 0.000000000000000000, 0.000000000000000000 ) ;
#214 = VECTOR ( 'NONE', #231, 39.37007874015748854 ) ;
#215 =( LENGTH_UNIT ( ) NAMED_UNIT ( * ) SI_UNIT ( $, .METRE. ) );
#216 = FILL_AREA_STYLE_COLOUR ( '', #88 ) ;
#217 = EDGE_LOOP ( 'NONE', ( #191, #112, #149, #31 ) ) ;
#218 = FILL_AREA_STYLE ('',( #141 ) ) ;
#219 = AXIS2_PLACEMENT_3D ( 'NONE', #20, #178, #35 ) ;
#220 = ORIENTED_EDGE ( 'NONE', *, *, #86, .T. ) ;
#221 = CARTESIAN_POINT ( 'NONE',  ( 1.148106374200643863E-17, 0.05412658773652713473, -0.09375000000000001388 ) ) ;
#222 = FACE_OUTER_BOUND ( 'NONE', #93, .T. ) ;
#223 = FILL_AREA_STYLE ('',( #58 ) ) ;
#224 = PRODUCT_DEFINITION_SHAPE ( 'NONE', 'NONE',  #74 ) ;
#225 = EDGE_CURVE ( 'NONE', #257, #95, #193, .T. ) ;
#226 = CARTESIAN_POINT ( 'NONE',  ( 1.224646799147353700E-16, 2.000000000000000000, 0.000000000000000000 ) ) ;
#227 = ADVANCED_FACE ( 'NONE', ( #59 ), #122, .T. ) ;
#228 = MECHANICAL_DESIGN_GEOMETRIC_PRESENTATION_REPRESENTATION (  '', ( #264 ), #253 ) ;
#229 =( LENGTH_UNIT ( ) NAMED_UNIT ( * ) SI_UNIT ( $, .METRE. ) );
#230 = EDGE_CURVE ( 'NONE', #250, #82, #18, .T. ) ;
#231 = DIRECTION ( 'NONE',  ( 0.000000000000000000, 0.4999999999999979461, 0.8660254037844397068 ) ) ;
#232 = MECHANICAL_DESIGN_GEOMETRIC_PRESENTATION_REPRESENTATION (  '', ( #127 ), #249 ) ;
#233 = EDGE_CURVE ( 'NONE', #95, #257, #187, .T. ) ;
#234 = FILL_AREA_STYLE_COLOUR ( '', #207 ) ;
#235 = DIMENSIONAL_EXPONENTS ( 1.000000000000000000, 0.000000000000000000, 0.000000000000000000, 0.000000000000000000, 0.000000000000000000, 0.000000000000000000, 0.000000000000000000 ) ;
#236 = LINE ( 'NONE', #53, #94 ) ;
#237 = SURFACE_STYLE_FILL_AREA ( #194 ) ;
#238 = AXIS2_PLACEMENT_3D ( 'NONE', #92, #172, #212 ) ;
#239 = DIRECTION ( 'NONE',  ( -5.990729859209552644E-17, 1.000000000000000000, -0.000000000000000000 ) ) ;
#240 = ORIENTED_EDGE ( 'NONE', *, *, #86, .F. ) ;
#241 = SURFACE_STYLE_USAGE ( .BOTH. , #81 ) ;
#242 = DIRECTION ( 'NONE',  ( -1.000000000000000000, 0.000000000000000000, 0.000000000000000000 ) ) ;
#243 =( NAMED_UNIT ( * ) SI_UNIT ( $, .STERADIAN. ) SOLID_ANGLE_UNIT ( ) );
#244 = FACE_OUTER_BOUND ( 'NONE', #117, .T. ) ;
#245 = ADVANCED_FACE ( 'NONE', ( #222 ), #85, .F. ) ;
#246 = DIRECTION ( 'NONE',  ( -5.990729859209552644E-17, 1.000000000000000000, -0.000000000000000000 ) ) ;
#247 =( NAMED_UNIT ( * ) PLANE_ANGLE_UNIT ( ) SI_UNIT ( $, .RADIAN. ) );
#248 = PRODUCT_DEFINITION_FORMATION_WITH_SPECIFIED_SOURCE ( 'ANY', '', #138, .NOT_KNOWN. ) ;
#249 =( GEOMETRIC_REPRESENTATION_CONTEXT ( 3 ) GLOBAL_UNCERTAINTY_ASSIGNED_CONTEXT ( ( #173 ) ) GLOBAL_UNIT_ASSIGNED_CONTEXT ( ( #116, #41, #104 ) ) REPRESENTATION_CONTEXT ( 'NONE', 'WORKASPACE' ) );
#250 = VERTEX_POINT ( 'NONE', #83 ) ;
#251 = DIRECTION ( 'NONE',  ( 0.000000000000000000, 0.000000000000000000, 1.000000000000000000 ) ) ;
#252 = UNCERTAINTY_MEASURE_WITH_UNIT (LENGTH_MEASURE( 1.000000000000000082E-05 ), #71, 'distance_accuracy_value', 'NONE');
#253 =( GEOMETRIC_REPRESENTATION_CONTEXT ( 3 ) GLOBAL_UNCERTAINTY_ASSIGNED_CONTEXT ( ( #189 ) ) GLOBAL_UNIT_ASSIGNED_CONTEXT ( ( #100, #52, #243 ) ) REPRESENTATION_CONTEXT ( 'NONE', 'WORKASPACE' ) );
#254 = ORIENTED_EDGE ( 'NONE', *, *, #185, .F. ) ;
#255 = DIRECTION ( 'NONE',  ( -1.000000000000000000, -5.990729859209552644E-17, 0.000000000000000000 ) ) ;
#256 = CIRCLE ( 'NONE', #126, 0.09374999999999987510 ) ;
#257 = VERTEX_POINT ( 'NONE', #96 ) ;
#258 = CONICAL_SURFACE ( 'NONE', #63, 68.19097667594041923, 1.047197551196600074 ) ;
#259 = UNCERTAINTY_MEASURE_WITH_UNIT (LENGTH_MEASURE( 1.000000000000000082E-05 ), #165, 'distance_accuracy_value', 'NONE');
#260 = DIRECTION ( 'NONE',  ( -5.990729859209552644E-17, 1.000000000000000000, -0.000000000000000000 ) ) ;
#261 = ADVANCED_FACE ( 'NONE', ( #244 ), #258, .T. ) ;
#262 = ORIENTED_EDGE ( 'NONE', *, *, #185, .T. ) ;
#263 = CARTESIAN_POINT ( 'NONE',  ( 1.224646799147353700E-16, 2.000000000000000000, 0.000000000000000000 ) ) ;
#264 = STYLED_ITEM ( 'NONE', ( #137 ), #79 ) ;
#265 = CARTESIAN_POINT ( 'NONE',  ( 0.000000000000000000, 0.05412658773652712779, 0.000000000000000000 ) ) ;
ENDSEC;
END-ISO-10303-21;
