ISO-10303-21;
HEADER;
FILE_DESCRIPTION (( 'STEP AP214' ),
    '1' );
FILE_NAME ('59642.STEP',
    '2023-07-24T15:18:34',
    ( '' ),
    ( '' ),
    'SwSTEP 2.0',
    'SolidWorks 2023',
    '' );
FILE_SCHEMA (( 'AUTOMOTIVE_DESIGN' ));
ENDSEC;

DATA;
#1 = SURFACE_STYLE_USAGE ( .BOTH. , #256 ) ;
#2 = AXIS2_PLACEMENT_3D ( 'NONE', #359, #279, #260 ) ;
#3 =( GEOMETRIC_REPRESENTATION_CONTEXT ( 3 ) GLOBAL_UNCERTAINTY_ASSIGNED_CONTEXT ( ( #298 ) ) GLOBAL_UNIT_ASSIGNED_CONTEXT ( ( #54, #363, #68 ) ) REPRESENTATION_CONTEXT ( 'NONE', 'WORKASPACE' ) );
#4 = EDGE_LOOP ( 'NONE', ( #111, #82, #271, #354 ) ) ;
#5 =( NAMED_UNIT ( * ) SI_UNIT ( $, .STERADIAN. ) SOLID_ANGLE_UNIT ( ) );
#6 = DIRECTION ( 'NONE',  ( 1.208874916035850209E-16, -1.000000000000000000, 0.000000000000000000 ) ) ;
#7 = FACE_OUTER_BOUND ( 'NONE', #42, .T. ) ;
#8 = CARTESIAN_POINT ( 'NONE',  ( 7.041719095097280880E-16, 0.000000000000000000, 5.500000000000000000 ) ) ;
#9 = ORIENTED_EDGE ( 'NONE', *, *, #262, .F. ) ;
#10 = CARTESIAN_POINT ( 'NONE',  ( 6.000000000000000000, 18.00000000000000355, 7.347880794884119736E-16 ) ) ;
#11 =( GEOMETRIC_REPRESENTATION_CONTEXT ( 3 ) GLOBAL_UNCERTAINTY_ASSIGNED_CONTEXT ( ( #115 ) ) GLOBAL_UNIT_ASSIGNED_CONTEXT ( ( #211, #44, #23 ) ) REPRESENTATION_CONTEXT ( 'NONE', 'WORKASPACE' ) );
#12 = AXIS2_PLACEMENT_3D ( 'NONE', #47, #274, #225 ) ;
#13 = ORIENTED_EDGE ( 'NONE', *, *, #78, .T. ) ;
#14 = DIRECTION ( 'NONE',  ( 0.000000000000000000, 0.000000000000000000, -1.000000000000000000 ) ) ;
#15 = FILL_AREA_STYLE ('',( #63 ) ) ;
#16 = CARTESIAN_POINT ( 'NONE',  ( -1.469576158976823750E-15, 75.00000000000000000, 0.000000000000000000 ) ) ;
#17 = ORIENTED_EDGE ( 'NONE', *, *, #370, .F. ) ;
#18 = EDGE_CURVE ( 'NONE', #191, #87, #368, .T. ) ;
#19 = CIRCLE ( 'NONE', #223, 5.999999999999994671 ) ;
#20 = FILL_AREA_STYLE_COLOUR ( '', #345 ) ;
#21 = ORIENTED_EDGE ( 'NONE', *, *, #95, .T. ) ;
#22 = SHAPE_DEFINITION_REPRESENTATION ( #314, #242 ) ;
#23 =( NAMED_UNIT ( * ) SI_UNIT ( $, .STERADIAN. ) SOLID_ANGLE_UNIT ( ) );
#24 = DIRECTION ( 'NONE',  ( 1.000000000000000000, 0.000000000000000000, -1.224646799147353207E-16 ) ) ;
#25 =( NAMED_UNIT ( * ) PLANE_ANGLE_UNIT ( ) SI_UNIT ( $, .RADIAN. ) );
#26 = EDGE_CURVE ( 'NONE', #27, #127, #290, .T. ) ;
#27 = VERTEX_POINT ( 'NONE', #137 ) ;
#28 = PLANE ( 'NONE',  #301 ) ;
#29 = ADVANCED_FACE ( 'NONE', ( #169 ), #193, .T. ) ;
#30 = FILL_AREA_STYLE ('',( #280 ) ) ;
#31 =( LENGTH_UNIT ( ) NAMED_UNIT ( * ) SI_UNIT ( .MILLI., .METRE. ) );
#32 = AXIS2_PLACEMENT_3D ( 'NONE', #106, #77, #226 ) ;
#33 = LINE ( 'NONE', #213, #255 ) ;
#34 = DIRECTION ( 'NONE',  ( -0.000000000000000000, -1.000000000000000000, -0.000000000000000000 ) ) ;
#35 = ORIENTED_EDGE ( 'NONE', *, *, #246, .F. ) ;
#36 = PRESENTATION_STYLE_ASSIGNMENT (( #148 ) ) ;
#37 = CARTESIAN_POINT ( 'NONE',  ( 0.000000000000000000, 0.5000000000000000000, 0.000000000000000000 ) ) ;
#38 = CARTESIAN_POINT ( 'NONE',  ( 0.000000000000000000, 18.00000000000000000, 0.000000000000000000 ) ) ;
#39 = STYLED_ITEM ( 'NONE', ( #189 ), #166 ) ;
#40 = DIRECTION ( 'NONE',  ( 0.000000000000000000, 0.000000000000000000, -1.000000000000000000 ) ) ;
#41 = UNCERTAINTY_MEASURE_WITH_UNIT (LENGTH_MEASURE( 1.000000000000000082E-05 ), #124, 'distance_accuracy_value', 'NONE');
#42 = EDGE_LOOP ( 'NONE', ( #207, #306, #235, #9 ) ) ;
#43 = PRESENTATION_LAYER_ASSIGNMENT (  '', '', ( #131 ) ) ;
#44 =( NAMED_UNIT ( * ) PLANE_ANGLE_UNIT ( ) SI_UNIT ( $, .RADIAN. ) );
#45 = SURFACE_STYLE_FILL_AREA ( #360 ) ;
#46 = EDGE_CURVE ( 'NONE', #319, #194, #227, .T. ) ;
#47 = CARTESIAN_POINT ( 'NONE',  ( 0.000000000000000000, 0.5000000000000000000, 0.000000000000000000 ) ) ;
#48 = DIRECTION ( 'NONE',  ( 0.000000000000000000, 1.000000000000000000, 0.000000000000000000 ) ) ;
#49 = EDGE_CURVE ( 'NONE', #87, #191, #362, .T. ) ;
#50 = ORIENTED_EDGE ( 'NONE', *, *, #95, .F. ) ;
#51 = COLOUR_RGB ( '',1.000000000000000000, 0.000000000000000000, 0.000000000000000000 ) ;
#52 = CIRCLE ( 'NONE', #97, 6.000000000000001776 ) ;
#53 = PRESENTATION_LAYER_ASSIGNMENT (  '', '', ( #369 ) ) ;
#54 =( LENGTH_UNIT ( ) NAMED_UNIT ( * ) SI_UNIT ( .MILLI., .METRE. ) );
#55 = DIRECTION ( 'NONE',  ( 0.000000000000000000, 0.000000000000000000, -1.000000000000000000 ) ) ;
#56 =( LENGTH_UNIT ( ) NAMED_UNIT ( * ) SI_UNIT ( .MILLI., .METRE. ) );
#57 = SURFACE_STYLE_USAGE ( .BOTH. , #158 ) ;
#58 = ADVANCED_FACE ( 'NONE', ( #312 ), #28, .T. ) ;
#59 = PRESENTATION_STYLE_ASSIGNMENT (( #57 ) ) ;
#60 = ORIENTED_EDGE ( 'NONE', *, *, #199, .F. ) ;
#61 = SURFACE_STYLE_FILL_AREA ( #320 ) ;
#62 = CARTESIAN_POINT ( 'NONE',  ( 0.000000000000000000, 0.5000000000000000000, 0.000000000000000000 ) ) ;
#63 = FILL_AREA_STYLE_COLOUR ( '', #88 ) ;
#64 = SURFACE_STYLE_FILL_AREA ( #96 ) ;
#65 = EDGE_LOOP ( 'NONE', ( #50, #273, #94, #35 ) ) ;
#66 = AXIS2_PLACEMENT_3D ( 'NONE', #103, #340, #196 ) ;
#67 = PRODUCT_RELATED_PRODUCT_CATEGORY ( 'part', '', ( #238 ) ) ;
#68 =( NAMED_UNIT ( * ) SI_UNIT ( $, .STERADIAN. ) SOLID_ANGLE_UNIT ( ) );
#69 =( NAMED_UNIT ( * ) SI_UNIT ( $, .STERADIAN. ) SOLID_ANGLE_UNIT ( ) );
#70 = EDGE_LOOP ( 'NONE', ( #281, #21, #122, #214 ) ) ;
#71 = DIRECTION ( 'NONE',  ( -1.000000000000000000, 0.000000000000000000, 0.000000000000000000 ) ) ;
#72 = PRODUCT_DEFINITION_CONTEXT ( 'detailed design', #100, 'design' ) ;
#73 = ORIENTED_EDGE ( 'NONE', *, *, #199, .T. ) ;
#74 = CARTESIAN_POINT ( 'NONE',  ( 7.347880794884119736E-16, 18.00000000000000000, 6.000000000000000000 ) ) ;
#75 = VERTEX_POINT ( 'NONE', #219 ) ;
#76 = CARTESIAN_POINT ( 'NONE',  ( 0.000000000000000000, 0.000000000000000000, 0.000000000000000000 ) ) ;
#77 = DIRECTION ( 'NONE',  ( -0.000000000000000000, -1.000000000000000000, -0.000000000000000000 ) ) ;
#78 = EDGE_CURVE ( 'NONE', #85, #337, #109, .T. ) ;
#79 = STYLED_ITEM ( 'NONE', ( #179 ), #108 ) ;
#80 = FILL_AREA_STYLE ('',( #185 ) ) ;
#81 =( NAMED_UNIT ( * ) PLANE_ANGLE_UNIT ( ) SI_UNIT ( $, .RADIAN. ) );
#82 = ORIENTED_EDGE ( 'NONE', *, *, #236, .T. ) ;
#83 = STYLED_ITEM ( 'NONE', ( #181 ), #58 ) ;
#84 = PRESENTATION_LAYER_ASSIGNMENT (  '', '', ( #102 ) ) ;
#85 = VERTEX_POINT ( 'NONE', #198 ) ;
#86 = SURFACE_STYLE_FILL_AREA ( #30 ) ;
#87 = VERTEX_POINT ( 'NONE', #313 ) ;
#88 = COLOUR_RGB ( '',1.000000000000000000, 0.000000000000000000, 0.000000000000000000 ) ;
#89 = CYLINDRICAL_SURFACE ( 'NONE', #168, 5.999999999999998224 ) ;
#90 = DIRECTION ( 'NONE',  ( -0.000000000000000000, -1.000000000000000000, -0.000000000000000000 ) ) ;
#91 = FACE_OUTER_BOUND ( 'NONE', #4, .T. ) ;
#92 = PLANE ( 'NONE',  #327 ) ;
#93 = DIRECTION ( 'NONE',  ( -1.000000000000000000, 0.000000000000000000, 0.000000000000000000 ) ) ;
#94 = ORIENTED_EDGE ( 'NONE', *, *, #171, .T. ) ;
#95 = EDGE_CURVE ( 'NONE', #127, #188, #278, .T. ) ;
#96 = FILL_AREA_STYLE ('',( #20 ) ) ;
#97 = AXIS2_PLACEMENT_3D ( 'NONE', #239, #350, #93 ) ;
#98 = DIRECTION ( 'NONE',  ( 0.000000000000000000, 0.000000000000000000, 1.000000000000000000 ) ) ;
#99 = SURFACE_SIDE_STYLE ('',( #64 ) ) ;
#100 = APPLICATION_CONTEXT ( 'automotive_design' ) ;
#101 = EDGE_CURVE ( 'NONE', #75, #87, #347, .T. ) ;
#102 = STYLED_ITEM ( 'NONE', ( #138 ), #222 ) ;
#103 = CARTESIAN_POINT ( 'NONE',  ( 0.000000000000000000, 0.000000000000000000, 0.000000000000000000 ) ) ;
#104 = SURFACE_STYLE_FILL_AREA ( #80 ) ;
#105 = DIRECTION ( 'NONE',  ( -1.000000000000000000, 0.000000000000000000, 0.000000000000000000 ) ) ;
#106 = CARTESIAN_POINT ( 'NONE',  ( 0.000000000000000000, 0.5000000000000000000, 0.000000000000000000 ) ) ;
#107 = CARTESIAN_POINT ( 'NONE',  ( 0.000000000000000000, 0.5000000000000000000, -5.500000000000000000 ) ) ;
#108 = MANIFOLD_SOLID_BREP ( 'Revolve - Tool Body (Straight Shanked)', #282 ) ;
#109 = CIRCLE ( 'NONE', #140, 6.000000000000001776 ) ;
#110 =( NAMED_UNIT ( * ) PLANE_ANGLE_UNIT ( ) SI_UNIT ( $, .RADIAN. ) );
#111 = ORIENTED_EDGE ( 'NONE', *, *, #203, .T. ) ;
#112 = DIRECTION ( 'NONE',  ( -1.000000000000000000, 0.000000000000000000, 0.000000000000000000 ) ) ;
#113 = DIRECTION ( 'NONE',  ( -0.000000000000000000, -1.000000000000000000, -0.000000000000000000 ) ) ;
#114 =( NAMED_UNIT ( * ) PLANE_ANGLE_UNIT ( ) SI_UNIT ( $, .RADIAN. ) );
#115 = UNCERTAINTY_MEASURE_WITH_UNIT (LENGTH_MEASURE( 1.000000000000000082E-05 ), #211, 'distance_accuracy_value', 'NONE');
#116 = CARTESIAN_POINT ( 'NONE',  ( -5.999999999999989342, 18.00000000000000355, 0.000000000000000000 ) ) ;
#117 = FACE_OUTER_BOUND ( 'NONE', #70, .T. ) ;
#118 = ORIENTED_EDGE ( 'NONE', *, *, #277, .F. ) ;
#119 =( NAMED_UNIT ( * ) PLANE_ANGLE_UNIT ( ) SI_UNIT ( $, .RADIAN. ) );
#120 = LINE ( 'NONE', #263, #257 ) ;
#121 = SURFACE_STYLE_USAGE ( .BOTH. , #99 ) ;
#122 = ORIENTED_EDGE ( 'NONE', *, *, #203, .F. ) ;
#123 = AXIS2_PLACEMENT_3D ( 'NONE', #208, #268, #14 ) ;
#124 =( LENGTH_UNIT ( ) NAMED_UNIT ( * ) SI_UNIT ( .MILLI., .METRE. ) );
#125 = ADVANCED_FACE ( 'NONE', ( #157 ), #287, .T. ) ;
#126 = SURFACE_STYLE_FILL_AREA ( #308 ) ;
#127 = VERTEX_POINT ( 'NONE', #74 ) ;
#128 = CARTESIAN_POINT ( 'NONE',  ( 0.000000000000000000, 18.00000000000000000, 0.000000000000000000 ) ) ;
#129 = APPLICATION_PROTOCOL_DEFINITION ( 'draft international standard', 'automotive_design', 1998, #100 ) ;
#130 = SURFACE_SIDE_STYLE ('',( #104 ) ) ;
#131 = STYLED_ITEM ( 'NONE', ( #361 ), #29 ) ;
#132 = MECHANICAL_DESIGN_GEOMETRIC_PRESENTATION_REPRESENTATION (  '', ( #285 ), #357 ) ;
#133 = AXIS2_PLACEMENT_3D ( 'NONE', #76, #192, #339 ) ;
#134 = PRODUCT_DEFINITION ( 'UNKNOWN', '', #177, #72 ) ;
#135 = SURFACE_SIDE_STYLE ('',( #126 ) ) ;
#136 = DIRECTION ( 'NONE',  ( -1.224646799147353454E-16, 0.000000000000000000, -1.000000000000000000 ) ) ;
#137 = CARTESIAN_POINT ( 'NONE',  ( 0.000000000000000000, 18.00000000000000000, -6.000000000000000000 ) ) ;
#138 = PRESENTATION_STYLE_ASSIGNMENT (( #307 ) ) ;
#139 = AXIS2_PLACEMENT_3D ( 'NONE', #159, #323, #289 ) ;
#140 = AXIS2_PLACEMENT_3D ( 'NONE', #300, #258, #105 ) ;
#141 = VECTOR ( 'NONE', #316, 1000.000000000000000 ) ;
#142 = FILL_AREA_STYLE_COLOUR ( '', #215 ) ;
#143 = MECHANICAL_DESIGN_GEOMETRIC_PRESENTATION_REPRESENTATION (  '', ( #102 ), #160 ) ;
#144 = MECHANICAL_DESIGN_GEOMETRIC_PRESENTATION_REPRESENTATION (  '', ( #369 ), #293 ) ;
#145 = DIRECTION ( 'NONE',  ( 0.000000000000000000, 0.000000000000000000, -1.000000000000000000 ) ) ;
#146 = DIRECTION ( 'NONE',  ( -1.208874916035850209E-16, 1.000000000000000000, -0.000000000000000000 ) ) ;
#147 = SURFACE_SIDE_STYLE ('',( #86 ) ) ;
#148 = SURFACE_STYLE_USAGE ( .BOTH. , #288 ) ;
#149 = DIRECTION ( 'NONE',  ( 0.000000000000000000, 0.000000000000000000, 1.000000000000000000 ) ) ;
#150 = FACE_OUTER_BOUND ( 'NONE', #264, .T. ) ;
#151 = FILL_AREA_STYLE_COLOUR ( '', #205 ) ;
#152 = DIRECTION ( 'NONE',  ( -1.000000000000000000, 0.000000000000000000, 0.000000000000000000 ) ) ;
#153 = ORIENTED_EDGE ( 'NONE', *, *, #46, .F. ) ;
#154 = COLOUR_RGB ( '',1.000000000000000000, 0.000000000000000000, 0.000000000000000000 ) ;
#155 = DIRECTION ( 'NONE',  ( -0.000000000000000000, -1.000000000000000000, -0.000000000000000000 ) ) ;
#156 = DIRECTION ( 'NONE',  ( -1.208874916035850209E-16, 1.000000000000000000, -0.000000000000000000 ) ) ;
#157 = FACE_OUTER_BOUND ( 'NONE', #294, .T. ) ;
#158 = SURFACE_SIDE_STYLE ('',( #241 ) ) ;
#159 = CARTESIAN_POINT ( 'NONE',  ( 0.000000000000000000, 0.000000000000000000, 0.000000000000000000 ) ) ;
#160 =( GEOMETRIC_REPRESENTATION_CONTEXT ( 3 ) GLOBAL_UNCERTAINTY_ASSIGNED_CONTEXT ( ( #245 ) ) GLOBAL_UNIT_ASSIGNED_CONTEXT ( ( #311, #25, #163 ) ) REPRESENTATION_CONTEXT ( 'NONE', 'WORKASPACE' ) );
#161 = CIRCLE ( 'NONE', #12, 6.000000000000000000 ) ;
#162 = CARTESIAN_POINT ( 'NONE',  ( 0.000000000000000000, 0.000000000000000000, 0.000000000000000000 ) ) ;
#163 =( NAMED_UNIT ( * ) SI_UNIT ( $, .STERADIAN. ) SOLID_ANGLE_UNIT ( ) );
#164 = UNCERTAINTY_MEASURE_WITH_UNIT (LENGTH_MEASURE( 1.000000000000000082E-05 ), #261, 'distance_accuracy_value', 'NONE');
#165 = SURFACE_STYLE_USAGE ( .BOTH. , #135 ) ;
#166 = ADVANCED_FACE ( 'NONE', ( #91 ), #317, .T. ) ;
#167 =( LENGTH_UNIT ( ) NAMED_UNIT ( * ) SI_UNIT ( .MILLI., .METRE. ) );
#168 = AXIS2_PLACEMENT_3D ( 'NONE', #324, #156, #112 ) ;
#169 = FACE_OUTER_BOUND ( 'NONE', #65, .T. ) ;
#170 = APPLICATION_CONTEXT ( 'automotive_design' ) ;
#171 = EDGE_CURVE ( 'NONE', #27, #75, #120, .T. ) ;
#172 = AXIS2_PLACEMENT_3D ( 'NONE', #38, #155, #276 ) ;
#173 =( GEOMETRIC_REPRESENTATION_CONTEXT ( 3 ) GLOBAL_UNCERTAINTY_ASSIGNED_CONTEXT ( ( #41 ) ) GLOBAL_UNIT_ASSIGNED_CONTEXT ( ( #124, #328, #69 ) ) REPRESENTATION_CONTEXT ( 'NONE', 'WORKASPACE' ) );
#174 = DIRECTION ( 'NONE',  ( -1.000000000000000000, 0.000000000000000000, 0.000000000000000000 ) ) ;
#175 = LINE ( 'NONE', #210, #141 ) ;
#176 = COLOUR_RGB ( '',1.000000000000000000, 0.000000000000000000, 0.000000000000000000 ) ;
#177 = PRODUCT_DEFINITION_FORMATION_WITH_SPECIFIED_SOURCE ( 'ANY', '', #238, .NOT_KNOWN. ) ;
#178 = CARTESIAN_POINT ( 'NONE',  ( 0.000000000000000000, 0.000000000000000000, 0.000000000000000000 ) ) ;
#179 = PRESENTATION_STYLE_ASSIGNMENT (( #1 ) ) ;
#180 = DIRECTION ( 'NONE',  ( 1.000000000000000000, 1.208874916035850209E-16, 0.000000000000000000 ) ) ;
#181 = PRESENTATION_STYLE_ASSIGNMENT (( #331 ) ) ;
#182 = DIRECTION ( 'NONE',  ( 0.000000000000000000, 0.000000000000000000, -1.000000000000000000 ) ) ;
#183 = UNCERTAINTY_MEASURE_WITH_UNIT (LENGTH_MEASURE( 1.000000000000000082E-05 ), #338, 'distance_accuracy_value', 'NONE');
#184 = AXIS2_PLACEMENT_3D ( 'NONE', #16, #333, #71 ) ;
#185 = FILL_AREA_STYLE_COLOUR ( '', #154 ) ;
#186 = EDGE_CURVE ( 'NONE', #194, #319, #19, .T. ) ;
#187 = PRODUCT_CONTEXT ( 'NONE', #170, 'mechanical' ) ;
#188 = VERTEX_POINT ( 'NONE', #240 ) ;
#189 = PRESENTATION_STYLE_ASSIGNMENT (( #121 ) ) ;
#190 = COLOUR_RGB ( '',1.000000000000000000, 0.000000000000000000, 0.000000000000000000 ) ;
#191 = VERTEX_POINT ( 'NONE', #8 ) ;
#192 = DIRECTION ( 'NONE',  ( 0.000000000000000000, -1.000000000000000000, -0.000000000000000000 ) ) ;
#193 = CYLINDRICAL_SURFACE ( 'NONE', #66, 6.000000000000000000 ) ;
#194 = VERTEX_POINT ( 'NONE', #116 ) ;
#195 =( NAMED_UNIT ( * ) PLANE_ANGLE_UNIT ( ) SI_UNIT ( $, .RADIAN. ) );
#196 = DIRECTION ( 'NONE',  ( 0.000000000000000000, 0.000000000000000000, -1.000000000000000000 ) ) ;
#197 = TOROIDAL_SURFACE ( 'NONE', #32, 5.500000000000000000, 0.5000000000000002220 ) ;
#198 = CARTESIAN_POINT ( 'NONE',  ( -6.000000000000003553, 75.00000000000000000, 0.000000000000000000 ) ) ;
#199 = EDGE_CURVE ( 'NONE', #337, #85, #52, .T. ) ;
#200 = SURFACE_STYLE_USAGE ( .BOTH. , #229 ) ;
#201 =( GEOMETRIC_REPRESENTATION_CONTEXT ( 3 ) GLOBAL_UNCERTAINTY_ASSIGNED_CONTEXT ( ( #367 ) ) GLOBAL_UNIT_ASSIGNED_CONTEXT ( ( #31, #110, #231 ) ) REPRESENTATION_CONTEXT ( 'NONE', 'WORKASPACE' ) );
#202 = CIRCLE ( 'NONE', #228, 0.5000000000000004441 ) ;
#203 = EDGE_CURVE ( 'NONE', #75, #188, #266, .T. ) ;
#204 = AXIS2_PLACEMENT_3D ( 'NONE', #343, #113, #55 ) ;
#205 = COLOUR_RGB ( '',0.7921568627450980005, 0.8196078431372548767, 0.9333333333333333481 ) ;
#206 = SURFACE_STYLE_FILL_AREA ( #315 ) ;
#207 = ORIENTED_EDGE ( 'NONE', *, *, #186, .T. ) ;
#208 = CARTESIAN_POINT ( 'NONE',  ( 0.000000000000000000, 18.00000000000000000, 0.000000000000000000 ) ) ;
#209 = EDGE_LOOP ( 'NONE', ( #349, #17 ) ) ;
#210 = CARTESIAN_POINT ( 'NONE',  ( -6.000000000000000000, 75.00000000000000000, 0.000000000000000000 ) ) ;
#211 =( LENGTH_UNIT ( ) NAMED_UNIT ( * ) SI_UNIT ( .MILLI., .METRE. ) );
#212 = FACE_OUTER_BOUND ( 'NONE', #247, .T. ) ;
#213 = CARTESIAN_POINT ( 'NONE',  ( 5.999999999999996447, 75.00000000000000000, 7.347880794884117764E-16 ) ) ;
#214 = ORIENTED_EDGE ( 'NONE', *, *, #171, .F. ) ;
#215 = COLOUR_RGB ( '',0.7921568627450980005, 0.8196078431372548767, 0.9333333333333333481 ) ;
#216 = PRESENTATION_LAYER_ASSIGNMENT (  '', '', ( #285 ) ) ;
#217 = CARTESIAN_POINT ( 'NONE',  ( 5.421010862427522170E-15, 18.00000000000000000, 0.000000000000000000 ) ) ;
#218 = ORIENTED_EDGE ( 'NONE', *, *, #49, .T. ) ;
#219 = CARTESIAN_POINT ( 'NONE',  ( 0.000000000000000000, 0.5000000000000000000, -6.000000000000000000 ) ) ;
#220 = DIRECTION ( 'NONE',  ( 1.000000000000000000, 0.000000000000000000, 0.000000000000000000 ) ) ;
#221 = ORIENTED_EDGE ( 'NONE', *, *, #262, .T. ) ;
#222 = ADVANCED_FACE ( 'NONE', ( #212 ), #197, .T. ) ;
#223 = AXIS2_PLACEMENT_3D ( 'NONE', #332, #302, #152 ) ;
#224 = PRESENTATION_LAYER_ASSIGNMENT (  '', '', ( #310 ) ) ;
#225 = DIRECTION ( 'NONE',  ( 0.000000000000000000, 0.000000000000000000, -1.000000000000000000 ) ) ;
#226 = DIRECTION ( 'NONE',  ( 0.000000000000000000, 0.000000000000000000, -1.000000000000000000 ) ) ;
#227 = CIRCLE ( 'NONE', #2, 5.999999999999994671 ) ;
#228 = AXIS2_PLACEMENT_3D ( 'NONE', #305, #24, #136 ) ;
#229 = SURFACE_SIDE_STYLE ('',( #45 ) ) ;
#230 = ORIENTED_EDGE ( 'NONE', *, *, #18, .F. ) ;
#231 =( NAMED_UNIT ( * ) SI_UNIT ( $, .STERADIAN. ) SOLID_ANGLE_UNIT ( ) );
#232 = ADVANCED_FACE ( 'NONE', ( #325 ), #275, .T. ) ;
#233 = MECHANICAL_DESIGN_GEOMETRIC_PRESENTATION_REPRESENTATION (  '', ( #131 ), #249 ) ;
#234 = CARTESIAN_POINT ( 'NONE',  ( 6.000000000000000000, 75.00000000000000000, 7.347880794884119736E-16 ) ) ;
#235 = ORIENTED_EDGE ( 'NONE', *, *, #78, .F. ) ;
#236 = EDGE_CURVE ( 'NONE', #188, #191, #202, .T. ) ;
#237 = AXIS2_PLACEMENT_3D ( 'NONE', #162, #98, #220 ) ;
#238 = PRODUCT ( '59642', '59642', '', ( #187 ) ) ;
#239 = CARTESIAN_POINT ( 'NONE',  ( -1.469576158976823750E-15, 75.00000000000000000, 0.000000000000000000 ) ) ;
#240 = CARTESIAN_POINT ( 'NONE',  ( 7.347880794884119736E-16, 0.5000000000000000000, 6.000000000000000000 ) ) ;
#241 = SURFACE_STYLE_FILL_AREA ( #15 ) ;
#242 = ADVANCED_BREP_SHAPE_REPRESENTATION ( '59642', ( #365, #108, #237 ), #3 ) ;
#243 = UNCERTAINTY_MEASURE_WITH_UNIT (LENGTH_MEASURE( 1.000000000000000082E-05 ), #167, 'distance_accuracy_value', 'NONE');
#244 = VECTOR ( 'NONE', #34, 1000.000000000000000 ) ;
#245 = UNCERTAINTY_MEASURE_WITH_UNIT (LENGTH_MEASURE( 1.000000000000000082E-05 ), #311, 'distance_accuracy_value', 'NONE');
#246 = EDGE_CURVE ( 'NONE', #188, #75, #161, .T. ) ;
#247 = EDGE_LOOP ( 'NONE', ( #355, #299, #330, #230 ) ) ;
#248 =( NAMED_UNIT ( * ) SI_UNIT ( $, .STERADIAN. ) SOLID_ANGLE_UNIT ( ) );
#249 =( GEOMETRIC_REPRESENTATION_CONTEXT ( 3 ) GLOBAL_UNCERTAINTY_ASSIGNED_CONTEXT ( ( #243 ) ) GLOBAL_UNIT_ASSIGNED_CONTEXT ( ( #167, #81, #336 ) ) REPRESENTATION_CONTEXT ( 'NONE', 'WORKASPACE' ) );
#250 = MECHANICAL_DESIGN_GEOMETRIC_PRESENTATION_REPRESENTATION (  '', ( #39 ), #173 ) ;
#251 = MECHANICAL_DESIGN_GEOMETRIC_PRESENTATION_REPRESENTATION (  '', ( #310 ), #341 ) ;
#252 = DIRECTION ( 'NONE',  ( 0.000000000000000000, -0.000000000000000000, 1.000000000000000000 ) ) ;
#253 = FILL_AREA_STYLE_COLOUR ( '', #176 ) ;
#254 = MECHANICAL_DESIGN_GEOMETRIC_PRESENTATION_REPRESENTATION (  '', ( #83 ), #11 ) ;
#255 = VECTOR ( 'NONE', #146, 1000.000000000000000 ) ;
#256 = SURFACE_SIDE_STYLE ('',( #206 ) ) ;
#257 = VECTOR ( 'NONE', #321, 1000.000000000000000 ) ;
#258 = DIRECTION ( 'NONE',  ( -1.208874916035850209E-16, 1.000000000000000000, -0.000000000000000000 ) ) ;
#259 = FACE_OUTER_BOUND ( 'NONE', #269, .T. ) ;
#260 = DIRECTION ( 'NONE',  ( -1.000000000000000000, 0.000000000000000000, 0.000000000000000000 ) ) ;
#261 =( LENGTH_UNIT ( ) NAMED_UNIT ( * ) SI_UNIT ( .MILLI., .METRE. ) );
#262 = EDGE_CURVE ( 'NONE', #194, #85, #175, .T. ) ;
#263 = CARTESIAN_POINT ( 'NONE',  ( 0.000000000000000000, 0.000000000000000000, -6.000000000000000000 ) ) ;
#264 = EDGE_LOOP ( 'NONE', ( #358, #153 ) ) ;
#265 = CARTESIAN_POINT ( 'NONE',  ( 6.000000000000000000, 75.00000000000000000, 0.000000000000000000 ) ) ;
#266 = CIRCLE ( 'NONE', #309, 6.000000000000000000 ) ;
#267 = CIRCLE ( 'NONE', #123, 6.000000000000000000 ) ;
#268 = DIRECTION ( 'NONE',  ( -0.000000000000000000, -1.000000000000000000, -0.000000000000000000 ) ) ;
#269 = EDGE_LOOP ( 'NONE', ( #13, #73 ) ) ;
#270 = ADVANCED_FACE ( 'NONE', ( #150 ), #346, .F. ) ;
#271 = ORIENTED_EDGE ( 'NONE', *, *, #49, .F. ) ;
#272 = AXIS2_PLACEMENT_3D ( 'NONE', #37, #296, #40 ) ;
#273 = ORIENTED_EDGE ( 'NONE', *, *, #370, .T. ) ;
#274 = DIRECTION ( 'NONE',  ( -0.000000000000000000, -1.000000000000000000, -0.000000000000000000 ) ) ;
#275 = PLANE ( 'NONE',  #133 ) ;
#276 = DIRECTION ( 'NONE',  ( 0.000000000000000000, 0.000000000000000000, -1.000000000000000000 ) ) ;
#277 = EDGE_CURVE ( 'NONE', #319, #337, #33, .T. ) ;
#278 = LINE ( 'NONE', #286, #244 ) ;
#279 = DIRECTION ( 'NONE',  ( -1.208874916035850209E-16, 1.000000000000000000, -0.000000000000000000 ) ) ;
#280 = FILL_AREA_STYLE_COLOUR ( '', #190 ) ;
#281 = ORIENTED_EDGE ( 'NONE', *, *, #26, .T. ) ;
#282 = CLOSED_SHELL ( 'NONE', ( #304, #270, #125, #291 ) ) ;
#283 = DIRECTION ( 'NONE',  ( -1.000000000000000000, -1.208874916035850209E-16, 0.000000000000000000 ) ) ;
#284 = MECHANICAL_DESIGN_GEOMETRIC_PRESENTATION_REPRESENTATION (  '', ( #79 ), #201 ) ;
#285 = STYLED_ITEM ( 'NONE', ( #366 ), #232 ) ;
#286 = CARTESIAN_POINT ( 'NONE',  ( 7.347880794884119736E-16, 0.000000000000000000, 6.000000000000000000 ) ) ;
#287 = CYLINDRICAL_SURFACE ( 'NONE', #184, 5.999999999999998224 ) ;
#288 = SURFACE_SIDE_STYLE ('',( #61 ) ) ;
#289 = DIRECTION ( 'NONE',  ( 0.000000000000000000, 0.000000000000000000, -1.000000000000000000 ) ) ;
#290 = CIRCLE ( 'NONE', #172, 6.000000000000000000 ) ;
#291 = ADVANCED_FACE ( 'NONE', ( #259 ), #92, .F. ) ;
#292 = AXIS2_PLACEMENT_3D ( 'NONE', #107, #174, #149 ) ;
#293 =( GEOMETRIC_REPRESENTATION_CONTEXT ( 3 ) GLOBAL_UNCERTAINTY_ASSIGNED_CONTEXT ( ( #322 ) ) GLOBAL_UNIT_ASSIGNED_CONTEXT ( ( #56, #119, #5 ) ) REPRESENTATION_CONTEXT ( 'NONE', 'WORKASPACE' ) );
#294 = EDGE_LOOP ( 'NONE', ( #118, #342, #221, #60 ) ) ;
#295 = APPLICATION_PROTOCOL_DEFINITION ( 'draft international standard', 'automotive_design', 1998, #170 ) ;
#296 = DIRECTION ( 'NONE',  ( -0.000000000000000000, -1.000000000000000000, -0.000000000000000000 ) ) ;
#297 = EDGE_LOOP ( 'NONE', ( #218, #352 ) ) ;
#298 = UNCERTAINTY_MEASURE_WITH_UNIT (LENGTH_MEASURE( 1.000000000000000082E-05 ), #54, 'distance_accuracy_value', 'NONE');
#299 = ORIENTED_EDGE ( 'NONE', *, *, #246, .T. ) ;
#300 = CARTESIAN_POINT ( 'NONE',  ( -1.469576158976823750E-15, 75.00000000000000000, 0.000000000000000000 ) ) ;
#301 = AXIS2_PLACEMENT_3D ( 'NONE', #128, #48, #252 ) ;
#302 = DIRECTION ( 'NONE',  ( -1.208874916035850209E-16, 1.000000000000000000, -0.000000000000000000 ) ) ;
#303 = AXIS2_PLACEMENT_3D ( 'NONE', #217, #329, #283 ) ;
#304 = ADVANCED_FACE ( 'NONE', ( #7 ), #89, .T. ) ;
#305 = CARTESIAN_POINT ( 'NONE',  ( 6.735557395310442023E-16, 0.5000000000000000000, 5.500000000000000000 ) ) ;
#306 = ORIENTED_EDGE ( 'NONE', *, *, #277, .T. ) ;
#307 = SURFACE_STYLE_USAGE ( .BOTH. , #130 ) ;
#308 = FILL_AREA_STYLE ('',( #334 ) ) ;
#309 = AXIS2_PLACEMENT_3D ( 'NONE', #62, #353, #182 ) ;
#310 = STYLED_ITEM ( 'NONE', ( #36 ), #365 ) ;
#311 =( LENGTH_UNIT ( ) NAMED_UNIT ( * ) SI_UNIT ( .MILLI., .METRE. ) );
#312 = FACE_OUTER_BOUND ( 'NONE', #209, .T. ) ;
#313 = CARTESIAN_POINT ( 'NONE',  ( 0.000000000000000000, 0.000000000000000000, -5.500000000000000000 ) ) ;
#314 = PRODUCT_DEFINITION_SHAPE ( 'NONE', 'NONE',  #134 ) ;
#315 = FILL_AREA_STYLE ('',( #142 ) ) ;
#316 = DIRECTION ( 'NONE',  ( -1.208874916035850209E-16, 1.000000000000000000, -0.000000000000000000 ) ) ;
#317 = TOROIDAL_SURFACE ( 'NONE', #272, 5.500000000000000000, 0.5000000000000002220 ) ;
#318 =( NAMED_UNIT ( * ) SI_UNIT ( $, .STERADIAN. ) SOLID_ANGLE_UNIT ( ) );
#319 = VERTEX_POINT ( 'NONE', #10 ) ;
#320 = FILL_AREA_STYLE ('',( #151 ) ) ;
#321 = DIRECTION ( 'NONE',  ( -0.000000000000000000, -1.000000000000000000, -0.000000000000000000 ) ) ;
#322 = UNCERTAINTY_MEASURE_WITH_UNIT (LENGTH_MEASURE( 1.000000000000000082E-05 ), #56, 'distance_accuracy_value', 'NONE');
#323 = DIRECTION ( 'NONE',  ( -0.000000000000000000, -1.000000000000000000, -0.000000000000000000 ) ) ;
#324 = CARTESIAN_POINT ( 'NONE',  ( -1.469576158976823750E-15, 75.00000000000000000, 0.000000000000000000 ) ) ;
#325 = FACE_OUTER_BOUND ( 'NONE', #297, .T. ) ;
#326 = PRESENTATION_LAYER_ASSIGNMENT (  '', '', ( #79 ) ) ;
#327 = AXIS2_PLACEMENT_3D ( 'NONE', #265, #6, #180 ) ;
#328 =( NAMED_UNIT ( * ) PLANE_ANGLE_UNIT ( ) SI_UNIT ( $, .RADIAN. ) );
#329 = DIRECTION ( 'NONE',  ( -1.208874916035850209E-16, 1.000000000000000000, 0.000000000000000000 ) ) ;
#330 = ORIENTED_EDGE ( 'NONE', *, *, #101, .T. ) ;
#331 = SURFACE_STYLE_USAGE ( .BOTH. , #147 ) ;
#332 = CARTESIAN_POINT ( 'NONE',  ( 5.421010862427522170E-15, 18.00000000000000355, 0.000000000000000000 ) ) ;
#333 = DIRECTION ( 'NONE',  ( -1.208874916035850209E-16, 1.000000000000000000, -0.000000000000000000 ) ) ;
#334 = FILL_AREA_STYLE_COLOUR ( '', #51 ) ;
#335 = PRESENTATION_LAYER_ASSIGNMENT (  '', '', ( #39 ) ) ;
#336 =( NAMED_UNIT ( * ) SI_UNIT ( $, .STERADIAN. ) SOLID_ANGLE_UNIT ( ) );
#337 = VERTEX_POINT ( 'NONE', #234 ) ;
#338 =( LENGTH_UNIT ( ) NAMED_UNIT ( * ) SI_UNIT ( .MILLI., .METRE. ) );
#339 = DIRECTION ( 'NONE',  ( 0.000000000000000000, 0.000000000000000000, -1.000000000000000000 ) ) ;
#340 = DIRECTION ( 'NONE',  ( -0.000000000000000000, -1.000000000000000000, -0.000000000000000000 ) ) ;
#341 =( GEOMETRIC_REPRESENTATION_CONTEXT ( 3 ) GLOBAL_UNCERTAINTY_ASSIGNED_CONTEXT ( ( #164 ) ) GLOBAL_UNIT_ASSIGNED_CONTEXT ( ( #261, #114, #318 ) ) REPRESENTATION_CONTEXT ( 'NONE', 'WORKASPACE' ) );
#342 = ORIENTED_EDGE ( 'NONE', *, *, #46, .T. ) ;
#343 = CARTESIAN_POINT ( 'NONE',  ( 0.000000000000000000, 0.000000000000000000, 0.000000000000000000 ) ) ;
#344 = CLOSED_SHELL ( 'NONE', ( #348, #166, #232, #222, #29, #58 ) ) ;
#345 = COLOUR_RGB ( '',1.000000000000000000, 0.000000000000000000, 0.000000000000000000 ) ;
#346 = PLANE ( 'NONE',  #303 ) ;
#347 = CIRCLE ( 'NONE', #292, 0.5000000000000004441 ) ;
#348 = ADVANCED_FACE ( 'NONE', ( #117 ), #351, .T. ) ;
#349 = ORIENTED_EDGE ( 'NONE', *, *, #26, .F. ) ;
#350 = DIRECTION ( 'NONE',  ( -1.208874916035850209E-16, 1.000000000000000000, -0.000000000000000000 ) ) ;
#351 = CYLINDRICAL_SURFACE ( 'NONE', #364, 6.000000000000000000 ) ;
#352 = ORIENTED_EDGE ( 'NONE', *, *, #18, .T. ) ;
#353 = DIRECTION ( 'NONE',  ( -0.000000000000000000, -1.000000000000000000, -0.000000000000000000 ) ) ;
#354 = ORIENTED_EDGE ( 'NONE', *, *, #101, .F. ) ;
#355 = ORIENTED_EDGE ( 'NONE', *, *, #236, .F. ) ;
#356 = PRESENTATION_LAYER_ASSIGNMENT (  '', '', ( #83 ) ) ;
#357 =( GEOMETRIC_REPRESENTATION_CONTEXT ( 3 ) GLOBAL_UNCERTAINTY_ASSIGNED_CONTEXT ( ( #183 ) ) GLOBAL_UNIT_ASSIGNED_CONTEXT ( ( #338, #195, #248 ) ) REPRESENTATION_CONTEXT ( 'NONE', 'WORKASPACE' ) );
#358 = ORIENTED_EDGE ( 'NONE', *, *, #186, .F. ) ;
#359 = CARTESIAN_POINT ( 'NONE',  ( 5.421010862427522170E-15, 18.00000000000000355, 0.000000000000000000 ) ) ;
#360 = FILL_AREA_STYLE ('',( #253 ) ) ;
#361 = PRESENTATION_STYLE_ASSIGNMENT (( #165 ) ) ;
#362 = CIRCLE ( 'NONE', #204, 5.500000000000000000 ) ;
#363 =( NAMED_UNIT ( * ) PLANE_ANGLE_UNIT ( ) SI_UNIT ( $, .RADIAN. ) );
#364 = AXIS2_PLACEMENT_3D ( 'NONE', #178, #90, #145 ) ;
#365 = MANIFOLD_SOLID_BREP ( 'Revolve - Cutting Edge', #344 ) ;
#366 = PRESENTATION_STYLE_ASSIGNMENT (( #200 ) ) ;
#367 = UNCERTAINTY_MEASURE_WITH_UNIT (LENGTH_MEASURE( 1.000000000000000082E-05 ), #31, 'distance_accuracy_value', 'NONE');
#368 = CIRCLE ( 'NONE', #139, 5.500000000000000000 ) ;
#369 = STYLED_ITEM ( 'NONE', ( #59 ), #348 ) ;
#370 = EDGE_CURVE ( 'NONE', #127, #27, #267, .T. ) ;
ENDSEC;
END-ISO-10303-21;
