ISO-10303-21;
HEADER;
FILE_DESCRIPTION (( 'STEP AP214' ),
    '1' );
FILE_NAME ('Micro_RNCM-060-2.STEP',
    '2021-09-03T17:41:50',
    ( '' ),
    ( '' ),
    'SwSTEP 2.0',
    'SolidWorks 2020',
    '' );
FILE_SCHEMA (( 'AUTOMOTIVE_DESIGN' ));
ENDSEC;

DATA;
#1 = VERTEX_POINT ( 'NONE', #73 ) ;
#2 = AXIS2_PLACEMENT_3D ( 'NONE', #224, #17, #152 ) ;
#3 = CYLINDRICAL_SURFACE ( 'NONE', #231, 0.1181100000000000066 ) ;
#4 = ORIENTED_EDGE ( 'NONE', *, *, #22, .F. ) ;
#5 = DIRECTION ( 'NONE',  ( -1.000000000000000000, 0.0000000000000000000, 0.0000000000000000000 ) ) ;
#6 = ORIENTED_EDGE ( 'NONE', *, *, #208, .T. ) ;
#7 = CARTESIAN_POINT ( 'NONE',  ( 0.003936999999999995191, 0.0000000000000000000, 2.244094000000000033 ) ) ;
#8 = FACE_OUTER_BOUND ( 'NONE', #154, .T. ) ;
#9 = ORIENTED_EDGE ( 'NONE', *, *, #235, .T. ) ;
#10 = LINE ( 'NONE', #43, #157 ) ;
#11 = DIRECTION ( 'NONE',  ( -1.000000000000000000, 0.0000000000000000000, 0.0000000000000000000 ) ) ;
#12 = DIRECTION ( 'NONE',  ( -0.0000000000000000000, -0.0000000000000000000, -1.000000000000000000 ) ) ;
#13 = VERTEX_POINT ( 'NONE', #151 ) ;
#14 = ORIENTED_EDGE ( 'NONE', *, *, #47, .T. ) ;
#15 = MECHANICAL_DESIGN_GEOMETRIC_PRESENTATION_REPRESENTATION (  '', ( #236 ), #159 ) ;
#16 = CARTESIAN_POINT ( 'NONE',  ( 0.0000000000000000000, 0.0000000000000000000, 0.0000000000000000000 ) ) ;
#17 = DIRECTION ( 'NONE',  ( 0.0000000000000000000, 0.0000000000000000000, 1.000000000000000000 ) ) ;
#18 = EDGE_CURVE ( 'NONE', #211, #42, #57, .T. ) ;
#19 = AXIS2_PLACEMENT_3D ( 'NONE', #241, #12, #99 ) ;
#20 = AXIS2_PLACEMENT_3D ( 'NONE', #173, #155, #95 ) ;
#21 = PRODUCT ( 'Micro_RNCM-060-2', 'Micro_RNCM-060-2', '', ( #103 ) ) ;
#22 = EDGE_CURVE ( 'NONE', #204, #209, #181, .T. ) ;
#23 = SURFACE_STYLE_USAGE ( .BOTH. , #232 ) ;
#24 = ORIENTED_EDGE ( 'NONE', *, *, #234, .F. ) ;
#25 = PRODUCT_RELATED_PRODUCT_CATEGORY ( 'part', '', ( #21 ) ) ;
#26 = MECHANICAL_DESIGN_GEOMETRIC_PRESENTATION_REPRESENTATION (  '', ( #163 ), #70 ) ;
#27 = ORIENTED_EDGE ( 'NONE', *, *, #142, .T. ) ;
#28 =( LENGTH_UNIT ( ) NAMED_UNIT ( * ) SI_UNIT ( $, .METRE. ) );
#29 = EDGE_LOOP ( 'NONE', ( #201, #120, #186, #215 ) ) ;
#30 = FACE_OUTER_BOUND ( 'NONE', #108, .T. ) ;
#31 = DIRECTION ( 'NONE',  ( 0.0000000000000000000, 0.0000000000000000000, -1.000000000000000000 ) ) ;
#32 = EDGE_LOOP ( 'NONE', ( #64, #27, #145, #67 ) ) ;
#33 = ADVANCED_FACE ( 'NONE', ( #30 ), #65, .T. ) ;
#34 = CARTESIAN_POINT ( 'NONE',  ( 0.0000000000000000000, 0.0000000000000000000, 2.244094000000000033 ) ) ;
#35 = PRODUCT_DEFINITION_FORMATION_WITH_SPECIFIED_SOURCE ( 'ANY', '', #21, .NOT_KNOWN. ) ;
#36 = DIRECTION ( 'NONE',  ( -1.000000000000000000, 0.0000000000000000000, 0.0000000000000000000 ) ) ;
#37 = LINE ( 'NONE', #78, #63 ) ;
#38 = CLOSED_SHELL ( 'NONE', ( #54, #81, #227, #176, #82, #213, #33, #76 ) ) ;
#39 = COLOUR_RGB ( '',0.7921568627450980005, 0.8196078431372548767, 0.9333333333333333481 ) ;
#40 = DIRECTION ( 'NONE',  ( 0.0000000000000000000, 0.0000000000000000000, 1.000000000000000000 ) ) ;
#41 = DIRECTION ( 'NONE',  ( -0.0000000000000000000, -0.0000000000000000000, -1.000000000000000000 ) ) ;
#42 = VERTEX_POINT ( 'NONE', #7 ) ;
#43 = CARTESIAN_POINT ( 'NONE',  ( 0.003936999999999995191, 0.0000000000000000000, 2.244094000000000033 ) ) ;
#44 = CIRCLE ( 'NONE', #139, 0.1181100000000000066 ) ;
#45 = ORIENTED_EDGE ( 'NONE', *, *, #60, .T. ) ;
#46 = DIRECTION ( 'NONE',  ( -0.0000000000000000000, -0.0000000000000000000, -1.000000000000000000 ) ) ;
#47 = EDGE_CURVE ( 'NONE', #1, #204, #37, .T. ) ;
#48 =( LENGTH_UNIT ( ) NAMED_UNIT ( * ) SI_UNIT ( $, .METRE. ) );
#49 = EDGE_LOOP ( 'NONE', ( #169, #125, #4, #131 ) ) ;
#50 = DIRECTION ( 'NONE',  ( -0.0000000000000000000, -0.0000000000000000000, -1.000000000000000000 ) ) ;
#51 = DIRECTION ( 'NONE',  ( 0.7071067811865490160, 0.0000000000000000000, -0.7071067811865460184 ) ) ;
#52 = CARTESIAN_POINT ( 'NONE',  ( -0.003936999999999995191, -4.821434448243123477E-19, 2.244094000000000033 ) ) ;
#53 =( NAMED_UNIT ( * ) SI_UNIT ( $, .STERADIAN. ) SOLID_ANGLE_UNIT ( ) );
#54 = ADVANCED_FACE ( 'NONE', ( #183 ), #85, .T. ) ;
#55 = CARTESIAN_POINT ( 'NONE',  ( 0.0000000000000000000, 0.0000000000000000000, 2.244094000000000033 ) ) ;
#56 = LENGTH_MEASURE_WITH_UNIT ( LENGTH_MEASURE( 0.02539999999999999897 ), #48 );
#57 = CIRCLE ( 'NONE', #123, 0.003936999999999995191 ) ;
#58 = AXIS2_PLACEMENT_3D ( 'NONE', #132, #114, #174 ) ;
#59 =( NAMED_UNIT ( * ) SI_UNIT ( $, .STERADIAN. ) SOLID_ANGLE_UNIT ( ) );
#60 = EDGE_CURVE ( 'NONE', #61, #13, #127, .T. ) ;
#61 = VERTEX_POINT ( 'NONE', #218 ) ;
#62 = DIRECTION ( 'NONE',  ( 1.000000000000000000, 0.0000000000000000000, 0.0000000000000000000 ) ) ;
#63 = VECTOR ( 'NONE', #50, 39.37007874015748143 ) ;
#64 = ORIENTED_EDGE ( 'NONE', *, *, #198, .F. ) ;
#65 = CONICAL_SURFACE ( 'NONE', #138, 0.003936999999999995191, 0.7853981633974503884 ) ;
#66 = AXIS2_PLACEMENT_3D ( 'NONE', #105, #46, #86 ) ;
#67 = ORIENTED_EDGE ( 'NONE', *, *, #235, .F. ) ;
#68 = CARTESIAN_POINT ( 'NONE',  ( 0.0000000000000000000, 0.0000000000000000000, 2.244094000000000033 ) ) ;
#69 = AXIS2_PLACEMENT_3D ( 'NONE', #55, #96, #129 ) ;
#70 =( GEOMETRIC_REPRESENTATION_CONTEXT ( 3 ) GLOBAL_UNCERTAINTY_ASSIGNED_CONTEXT ( ( #112 ) ) GLOBAL_UNIT_ASSIGNED_CONTEXT ( ( #158, #222, #53 ) ) REPRESENTATION_CONTEXT ( 'NONE', 'WORKASPACE' ) );
#71 = UNCERTAINTY_MEASURE_WITH_UNIT (LENGTH_MEASURE( 1.000000000000000082E-05 ), #161, 'distance_accuracy_value', 'NONE');
#72 = CARTESIAN_POINT ( 'NONE',  ( 0.003936999999999995191, 0.0000000000000000000, 0.0000000000000000000 ) ) ;
#73 = CARTESIAN_POINT ( 'NONE',  ( -0.1181100000000000066, 0.0000000000000000000, 2.129921000000000397 ) ) ;
#74 = EDGE_CURVE ( 'NONE', #42, #211, #191, .T. ) ;
#75 = LINE ( 'NONE', #52, #144 ) ;
#76 = ADVANCED_FACE ( 'NONE', ( #194 ), #119, .T. ) ;
#77 = ORIENTED_EDGE ( 'NONE', *, *, #234, .T. ) ;
#78 = CARTESIAN_POINT ( 'NONE',  ( -0.1181100000000000066, 0.0000000000000000000, 2.244094000000000033 ) ) ;
#79 = PLANE ( 'NONE',  #2 ) ;
#80 = DIRECTION ( 'NONE',  ( 0.0000000000000000000, 0.0000000000000000000, -1.000000000000000000 ) ) ;
#81 = ADVANCED_FACE ( 'NONE', ( #98 ), #143, .T. ) ;
#82 = ADVANCED_FACE ( 'NONE', ( #187 ), #226, .T. ) ;
#83 = PRESENTATION_LAYER_ASSIGNMENT (  '', '', ( #163 ) ) ;
#84 = FILL_AREA_STYLE_COLOUR ( '', #182 ) ;
#85 = CONICAL_SURFACE ( 'NONE', #179, 0.003936999999999995191, 0.7853981633974503884 ) ;
#86 = DIRECTION ( 'NONE',  ( -1.000000000000000000, 0.0000000000000000000, 0.0000000000000000000 ) ) ;
#87 = CARTESIAN_POINT ( 'NONE',  ( 0.0000000000000000000, 0.0000000000000000000, 0.1141729999999995387 ) ) ;
#88 = ORIENTED_EDGE ( 'NONE', *, *, #18, .T. ) ;
#89 = DIRECTION ( 'NONE',  ( 1.000000000000000000, 0.0000000000000000000, -0.0000000000000000000 ) ) ;
#90 = FACE_OUTER_BOUND ( 'NONE', #49, .T. ) ;
#91 = ORIENTED_EDGE ( 'NONE', *, *, #60, .F. ) ;
#92 = LINE ( 'NONE', #134, #197 ) ;
#93 = CIRCLE ( 'NONE', #205, 0.1181100000000000066 ) ;
#94 = EDGE_LOOP ( 'NONE', ( #113, #185 ) ) ;
#95 = DIRECTION ( 'NONE',  ( -1.000000000000000000, 0.0000000000000000000, 0.0000000000000000000 ) ) ;
#96 = DIRECTION ( 'NONE',  ( 0.0000000000000000000, 0.0000000000000000000, -1.000000000000000000 ) ) ;
#97 = PRESENTATION_STYLE_ASSIGNMENT (( #115 ) ) ;
#98 = FACE_OUTER_BOUND ( 'NONE', #32, .T. ) ;
#99 = DIRECTION ( 'NONE',  ( -1.000000000000000000, 0.0000000000000000000, 0.0000000000000000000 ) ) ;
#100 = EDGE_CURVE ( 'NONE', #239, #1, #44, .T. ) ;
#101 = FILL_AREA_STYLE ('',( #84 ) ) ;
#102 = AXIS2_PLACEMENT_3D ( 'NONE', #149, #128, #36 ) ;
#103 = PRODUCT_CONTEXT ( 'NONE', #225, 'mechanical' ) ;
#104 = PRODUCT_DEFINITION_SHAPE ( 'NONE', 'NONE',  #147 ) ;
#105 = CARTESIAN_POINT ( 'NONE',  ( 0.0000000000000000000, 0.0000000000000000000, 0.0000000000000000000 ) ) ;
#106 = DIMENSIONAL_EXPONENTS ( 1.000000000000000000, 0.0000000000000000000, 0.0000000000000000000, 0.0000000000000000000, 0.0000000000000000000, 0.0000000000000000000, 0.0000000000000000000 ) ;
#107 = EDGE_CURVE ( 'NONE', #239, #209, #92, .T. ) ;
#108 = EDGE_LOOP ( 'NONE', ( #166, #88, #6, #109 ) ) ;
#109 = ORIENTED_EDGE ( 'NONE', *, *, #121, .F. ) ;
#110 = EDGE_CURVE ( 'NONE', #211, #1, #75, .T. ) ;
#111 = CARTESIAN_POINT ( 'NONE',  ( 0.0000000000000000000, 0.0000000000000000000, 2.244094000000000033 ) ) ;
#112 = UNCERTAINTY_MEASURE_WITH_UNIT (LENGTH_MEASURE( 1.000000000000000082E-05 ), #158, 'distance_accuracy_value', 'NONE');
#113 = ORIENTED_EDGE ( 'NONE', *, *, #74, .F. ) ;
#114 = DIRECTION ( 'NONE',  ( 0.0000000000000000000, 0.0000000000000000000, 1.000000000000000000 ) ) ;
#115 = SURFACE_STYLE_USAGE ( .BOTH. , #118 ) ;
#116 = CARTESIAN_POINT ( 'NONE',  ( 0.0000000000000000000, 0.0000000000000000000, 2.129921000000000397 ) ) ;
#117 = CARTESIAN_POINT ( 'NONE',  ( 0.0000000000000000000, 0.0000000000000000000, 2.244094000000000033 ) ) ;
#118 = SURFACE_SIDE_STYLE ('',( #244 ) ) ;
#119 = PLANE ( 'NONE',  #136 ) ;
#120 = ORIENTED_EDGE ( 'NONE', *, *, #110, .T. ) ;
#121 = EDGE_CURVE ( 'NONE', #1, #239, #217, .T. ) ;
#122 = LENGTH_MEASURE_WITH_UNIT ( LENGTH_MEASURE( 0.02539999999999999897 ), #230 );
#123 = AXIS2_PLACEMENT_3D ( 'NONE', #68, #31, #220 ) ;
#124 =( GEOMETRIC_REPRESENTATION_CONTEXT ( 3 ) GLOBAL_UNCERTAINTY_ASSIGNED_CONTEXT ( ( #170 ) ) GLOBAL_UNIT_ASSIGNED_CONTEXT ( ( #184, #195, #206 ) ) REPRESENTATION_CONTEXT ( 'NONE', 'WORKASPACE' ) );
#125 = ORIENTED_EDGE ( 'NONE', *, *, #107, .T. ) ;
#126 = PRESENTATION_LAYER_ASSIGNMENT (  '', '', ( #236 ) ) ;
#127 = CIRCLE ( 'NONE', #216, 0.003936999999999995191 ) ;
#128 = DIRECTION ( 'NONE',  ( -0.0000000000000000000, -0.0000000000000000000, -1.000000000000000000 ) ) ;
#129 = DIRECTION ( 'NONE',  ( -1.000000000000000000, 0.0000000000000000000, 0.0000000000000000000 ) ) ;
#130 = CARTESIAN_POINT ( 'NONE',  ( -0.003936999999999995191, -7.473223394776851115E-18, 2.244094000000000033 ) ) ;
#131 = ORIENTED_EDGE ( 'NONE', *, *, #47, .F. ) ;
#132 = CARTESIAN_POINT ( 'NONE',  ( 0.0000000000000000000, 0.0000000000000000000, 0.0000000000000000000 ) ) ;
#133 = DIRECTION ( 'NONE',  ( -0.0000000000000000000, -0.0000000000000000000, -1.000000000000000000 ) ) ;
#134 = CARTESIAN_POINT ( 'NONE',  ( 0.1181100000000000066, 1.446430334472939084E-17, 2.244094000000000033 ) ) ;
#135 = DIRECTION ( 'NONE',  ( 0.0000000000000000000, 0.0000000000000000000, 1.000000000000000000 ) ) ;
#136 = AXIS2_PLACEMENT_3D ( 'NONE', #111, #202, #89 ) ;
#137 = SHAPE_DEFINITION_REPRESENTATION ( #104, #189 ) ;
#138 = AXIS2_PLACEMENT_3D ( 'NONE', #117, #238, #228 ) ;
#139 = AXIS2_PLACEMENT_3D ( 'NONE', #116, #80, #11 ) ;
#140 = FACE_OUTER_BOUND ( 'NONE', #171, .T. ) ;
#141 = ORIENTED_EDGE ( 'NONE', *, *, #142, .F. ) ;
#142 = EDGE_CURVE ( 'NONE', #13, #204, #223, .T. ) ;
#143 = CONICAL_SURFACE ( 'NONE', #58, 0.003936999999999995191, 0.7853981633974503884 ) ;
#144 = VECTOR ( 'NONE', #192, 39.37007874015748143 ) ;
#145 = ORIENTED_EDGE ( 'NONE', *, *, #22, .T. ) ;
#146 = DIMENSIONAL_EXPONENTS ( 1.000000000000000000, 0.0000000000000000000, 0.0000000000000000000, 0.0000000000000000000, 0.0000000000000000000, 0.0000000000000000000, 0.0000000000000000000 ) ;
#147 = PRODUCT_DEFINITION ( 'UNKNOWN', '', #35, #219 ) ;
#148 = FILL_AREA_STYLE_COLOUR ( '', #39 ) ;
#149 = CARTESIAN_POINT ( 'NONE',  ( 0.0000000000000000000, 0.0000000000000000000, 0.1141729999999995387 ) ) ;
#150 = DIRECTION ( 'NONE',  ( -1.000000000000000000, 0.0000000000000000000, 0.0000000000000000000 ) ) ;
#151 = CARTESIAN_POINT ( 'NONE',  ( -0.003936999999999995191, 7.473223394776851115E-18, 0.0000000000000000000 ) ) ;
#152 = DIRECTION ( 'NONE',  ( 1.000000000000000000, 0.0000000000000000000, -0.0000000000000000000 ) ) ;
#153 = CARTESIAN_POINT ( 'NONE',  ( 0.0000000000000000000, 0.0000000000000000000, 2.244094000000000033 ) ) ;
#154 = EDGE_LOOP ( 'NONE', ( #45, #162 ) ) ;
#155 = DIRECTION ( 'NONE',  ( 0.0000000000000000000, 0.0000000000000000000, -1.000000000000000000 ) ) ;
#156 = CARTESIAN_POINT ( 'NONE',  ( 0.1181100000000000066, 1.446430334472939084E-17, 0.1141729999999995387 ) ) ;
#157 = VECTOR ( 'NONE', #51, 39.37007874015748143 ) ;
#158 =( CONVERSION_BASED_UNIT ( 'INCH', #193 ) LENGTH_UNIT ( ) NAMED_UNIT ( #146 ) );
#159 =( GEOMETRIC_REPRESENTATION_CONTEXT ( 3 ) GLOBAL_UNCERTAINTY_ASSIGNED_CONTEXT ( ( #71 ) ) GLOBAL_UNIT_ASSIGNED_CONTEXT ( ( #161, #196, #59 ) ) REPRESENTATION_CONTEXT ( 'NONE', 'WORKASPACE' ) );
#160 = SURFACE_STYLE_FILL_AREA ( #101 ) ;
#161 =( CONVERSION_BASED_UNIT ( 'INCH', #122 ) LENGTH_UNIT ( ) NAMED_UNIT ( #106 ) );
#162 = ORIENTED_EDGE ( 'NONE', *, *, #198, .T. ) ;
#163 = STYLED_ITEM ( 'NONE', ( #97 ), #233 ) ;
#164 = CIRCLE ( 'NONE', #66, 0.003936999999999995191 ) ;
#165 = DIMENSIONAL_EXPONENTS ( 1.000000000000000000, 0.0000000000000000000, 0.0000000000000000000, 0.0000000000000000000, 0.0000000000000000000, 0.0000000000000000000, 0.0000000000000000000 ) ;
#166 = ORIENTED_EDGE ( 'NONE', *, *, #110, .F. ) ;
#167 = ORIENTED_EDGE ( 'NONE', *, *, #107, .F. ) ;
#168 = CARTESIAN_POINT ( 'NONE',  ( 0.1181100000000000066, 1.446430334472939084E-17, 2.129921000000000397 ) ) ;
#169 = ORIENTED_EDGE ( 'NONE', *, *, #121, .T. ) ;
#170 = UNCERTAINTY_MEASURE_WITH_UNIT (LENGTH_MEASURE( 1.000000000000000082E-05 ), #184, 'distance_accuracy_value', 'NONE');
#171 = EDGE_LOOP ( 'NONE', ( #167, #190, #14, #24 ) ) ;
#172 = DIRECTION ( 'NONE',  ( -0.0000000000000000000, -0.0000000000000000000, -1.000000000000000000 ) ) ;
#173 = CARTESIAN_POINT ( 'NONE',  ( 0.0000000000000000000, 0.0000000000000000000, 2.129921000000000397 ) ) ;
#174 = DIRECTION ( 'NONE',  ( 1.000000000000000000, 0.0000000000000000000, 0.0000000000000000000 ) ) ;
#175 = FILL_AREA_STYLE ('',( #148 ) ) ;
#176 = ADVANCED_FACE ( 'NONE', ( #140 ), #3, .T. ) ;
#177 = CARTESIAN_POINT ( 'NONE',  ( 0.0000000000000000000, 0.0000000000000000000, 0.0000000000000000000 ) ) ;
#178 = DIRECTION ( 'NONE',  ( -0.7071067811865490160, 8.659560562354951347E-17, 0.7071067811865460184 ) ) ;
#179 = AXIS2_PLACEMENT_3D ( 'NONE', #34, #200, #240 ) ;
#180 = AXIS2_PLACEMENT_3D ( 'NONE', #243, #135, #207 ) ;
#181 = CIRCLE ( 'NONE', #102, 0.1181100000000000066 ) ;
#182 = COLOUR_RGB ( '',0.7921568627450980005, 0.8196078431372548767, 0.9333333333333333481 ) ;
#183 = FACE_OUTER_BOUND ( 'NONE', #29, .T. ) ;
#184 =( CONVERSION_BASED_UNIT ( 'INCH', #56 ) LENGTH_UNIT ( ) NAMED_UNIT ( #165 ) );
#185 = ORIENTED_EDGE ( 'NONE', *, *, #18, .F. ) ;
#186 = ORIENTED_EDGE ( 'NONE', *, *, #100, .F. ) ;
#187 = FACE_OUTER_BOUND ( 'NONE', #199, .T. ) ;
#188 = LINE ( 'NONE', #72, #212 ) ;
#189 = ADVANCED_BREP_SHAPE_REPRESENTATION ( 'Micro_RNCM-060-2', ( #233, #247 ), #124 ) ;
#190 = ORIENTED_EDGE ( 'NONE', *, *, #100, .T. ) ;
#191 = CIRCLE ( 'NONE', #69, 0.003936999999999995191 ) ;
#192 = DIRECTION ( 'NONE',  ( -0.7071067811865490160, -8.659560562354951347E-17, -0.7071067811865460184 ) ) ;
#193 = LENGTH_MEASURE_WITH_UNIT ( LENGTH_MEASURE( 0.02539999999999999897 ), #28 );
#194 = FACE_OUTER_BOUND ( 'NONE', #94, .T. ) ;
#195 =( NAMED_UNIT ( * ) PLANE_ANGLE_UNIT ( ) SI_UNIT ( $, .RADIAN. ) );
#196 =( NAMED_UNIT ( * ) PLANE_ANGLE_UNIT ( ) SI_UNIT ( $, .RADIAN. ) );
#197 = VECTOR ( 'NONE', #172, 39.37007874015748143 ) ;
#198 = EDGE_CURVE ( 'NONE', #13, #61, #164, .T. ) ;
#199 = EDGE_LOOP ( 'NONE', ( #141, #91, #9, #77 ) ) ;
#200 = DIRECTION ( 'NONE',  ( 0.0000000000000000000, 0.0000000000000000000, -1.000000000000000000 ) ) ;
#201 = ORIENTED_EDGE ( 'NONE', *, *, #74, .T. ) ;
#202 = DIRECTION ( 'NONE',  ( 0.0000000000000000000, 0.0000000000000000000, 1.000000000000000000 ) ) ;
#203 = APPLICATION_PROTOCOL_DEFINITION ( 'draft international standard', 'automotive_design', 1998, #225 ) ;
#204 = VERTEX_POINT ( 'NONE', #214 ) ;
#205 = AXIS2_PLACEMENT_3D ( 'NONE', #87, #133, #5 ) ;
#206 =( NAMED_UNIT ( * ) SI_UNIT ( $, .STERADIAN. ) SOLID_ANGLE_UNIT ( ) );
#207 = DIRECTION ( 'NONE',  ( 1.000000000000000000, 0.0000000000000000000, 0.0000000000000000000 ) ) ;
#208 = EDGE_CURVE ( 'NONE', #42, #239, #10, .T. ) ;
#209 = VERTEX_POINT ( 'NONE', #156 ) ;
#210 = APPLICATION_CONTEXT ( 'automotive_design' ) ;
#211 = VERTEX_POINT ( 'NONE', #130 ) ;
#212 = VECTOR ( 'NONE', #229, 39.37007874015748143 ) ;
#213 = ADVANCED_FACE ( 'NONE', ( #8 ), #79, .F. ) ;
#214 = CARTESIAN_POINT ( 'NONE',  ( -0.1181100000000000066, 0.0000000000000000000, 0.1141729999999995387 ) ) ;
#215 = ORIENTED_EDGE ( 'NONE', *, *, #208, .F. ) ;
#216 = AXIS2_PLACEMENT_3D ( 'NONE', #16, #221, #150 ) ;
#217 = CIRCLE ( 'NONE', #20, 0.1181100000000000066 ) ;
#218 = CARTESIAN_POINT ( 'NONE',  ( 0.003936999999999995191, 0.0000000000000000000, 0.0000000000000000000 ) ) ;
#219 = PRODUCT_DEFINITION_CONTEXT ( 'detailed design', #210, 'design' ) ;
#220 = DIRECTION ( 'NONE',  ( -1.000000000000000000, 0.0000000000000000000, 0.0000000000000000000 ) ) ;
#221 = DIRECTION ( 'NONE',  ( -0.0000000000000000000, -0.0000000000000000000, -1.000000000000000000 ) ) ;
#222 =( NAMED_UNIT ( * ) PLANE_ANGLE_UNIT ( ) SI_UNIT ( $, .RADIAN. ) );
#223 = LINE ( 'NONE', #242, #245 ) ;
#224 = CARTESIAN_POINT ( 'NONE',  ( 0.0000000000000000000, 0.0000000000000000000, 0.0000000000000000000 ) ) ;
#225 = APPLICATION_CONTEXT ( 'automotive_design' ) ;
#226 = CONICAL_SURFACE ( 'NONE', #180, 0.003936999999999995191, 0.7853981633974503884 ) ;
#227 = ADVANCED_FACE ( 'NONE', ( #90 ), #237, .T. ) ;
#228 = DIRECTION ( 'NONE',  ( 1.000000000000000000, 0.0000000000000000000, 0.0000000000000000000 ) ) ;
#229 = DIRECTION ( 'NONE',  ( 0.7071067811865490160, 0.0000000000000000000, 0.7071067811865460184 ) ) ;
#230 =( LENGTH_UNIT ( ) NAMED_UNIT ( * ) SI_UNIT ( $, .METRE. ) );
#231 = AXIS2_PLACEMENT_3D ( 'NONE', #153, #41, #249 ) ;
#232 = SURFACE_SIDE_STYLE ('',( #160 ) ) ;
#233 = MANIFOLD_SOLID_BREP ( 'Mirror1', #38 ) ;
#234 = EDGE_CURVE ( 'NONE', #209, #204, #93, .T. ) ;
#235 = EDGE_CURVE ( 'NONE', #61, #209, #188, .T. ) ;
#236 = STYLED_ITEM ( 'NONE', ( #248 ), #189 ) ;
#237 = CYLINDRICAL_SURFACE ( 'NONE', #19, 0.1181100000000000066 ) ;
#238 = DIRECTION ( 'NONE',  ( 0.0000000000000000000, 0.0000000000000000000, -1.000000000000000000 ) ) ;
#239 = VERTEX_POINT ( 'NONE', #168 ) ;
#240 = DIRECTION ( 'NONE',  ( 1.000000000000000000, 0.0000000000000000000, 0.0000000000000000000 ) ) ;
#241 = CARTESIAN_POINT ( 'NONE',  ( 0.0000000000000000000, 0.0000000000000000000, 2.244094000000000033 ) ) ;
#242 = CARTESIAN_POINT ( 'NONE',  ( -0.003936999999999995191, 4.821434448243123477E-19, 0.0000000000000000000 ) ) ;
#243 = CARTESIAN_POINT ( 'NONE',  ( 0.0000000000000000000, 0.0000000000000000000, 0.0000000000000000000 ) ) ;
#244 = SURFACE_STYLE_FILL_AREA ( #175 ) ;
#245 = VECTOR ( 'NONE', #178, 39.37007874015748143 ) ;
#246 = APPLICATION_PROTOCOL_DEFINITION ( 'draft international standard', 'automotive_design', 1998, #210 ) ;
#247 = AXIS2_PLACEMENT_3D ( 'NONE', #177, #40, #62 ) ;
#248 = PRESENTATION_STYLE_ASSIGNMENT (( #23 ) ) ;
#249 = DIRECTION ( 'NONE',  ( -1.000000000000000000, 0.0000000000000000000, 0.0000000000000000000 ) ) ;
ENDSEC;
END-ISO-10303-21;
