ISO-10303-21;
HEADER;
FILE_DESCRIPTION (( 'STEP AP214' ),
    '1' );
FILE_NAME ('Micro_BMSM-009-2.STEP',
    '2021-09-03T15:37:04',
    ( '' ),
    ( '' ),
    'SwSTEP 2.0',
    'SolidWorks 2020',
    '' );
FILE_SCHEMA (( 'AUTOMOTIVE_DESIGN' ));
ENDSEC;

DATA;
#1 = CARTESIAN_POINT ( 'NONE',  ( 0.0000000000000000000, 0.0000000000000000000, 1.496062999999999921 ) ) ;
#2 = VECTOR ( 'NONE', #299, 39.37007874015748143 ) ;
#3 = DIRECTION ( 'NONE',  ( 1.000000000000000000, 0.0000000000000000000, 0.0000000000000000000 ) ) ;
#4 = CARTESIAN_POINT ( 'NONE',  ( 2.167475856207698752E-18, 0.0000000000000000000, 0.01769878349999999892 ) ) ;
#5 = ORIENTED_EDGE ( 'NONE', *, *, #101, .F. ) ;
#6 = CARTESIAN_POINT ( 'NONE',  ( 0.0000000000000000000, 0.0000000000000000000, 1.481062999999999574 ) ) ;
#7 = EDGE_CURVE ( 'NONE', #247, #196, #130, .T. ) ;
#8 = DIRECTION ( 'NONE',  ( 0.7071067811865482389, 8.659560562354941486E-17, -0.7071067811865469066 ) ) ;
#9 = UNCERTAINTY_MEASURE_WITH_UNIT (LENGTH_MEASURE( 1.000000000000000082E-05 ), #259, 'distance_accuracy_value', 'NONE');
#10 = CARTESIAN_POINT ( 'NONE',  ( -0.01769878349999999892, 0.0000000000000000000, 0.01769878350000000239 ) ) ;
#11 = CARTESIAN_POINT ( 'NONE',  ( 0.0000000000000000000, 0.0000000000000000000, 1.496062999999999921 ) ) ;
#12 = VERTEX_POINT ( 'NONE', #274 ) ;
#13 = UNCERTAINTY_MEASURE_WITH_UNIT (LENGTH_MEASURE( 1.000000000000000082E-05 ), #28, 'distance_accuracy_value', 'NONE');
#14 = ORIENTED_EDGE ( 'NONE', *, *, #290, .F. ) ;
#15 = AXIS2_PLACEMENT_3D ( 'NONE', #246, #106, #215 ) ;
#16 = CARTESIAN_POINT ( 'NONE',  ( -0.04405499999999973326, 0.0000000000000000000, 1.496062999999999921 ) ) ;
#17 = ADVANCED_FACE ( 'NONE', ( #258 ), #324, .T. ) ;
#18 = LENGTH_MEASURE_WITH_UNIT ( LENGTH_MEASURE( 0.02539999999999999897 ), #301 );
#19 = AXIS2_PLACEMENT_3D ( 'NONE', #25, #149, #257 ) ;
#20 = CARTESIAN_POINT ( 'NONE',  ( 6.750008227540380956E-18, 0.0000000000000000000, 0.05511800000000000033 ) ) ;
#21 = EDGE_CURVE ( 'NONE', #273, #66, #33, .T. ) ;
#22 = PRESENTATION_LAYER_ASSIGNMENT (  '', '', ( #191 ) ) ;
#23 = ORIENTED_EDGE ( 'NONE', *, *, #40, .T. ) ;
#24 =( NAMED_UNIT ( * ) PLANE_ANGLE_UNIT ( ) SI_UNIT ( $, .RADIAN. ) );
#25 = CARTESIAN_POINT ( 'NONE',  ( 6.750008227540380956E-18, 0.0000000000000000000, 0.05511800000000000033 ) ) ;
#26 = ADVANCED_FACE ( 'NONE', ( #261 ), #280, .T. ) ;
#27 = CARTESIAN_POINT ( 'NONE',  ( 0.05905500000000004496, 7.232151672364700045E-18, 0.2896607587646227167 ) ) ;
#28 =( CONVERSION_BASED_UNIT ( 'INCH', #18 ) LENGTH_UNIT ( ) NAMED_UNIT ( #233 ) );
#29 = CARTESIAN_POINT ( 'NONE',  ( 3.251213784311548129E-18, 0.0000000000000000000, 0.0000000000000000000 ) ) ;
#30 = APPLICATION_CONTEXT ( 'automotive_design' ) ;
#31 = VECTOR ( 'NONE', #242, 39.37007874015748143 ) ;
#32 = CARTESIAN_POINT ( 'NONE',  ( 0.01769878350000000239, 2.167475856207698752E-18, 0.01769878349999999892 ) ) ;
#33 = CIRCLE ( 'NONE', #271, 0.04405499999999973326 ) ;
#34 = APPLICATION_PROTOCOL_DEFINITION ( 'draft international standard', 'automotive_design', 1998, #84 ) ;
#35 = CARTESIAN_POINT ( 'NONE',  ( 0.01769878350000000933, 0.0000000000000000000, 0.05511800000000000033 ) ) ;
#36 = ORIENTED_EDGE ( 'NONE', *, *, #183, .T. ) ;
#37 = APPLICATION_PROTOCOL_DEFINITION ( 'draft international standard', 'automotive_design', 1998, #30 ) ;
#38 = CARTESIAN_POINT ( 'NONE',  ( 2.167475856207698752E-18, 0.0000000000000000000, 0.01769878349999999892 ) ) ;
#39 = FACE_OUTER_BOUND ( 'NONE', #144, .T. ) ;
#40 = EDGE_CURVE ( 'NONE', #66, #273, #172, .T. ) ;
#41 = DIRECTION ( 'NONE',  ( 1.000000000000000000, 0.0000000000000000000, 0.0000000000000000000 ) ) ;
#42 = MANIFOLD_SOLID_BREP ( 'Fillet1', #121 ) ;
#43 = EDGE_CURVE ( 'NONE', #247, #12, #165, .T. ) ;
#44 = CARTESIAN_POINT ( 'NONE',  ( 0.0000000000000000000, 0.0000000000000000000, 1.496062999999999921 ) ) ;
#45 = AXIS2_PLACEMENT_3D ( 'NONE', #102, #231, #75 ) ;
#46 = AXIS2_PLACEMENT_3D ( 'NONE', #159, #136, #146 ) ;
#47 = ADVANCED_FACE ( 'NONE', ( #60 ), #307, .T. ) ;
#48 = AXIS2_PLACEMENT_3D ( 'NONE', #11, #81, #238 ) ;
#49 = ADVANCED_BREP_SHAPE_REPRESENTATION ( 'Micro_BMSM-009-2', ( #42, #260 ), #282 ) ;
#50 =( GEOMETRIC_REPRESENTATION_CONTEXT ( 3 ) GLOBAL_UNCERTAINTY_ASSIGNED_CONTEXT ( ( #13 ) ) GLOBAL_UNIT_ASSIGNED_CONTEXT ( ( #28, #24, #295 ) ) REPRESENTATION_CONTEXT ( 'NONE', 'WORKASPACE' ) );
#51 = ORIENTED_EDGE ( 'NONE', *, *, #170, .T. ) ;
#52 = VERTEX_POINT ( 'NONE', #32 ) ;
#53 =( LENGTH_UNIT ( ) NAMED_UNIT ( * ) SI_UNIT ( $, .METRE. ) );
#54 = ORIENTED_EDGE ( 'NONE', *, *, #237, .F. ) ;
#55 = DIRECTION ( 'NONE',  ( 0.0000000000000000000, 0.0000000000000000000, -1.000000000000000000 ) ) ;
#56 = PRESENTATION_STYLE_ASSIGNMENT (( #135 ) ) ;
#57 = DIRECTION ( 'NONE',  ( -1.000000000000000000, 0.0000000000000000000, 0.0000000000000000000 ) ) ;
#58 = CIRCLE ( 'NONE', #276, 0.05905500000000000332 ) ;
#59 = CARTESIAN_POINT ( 'NONE',  ( 0.0000000000000000000, 0.0000000000000000000, 0.0000000000000000000 ) ) ;
#60 = FACE_OUTER_BOUND ( 'NONE', #224, .T. ) ;
#61 = CYLINDRICAL_SURFACE ( 'NONE', #113, 0.05905500000000000332 ) ;
#62 = ORIENTED_EDGE ( 'NONE', *, *, #7, .T. ) ;
#63 = SHAPE_DEFINITION_REPRESENTATION ( #160, #49 ) ;
#64 = CARTESIAN_POINT ( 'NONE',  ( 0.04405499999999973326, 6.313666573004162521E-18, 1.496062999999999921 ) ) ;
#65 = ADVANCED_FACE ( 'NONE', ( #244 ), #61, .T. ) ;
#66 = VERTEX_POINT ( 'NONE', #64 ) ;
#67 = EDGE_CURVE ( 'NONE', #12, #52, #285, .T. ) ;
#68 = CYLINDRICAL_SURFACE ( 'NONE', #219, 0.05905500000000000332 ) ;
#69 = ORIENTED_EDGE ( 'NONE', *, *, #148, .T. ) ;
#70 = CARTESIAN_POINT ( 'NONE',  ( 0.0000000000000000000, 0.0000000000000000000, 1.496062999999999921 ) ) ;
#71 = AXIS2_PLACEMENT_3D ( 'NONE', #241, #195, #223 ) ;
#72 = DIRECTION ( 'NONE',  ( 1.224646799147353207E-16, 0.0000000000000000000, 1.000000000000000000 ) ) ;
#73 = DIRECTION ( 'NONE',  ( -0.7071067811865482389, 0.0000000000000000000, -0.7071067811865469066 ) ) ;
#74 = DIRECTION ( 'NONE',  ( 0.0000000000000000000, -1.000000000000000000, 0.0000000000000000000 ) ) ;
#75 = DIRECTION ( 'NONE',  ( -1.000000000000000000, 0.0000000000000000000, 1.224646799147353207E-16 ) ) ;
#76 = CARTESIAN_POINT ( 'NONE',  ( 2.167475856207698752E-18, 0.0000000000000000000, 0.01769878349999999892 ) ) ;
#77 = EDGE_LOOP ( 'NONE', ( #315, #203, #100, #314 ) ) ;
#78 = ORIENTED_EDGE ( 'NONE', *, *, #303, .F. ) ;
#79 = ORIENTED_EDGE ( 'NONE', *, *, #179, .T. ) ;
#80 = VECTOR ( 'NONE', #178, 39.37007874015747433 ) ;
#81 = DIRECTION ( 'NONE',  ( 0.0000000000000000000, 0.0000000000000000000, -1.000000000000000000 ) ) ;
#82 = ADVANCED_FACE ( 'NONE', ( #88 ), #291, .T. ) ;
#83 = AXIS2_PLACEMENT_3D ( 'NONE', #232, #182, #147 ) ;
#84 = APPLICATION_CONTEXT ( 'automotive_design' ) ;
#85 = LINE ( 'NONE', #35, #31 ) ;
#86 = CARTESIAN_POINT ( 'NONE',  ( 0.05905500000000000332, 7.232151672364695422E-18, 1.481062999999999574 ) ) ;
#87 = VECTOR ( 'NONE', #8, 39.37007874015748143 ) ;
#88 = FACE_OUTER_BOUND ( 'NONE', #298, .T. ) ;
#89 = SURFACE_STYLE_FILL_AREA ( #114 ) ;
#90 = CARTESIAN_POINT ( 'NONE',  ( 0.0000000000000000000, 0.0000000000000000000, 1.496062999999999921 ) ) ;
#91 = VERTEX_POINT ( 'NONE', #10 ) ;
#92 = DIRECTION ( 'NONE',  ( 1.000000000000000000, 0.0000000000000000000, 0.0000000000000000000 ) ) ;
#93 = AXIS2_PLACEMENT_3D ( 'NONE', #218, #198, #289 ) ;
#94 = ORIENTED_EDGE ( 'NONE', *, *, #117, .T. ) ;
#95 = AXIS2_PLACEMENT_3D ( 'NONE', #20, #72, #41 ) ;
#96 = ORIENTED_EDGE ( 'NONE', *, *, #278, .T. ) ;
#97 =( NAMED_UNIT ( * ) PLANE_ANGLE_UNIT ( ) SI_UNIT ( $, .RADIAN. ) );
#98 = ORIENTED_EDGE ( 'NONE', *, *, #170, .F. ) ;
#99 = LINE ( 'NONE', #205, #281 ) ;
#100 = ORIENTED_EDGE ( 'NONE', *, *, #120, .T. ) ;
#101 = EDGE_CURVE ( 'NONE', #127, #300, #256, .T. ) ;
#102 = CARTESIAN_POINT ( 'NONE',  ( 0.0000000000000000000, 0.0000000000000000000, 0.0000000000000000000 ) ) ;
#103 = PRODUCT_RELATED_PRODUCT_CATEGORY ( 'part', '', ( #227 ) ) ;
#104 = CARTESIAN_POINT ( 'NONE',  ( 0.0000000000000000000, 0.0000000000000000000, 1.496062999999999921 ) ) ;
#105 = ORIENTED_EDGE ( 'NONE', *, *, #120, .F. ) ;
#106 = DIRECTION ( 'NONE',  ( 1.224646799147353207E-16, 0.0000000000000000000, 1.000000000000000000 ) ) ;
#107 = ORIENTED_EDGE ( 'NONE', *, *, #21, .F. ) ;
#108 = DIRECTION ( 'NONE',  ( 1.000000000000000000, 0.0000000000000000000, 0.0000000000000000000 ) ) ;
#109 = DIRECTION ( 'NONE',  ( 0.0000000000000000000, 0.0000000000000000000, 1.000000000000000000 ) ) ;
#110 = EDGE_CURVE ( 'NONE', #300, #127, #58, .T. ) ;
#111 = ORIENTED_EDGE ( 'NONE', *, *, #110, .F. ) ;
#112 =( NAMED_UNIT ( * ) SI_UNIT ( $, .STERADIAN. ) SOLID_ANGLE_UNIT ( ) );
#113 = AXIS2_PLACEMENT_3D ( 'NONE', #287, #163, #313 ) ;
#114 = FILL_AREA_STYLE ('',( #197 ) ) ;
#115 = CARTESIAN_POINT ( 'NONE',  ( 0.04405499999999973326, 5.395181473643630390E-18, 1.496062999999999921 ) ) ;
#116 = DIRECTION ( 'NONE',  ( -1.224646799147353207E-16, -0.0000000000000000000, -1.000000000000000000 ) ) ;
#117 = EDGE_CURVE ( 'NONE', #292, #196, #134, .T. ) ;
#118 = CARTESIAN_POINT ( 'NONE',  ( 6.750008227540380956E-18, 0.0000000000000000000, 0.05511800000000000033 ) ) ;
#119 = EDGE_LOOP ( 'NONE', ( #249, #304, #243, #105 ) ) ;
#120 = EDGE_CURVE ( 'NONE', #300, #196, #269, .T. ) ;
#121 = CLOSED_SHELL ( 'NONE', ( #166, #17, #228, #162, #65, #245, #26, #82, #212, #47, #126 ) ) ;
#122 = COLOUR_RGB ( '',0.7921568627450980005, 0.8196078431372548767, 0.9333333333333333481 ) ;
#123 = AXIS2_PLACEMENT_3D ( 'NONE', #118, #181, #92 ) ;
#124 = SURFACE_STYLE_FILL_AREA ( #253 ) ;
#125 = DIRECTION ( 'NONE',  ( 1.000000000000000000, 0.0000000000000000000, 0.0000000000000000000 ) ) ;
#126 = ADVANCED_FACE ( 'NONE', ( #283 ), #193, .T. ) ;
#127 = VERTEX_POINT ( 'NONE', #86 ) ;
#128 = DIRECTION ( 'NONE',  ( -1.224646799147353207E-16, -0.0000000000000000000, -1.000000000000000000 ) ) ;
#129 = FILL_AREA_STYLE_COLOUR ( '', #122 ) ;
#130 = LINE ( 'NONE', #206, #80 ) ;
#131 = LENGTH_MEASURE_WITH_UNIT ( LENGTH_MEASURE( 0.02539999999999999897 ), #309 );
#132 = CARTESIAN_POINT ( 'NONE',  ( -0.05905500000000000332, 0.0000000000000000000, 1.496062999999999921 ) ) ;
#133 = ORIENTED_EDGE ( 'NONE', *, *, #179, .F. ) ;
#134 = CIRCLE ( 'NONE', #186, 0.05905500000000000332 ) ;
#135 = SURFACE_STYLE_USAGE ( .BOTH. , #192 ) ;
#136 = DIRECTION ( 'NONE',  ( 1.224646799147353207E-16, 1.000000000000000000, -0.0000000000000000000 ) ) ;
#137 = DIRECTION ( 'NONE',  ( 0.0000000000000000000, 0.0000000000000000000, -1.000000000000000000 ) ) ;
#138 = EDGE_CURVE ( 'NONE', #12, #292, #85, .T. ) ;
#139 = EDGE_LOOP ( 'NONE', ( #207, #312, #51, #54 ) ) ;
#140 = FACE_OUTER_BOUND ( 'NONE', #279, .T. ) ;
#141 = VERTEX_POINT ( 'NONE', #29 ) ;
#142 = DIRECTION ( 'NONE',  ( 1.000000000000000000, 0.0000000000000000000, 0.0000000000000000000 ) ) ;
#143 = EDGE_LOOP ( 'NONE', ( #155, #23 ) ) ;
#144 = EDGE_LOOP ( 'NONE', ( #78, #36, #98 ) ) ;
#145 = DIRECTION ( 'NONE',  ( 1.000000000000000000, 0.0000000000000000000, -0.0000000000000000000 ) ) ;
#146 = DIRECTION ( 'NONE',  ( -1.000000000000000000, 1.224646799147353207E-16, 0.0000000000000000000 ) ) ;
#147 = DIRECTION ( 'NONE',  ( -1.000000000000000000, 0.0000000000000000000, 1.205877367249678918E-16 ) ) ;
#148 = EDGE_CURVE ( 'NONE', #66, #127, #270, .T. ) ;
#149 = DIRECTION ( 'NONE',  ( -1.224646799147353207E-16, -0.0000000000000000000, -1.000000000000000000 ) ) ;
#150 = CARTESIAN_POINT ( 'NONE',  ( 0.05905500000000000332, 7.232151672364695422E-18, 1.496062999999999921 ) ) ;
#151 = ORIENTED_EDGE ( 'NONE', *, *, #183, .F. ) ;
#152 = DIRECTION ( 'NONE',  ( 1.000000000000000000, 0.0000000000000000000, 0.0000000000000000000 ) ) ;
#153 = LENGTH_MEASURE_WITH_UNIT ( LENGTH_MEASURE( 0.02539999999999999897 ), #53 );
#154 = CONICAL_SURFACE ( 'NONE', #123, 0.01769878350000000239, 0.1745329251994338915 ) ;
#155 = ORIENTED_EDGE ( 'NONE', *, *, #21, .T. ) ;
#156 = CARTESIAN_POINT ( 'NONE',  ( 0.01769878349999999892, 2.167475856207698752E-18, -2.167475856207698752E-18 ) ) ;
#157 = AXIS2_PLACEMENT_3D ( 'NONE', #76, #74, #325 ) ;
#158 = PRODUCT_DEFINITION ( 'UNKNOWN', '', #275, #225 ) ;
#159 = CARTESIAN_POINT ( 'NONE',  ( 2.167475856207698752E-18, 0.0000000000000000000, 0.01769878349999999892 ) ) ;
#160 = PRODUCT_DEFINITION_SHAPE ( 'NONE', 'NONE',  #158 ) ;
#161 = CIRCLE ( 'NONE', #15, 0.01769878349999999892 ) ;
#162 = ADVANCED_FACE ( 'NONE', ( #140 ), #296, .T. ) ;
#163 = DIRECTION ( 'NONE',  ( -0.0000000000000000000, -0.0000000000000000000, -1.000000000000000000 ) ) ;
#164 = PRESENTATION_LAYER_ASSIGNMENT (  '', '', ( #254 ) ) ;
#165 = CIRCLE ( 'NONE', #19, 0.01769878350000000239 ) ;
#166 = ADVANCED_FACE ( 'NONE', ( #39 ), #211, .T. ) ;
#167 = DIRECTION ( 'NONE',  ( -1.224646799147353207E-16, -0.0000000000000000000, -1.000000000000000000 ) ) ;
#168 = ORIENTED_EDGE ( 'NONE', *, *, #303, .T. ) ;
#169 = DIRECTION ( 'NONE',  ( 1.000000000000000000, 0.0000000000000000000, 0.0000000000000000000 ) ) ;
#170 = EDGE_CURVE ( 'NONE', #52, #91, #161, .T. ) ;
#171 = ORIENTED_EDGE ( 'NONE', *, *, #290, .T. ) ;
#172 = CIRCLE ( 'NONE', #180, 0.04405499999999973326 ) ;
#173 = CIRCLE ( 'NONE', #252, 0.05905500000000000332 ) ;
#174 = ORIENTED_EDGE ( 'NONE', *, *, #40, .F. ) ;
#175 = CARTESIAN_POINT ( 'NONE',  ( -0.01769878349999999892, 0.0000000000000000000, 2.167475856207698752E-18 ) ) ;
#176 = ORIENTED_EDGE ( 'NONE', *, *, #308, .F. ) ;
#177 = DIRECTION ( 'NONE',  ( -1.000000000000000000, 0.0000000000000000000, 0.0000000000000000000 ) ) ;
#178 = DIRECTION ( 'NONE',  ( -0.1736481776669311916, 2.126576849575783316E-17, 0.9848077530122080203 ) ) ;
#179 = EDGE_CURVE ( 'NONE', #12, #247, #250, .T. ) ;
#180 = AXIS2_PLACEMENT_3D ( 'NONE', #104, #230, #152 ) ;
#181 = DIRECTION ( 'NONE',  ( 1.224646799147353207E-16, 0.0000000000000000000, 1.000000000000000000 ) ) ;
#182 = DIRECTION ( 'NONE',  ( 1.224646799147353207E-16, 0.0000000000000000000, 1.000000000000000000 ) ) ;
#183 = EDGE_CURVE ( 'NONE', #141, #91, #286, .T. ) ;
#184 = CARTESIAN_POINT ( 'NONE',  ( -0.05905500000000000332, 0.0000000000000000000, 1.481062999999999574 ) ) ;
#185 = AXIS2_PLACEMENT_3D ( 'NONE', #38, #214, #169 ) ;
#186 = AXIS2_PLACEMENT_3D ( 'NONE', #266, #167, #263 ) ;
#187 = DIRECTION ( 'NONE',  ( 0.0000000000000000000, 0.0000000000000000000, 1.000000000000000000 ) ) ;
#188 = ORIENTED_EDGE ( 'NONE', *, *, #148, .F. ) ;
#189 =( NAMED_UNIT ( * ) SI_UNIT ( $, .STERADIAN. ) SOLID_ANGLE_UNIT ( ) );
#190 = DIRECTION ( 'NONE',  ( -0.0000000000000000000, -0.0000000000000000000, -1.000000000000000000 ) ) ;
#191 = STYLED_ITEM ( 'NONE', ( #322 ), #42 ) ;
#192 = SURFACE_SIDE_STYLE ('',( #89 ) ) ;
#193 = SPHERICAL_SURFACE ( 'NONE', #185, 0.01769878349999999892 ) ;
#194 = AXIS2_PLACEMENT_3D ( 'NONE', #90, #55, #284 ) ;
#195 = DIRECTION ( 'NONE',  ( -1.224646799147353207E-16, -0.0000000000000000000, -1.000000000000000000 ) ) ;
#196 = VERTEX_POINT ( 'NONE', #321 ) ;
#197 = FILL_AREA_STYLE_COLOUR ( '', #272 ) ;
#198 = DIRECTION ( 'NONE',  ( 0.0000000000000000000, 0.0000000000000000000, -1.000000000000000000 ) ) ;
#199 = ORIENTED_EDGE ( 'NONE', *, *, #67, .F. ) ;
#200 = FACE_OUTER_BOUND ( 'NONE', #77, .T. ) ;
#201 = VECTOR ( 'NONE', #116, 39.37007874015748143 ) ;
#202 = DIRECTION ( 'NONE',  ( -1.224646799147353207E-16, -0.0000000000000000000, -1.000000000000000000 ) ) ;
#203 = ORIENTED_EDGE ( 'NONE', *, *, #101, .T. ) ;
#204 = FACE_OUTER_BOUND ( 'NONE', #239, .T. ) ;
#205 = CARTESIAN_POINT ( 'NONE',  ( -0.04405499999999973326, 0.0000000000000000000, 1.496062999999999921 ) ) ;
#206 = CARTESIAN_POINT ( 'NONE',  ( -0.01769878349999999545, 2.167475856207699523E-18, 0.05511800000000000033 ) ) ;
#207 = ORIENTED_EDGE ( 'NONE', *, *, #43, .T. ) ;
#208 =( GEOMETRIC_REPRESENTATION_CONTEXT ( 3 ) GLOBAL_UNCERTAINTY_ASSIGNED_CONTEXT ( ( #217 ) ) GLOBAL_UNIT_ASSIGNED_CONTEXT ( ( #288, #213, #189 ) ) REPRESENTATION_CONTEXT ( 'NONE', 'WORKASPACE' ) );
#209 = SURFACE_STYLE_USAGE ( .BOTH. , #235 ) ;
#210 = EDGE_LOOP ( 'NONE', ( #151, #168, #176 ) ) ;
#211 = SPHERICAL_SURFACE ( 'NONE', #264, 0.01769878349999999892 ) ;
#212 = ADVANCED_FACE ( 'NONE', ( #320 ), #240, .T. ) ;
#213 =( NAMED_UNIT ( * ) PLANE_ANGLE_UNIT ( ) SI_UNIT ( $, .RADIAN. ) );
#214 = DIRECTION ( 'NONE',  ( 0.0000000000000000000, 1.000000000000000000, 0.0000000000000000000 ) ) ;
#215 = DIRECTION ( 'NONE',  ( -1.000000000000000000, 0.0000000000000000000, 1.205877367249678918E-16 ) ) ;
#216 = ORIENTED_EDGE ( 'NONE', *, *, #7, .F. ) ;
#217 = UNCERTAINTY_MEASURE_WITH_UNIT (LENGTH_MEASURE( 1.000000000000000082E-05 ), #288, 'distance_accuracy_value', 'NONE');
#218 = CARTESIAN_POINT ( 'NONE',  ( 0.0000000000000000000, 0.0000000000000000000, 1.481062999999999574 ) ) ;
#219 = AXIS2_PLACEMENT_3D ( 'NONE', #70, #248, #177 ) ;
#220 = MECHANICAL_DESIGN_GEOMETRIC_PRESENTATION_REPRESENTATION (  '', ( #254 ), #208 ) ;
#221 = ORIENTED_EDGE ( 'NONE', *, *, #138, .F. ) ;
#222 = MECHANICAL_DESIGN_GEOMETRIC_PRESENTATION_REPRESENTATION (  '', ( #191 ), #50 ) ;
#223 = DIRECTION ( 'NONE',  ( -1.000000000000000000, 0.0000000000000000000, 1.224646799147353207E-16 ) ) ;
#224 = EDGE_LOOP ( 'NONE', ( #199, #79, #277, #226 ) ) ;
#225 = PRODUCT_DEFINITION_CONTEXT ( 'detailed design', #84, 'design' ) ;
#226 = ORIENTED_EDGE ( 'NONE', *, *, #308, .T. ) ;
#227 = PRODUCT ( 'Micro_BMSM-009-2', 'Micro_BMSM-009-2', '', ( #265 ) ) ;
#228 = ADVANCED_FACE ( 'NONE', ( #204 ), #154, .T. ) ;
#229 = AXIS2_PLACEMENT_3D ( 'NONE', #305, #310, #57 ) ;
#230 = DIRECTION ( 'NONE',  ( 0.0000000000000000000, 0.0000000000000000000, 1.000000000000000000 ) ) ;
#231 = DIRECTION ( 'NONE',  ( -1.224646799147353207E-16, -0.0000000000000000000, -1.000000000000000000 ) ) ;
#232 = CARTESIAN_POINT ( 'NONE',  ( 2.167475856207698752E-18, 0.0000000000000000000, 0.01769878349999999892 ) ) ;
#233 = DIMENSIONAL_EXPONENTS ( 1.000000000000000000, 0.0000000000000000000, 0.0000000000000000000, 0.0000000000000000000, 0.0000000000000000000, 0.0000000000000000000, 0.0000000000000000000 ) ;
#234 = CIRCLE ( 'NONE', #157, 0.01769878349999999892 ) ;
#235 = SURFACE_SIDE_STYLE ('',( #124 ) ) ;
#236 = DIRECTION ( 'NONE',  ( 0.0000000000000000000, 0.0000000000000000000, 1.000000000000000000 ) ) ;
#237 = EDGE_CURVE ( 'NONE', #247, #91, #255, .T. ) ;
#238 = DIRECTION ( 'NONE',  ( -1.000000000000000000, 0.0000000000000000000, 0.0000000000000000000 ) ) ;
#239 = EDGE_LOOP ( 'NONE', ( #317, #62, #96, #221 ) ) ;
#240 = CONICAL_SURFACE ( 'NONE', #95, 0.01769878350000000239, 0.1745329251994338915 ) ;
#241 = CARTESIAN_POINT ( 'NONE',  ( 0.0000000000000000000, 0.0000000000000000000, 0.0000000000000000000 ) ) ;
#242 = DIRECTION ( 'NONE',  ( 0.1736481776669313859, 0.0000000000000000000, 0.9848077530122077983 ) ) ;
#243 = ORIENTED_EDGE ( 'NONE', *, *, #278, .F. ) ;
#244 = FACE_OUTER_BOUND ( 'NONE', #119, .T. ) ;
#245 = ADVANCED_FACE ( 'NONE', ( #200 ), #68, .T. ) ;
#246 = CARTESIAN_POINT ( 'NONE',  ( 2.167475856207698752E-18, 0.0000000000000000000, 0.01769878349999999892 ) ) ;
#247 = VERTEX_POINT ( 'NONE', #251 ) ;
#248 = DIRECTION ( 'NONE',  ( -0.0000000000000000000, -0.0000000000000000000, -1.000000000000000000 ) ) ;
#249 = ORIENTED_EDGE ( 'NONE', *, *, #110, .T. ) ;
#250 = CIRCLE ( 'NONE', #229, 0.01769878350000000239 ) ;
#251 = CARTESIAN_POINT ( 'NONE',  ( -0.01769878349999999545, 4.699813764286197087E-18, 0.05511800000000000033 ) ) ;
#252 = AXIS2_PLACEMENT_3D ( 'NONE', #294, #128, #125 ) ;
#253 = FILL_AREA_STYLE ('',( #129 ) ) ;
#254 = STYLED_ITEM ( 'NONE', ( #56 ), #49 ) ;
#255 = LINE ( 'NONE', #175, #318 ) ;
#256 = CIRCLE ( 'NONE', #93, 0.05905500000000000332 ) ;
#257 = DIRECTION ( 'NONE',  ( -1.000000000000000000, 0.0000000000000000000, 0.0000000000000000000 ) ) ;
#258 = FACE_OUTER_BOUND ( 'NONE', #139, .T. ) ;
#259 =( CONVERSION_BASED_UNIT ( 'INCH', #153 ) LENGTH_UNIT ( ) NAMED_UNIT ( #306 ) );
#260 = AXIS2_PLACEMENT_3D ( 'NONE', #59, #109, #3 ) ;
#261 = FACE_OUTER_BOUND ( 'NONE', #143, .T. ) ;
#262 = DIRECTION ( 'NONE',  ( 0.0000000000000000000, 1.000000000000000000, 0.0000000000000000000 ) ) ;
#263 = DIRECTION ( 'NONE',  ( 1.000000000000000000, 0.0000000000000000000, 0.0000000000000000000 ) ) ;
#264 = AXIS2_PLACEMENT_3D ( 'NONE', #4, #262, #142 ) ;
#265 = PRODUCT_CONTEXT ( 'NONE', #30, 'mechanical' ) ;
#266 = CARTESIAN_POINT ( 'NONE',  ( 3.547321210596887835E-17, 0.0000000000000000000, 0.2896607587646227167 ) ) ;
#267 = CIRCLE ( 'NONE', #83, 0.01769878349999999892 ) ;
#268 = EDGE_LOOP ( 'NONE', ( #216, #133, #319, #94 ) ) ;
#269 = LINE ( 'NONE', #132, #316 ) ;
#270 = LINE ( 'NONE', #115, #87 ) ;
#271 = AXIS2_PLACEMENT_3D ( 'NONE', #1, #236, #323 ) ;
#272 = COLOUR_RGB ( '',0.7921568627450980005, 0.8196078431372548767, 0.9333333333333333481 ) ;
#273 = VERTEX_POINT ( 'NONE', #16 ) ;
#274 = CARTESIAN_POINT ( 'NONE',  ( 0.01769878350000000933, 0.0000000000000000000, 0.05511800000000000033 ) ) ;
#275 = PRODUCT_DEFINITION_FORMATION_WITH_SPECIFIED_SOURCE ( 'ANY', '', #227, .NOT_KNOWN. ) ;
#276 = AXIS2_PLACEMENT_3D ( 'NONE', #6, #137, #108 ) ;
#277 = ORIENTED_EDGE ( 'NONE', *, *, #237, .T. ) ;
#278 = EDGE_CURVE ( 'NONE', #196, #292, #173, .T. ) ;
#279 = EDGE_LOOP ( 'NONE', ( #174, #69, #111, #14 ) ) ;
#280 = PLANE ( 'NONE',  #311 ) ;
#281 = VECTOR ( 'NONE', #73, 39.37007874015748143 ) ;
#282 =( GEOMETRIC_REPRESENTATION_CONTEXT ( 3 ) GLOBAL_UNCERTAINTY_ASSIGNED_CONTEXT ( ( #9 ) ) GLOBAL_UNIT_ASSIGNED_CONTEXT ( ( #259, #97, #112 ) ) REPRESENTATION_CONTEXT ( 'NONE', 'WORKASPACE' ) );
#283 = FACE_OUTER_BOUND ( 'NONE', #210, .T. ) ;
#284 = DIRECTION ( 'NONE',  ( -1.000000000000000000, 0.0000000000000000000, 0.0000000000000000000 ) ) ;
#285 = LINE ( 'NONE', #156, #201 ) ;
#286 = CIRCLE ( 'NONE', #46, 0.01769878349999999892 ) ;
#287 = CARTESIAN_POINT ( 'NONE',  ( 0.0000000000000000000, 0.0000000000000000000, 1.496062999999999921 ) ) ;
#288 =( CONVERSION_BASED_UNIT ( 'INCH', #131 ) LENGTH_UNIT ( ) NAMED_UNIT ( #302 ) );
#289 = DIRECTION ( 'NONE',  ( 1.000000000000000000, 0.0000000000000000000, 0.0000000000000000000 ) ) ;
#290 = EDGE_CURVE ( 'NONE', #273, #300, #99, .T. ) ;
#291 = CONICAL_SURFACE ( 'NONE', #48, 0.04405499999999973326, 0.7853981633974491672 ) ;
#292 = VERTEX_POINT ( 'NONE', #27 ) ;
#293 = EDGE_CURVE ( 'NONE', #127, #292, #297, .T. ) ;
#294 = CARTESIAN_POINT ( 'NONE',  ( 3.547321210596887835E-17, 0.0000000000000000000, 0.2896607587646227167 ) ) ;
#295 =( NAMED_UNIT ( * ) SI_UNIT ( $, .STERADIAN. ) SOLID_ANGLE_UNIT ( ) );
#296 = CONICAL_SURFACE ( 'NONE', #194, 0.04405499999999973326, 0.7853981633974491672 ) ;
#297 = LINE ( 'NONE', #150, #2 ) ;
#298 = EDGE_LOOP ( 'NONE', ( #188, #107, #171, #5 ) ) ;
#299 = DIRECTION ( 'NONE',  ( -0.0000000000000000000, -0.0000000000000000000, -1.000000000000000000 ) ) ;
#300 = VERTEX_POINT ( 'NONE', #184 ) ;
#301 =( LENGTH_UNIT ( ) NAMED_UNIT ( * ) SI_UNIT ( $, .METRE. ) );
#302 = DIMENSIONAL_EXPONENTS ( 1.000000000000000000, 0.0000000000000000000, 0.0000000000000000000, 0.0000000000000000000, 0.0000000000000000000, 0.0000000000000000000, 0.0000000000000000000 ) ;
#303 = EDGE_CURVE ( 'NONE', #141, #52, #234, .T. ) ;
#304 = ORIENTED_EDGE ( 'NONE', *, *, #293, .T. ) ;
#305 = CARTESIAN_POINT ( 'NONE',  ( 6.750008227540380956E-18, 0.0000000000000000000, 0.05511800000000000033 ) ) ;
#306 = DIMENSIONAL_EXPONENTS ( 1.000000000000000000, 0.0000000000000000000, 0.0000000000000000000, 0.0000000000000000000, 0.0000000000000000000, 0.0000000000000000000, 0.0000000000000000000 ) ;
#307 = CYLINDRICAL_SURFACE ( 'NONE', #71, 0.01769878349999999892 ) ;
#308 = EDGE_CURVE ( 'NONE', #91, #52, #267, .T. ) ;
#309 =( LENGTH_UNIT ( ) NAMED_UNIT ( * ) SI_UNIT ( $, .METRE. ) );
#310 = DIRECTION ( 'NONE',  ( -1.224646799147353207E-16, -0.0000000000000000000, -1.000000000000000000 ) ) ;
#311 = AXIS2_PLACEMENT_3D ( 'NONE', #44, #187, #145 ) ;
#312 = ORIENTED_EDGE ( 'NONE', *, *, #67, .T. ) ;
#313 = DIRECTION ( 'NONE',  ( -1.000000000000000000, 0.0000000000000000000, 0.0000000000000000000 ) ) ;
#314 = ORIENTED_EDGE ( 'NONE', *, *, #117, .F. ) ;
#315 = ORIENTED_EDGE ( 'NONE', *, *, #293, .F. ) ;
#316 = VECTOR ( 'NONE', #190, 39.37007874015748143 ) ;
#317 = ORIENTED_EDGE ( 'NONE', *, *, #43, .F. ) ;
#318 = VECTOR ( 'NONE', #202, 39.37007874015748143 ) ;
#319 = ORIENTED_EDGE ( 'NONE', *, *, #138, .T. ) ;
#320 = FACE_OUTER_BOUND ( 'NONE', #268, .T. ) ;
#321 = CARTESIAN_POINT ( 'NONE',  ( -0.05905499999999996863, 0.0000000000000000000, 0.2896607587646227167 ) ) ;
#322 = PRESENTATION_STYLE_ASSIGNMENT (( #209 ) ) ;
#323 = DIRECTION ( 'NONE',  ( 1.000000000000000000, 0.0000000000000000000, 0.0000000000000000000 ) ) ;
#324 = CYLINDRICAL_SURFACE ( 'NONE', #45, 0.01769878349999999892 ) ;
#325 = DIRECTION ( 'NONE',  ( 0.0000000000000000000, 0.0000000000000000000, -1.000000000000000000 ) ) ;
ENDSEC;
END-ISO-10303-21;
