ISO-10303-21;
HEADER;
FILE_DESCRIPTION (( 'STEP AP214' ),
    '1' );
FILE_NAME ('Micro_SFLM-040-80.STEP',
    '2021-09-02T05:34:16',
    ( '' ),
    ( '' ),
    'SwSTEP 2.0',
    'SolidWorks 2020',
    '' );
FILE_SCHEMA (( 'AUTOMOTIVE_DESIGN' ));
ENDSEC;

DATA;
#1 = ORIENTED_EDGE ( 'NONE', *, *, #135, .F. ) ;
#2 = CONICAL_SURFACE ( 'NONE', #235, 0.07866125999999999674, 0.1745329251994338637 ) ;
#3 = ORIENTED_EDGE ( 'NONE', *, *, #28, .T. ) ;
#4 = VERTEX_POINT ( 'NONE', #70 ) ;
#5 = UNCERTAINTY_MEASURE_WITH_UNIT (LENGTH_MEASURE( 1.000000000000000082E-05 ), #207, 'distance_accuracy_value', 'NONE');
#6 = ORIENTED_EDGE ( 'NONE', *, *, #37, .F. ) ;
#7 = AXIS2_PLACEMENT_3D ( 'NONE', #35, #149, #242 ) ;
#8 =( NAMED_UNIT ( * ) PLANE_ANGLE_UNIT ( ) SI_UNIT ( $, .RADIAN. ) );
#9 = DIRECTION ( 'NONE',  ( 1.000000000000000000, 0.0000000000000000000, -0.0000000000000000000 ) ) ;
#10 = CARTESIAN_POINT ( 'NONE',  ( -0.1574804999999999955, 0.0000000000000000000, 3.740156999999999954 ) ) ;
#11 = CIRCLE ( 'NONE', #7, 0.1574804999999999955 ) ;
#12 = DIRECTION ( 'NONE',  ( -1.000000000000000000, 0.0000000000000000000, 1.224646799147352961E-16 ) ) ;
#13 = CARTESIAN_POINT ( 'NONE',  ( 0.1424804999999998989, 1.836731392595195200E-17, 3.740156999999999954 ) ) ;
#14 = DIRECTION ( 'NONE',  ( 1.224646799147353207E-16, 0.0000000000000000000, 1.000000000000000000 ) ) ;
#15 = DIRECTION ( 'NONE',  ( 1.000000000000000000, 0.0000000000000000000, -0.0000000000000000000 ) ) ;
#16 = MANIFOLD_SOLID_BREP ( 'Cut-Revolve1', #63 ) ;
#17 = ORIENTED_EDGE ( 'NONE', *, *, #275, .F. ) ;
#18 = DIRECTION ( 'NONE',  ( 0.0000000000000000000, 0.0000000000000000000, -1.000000000000000000 ) ) ;
#19 = VERTEX_POINT ( 'NONE', #13 ) ;
#20 = ADVANCED_FACE ( 'NONE', ( #105 ), #49, .T. ) ;
#21 = EDGE_LOOP ( 'NONE', ( #1, #98, #164, #190 ) ) ;
#22 = FILL_AREA_STYLE ('',( #145 ) ) ;
#23 = LENGTH_MEASURE_WITH_UNIT ( LENGTH_MEASURE( 0.02539999999999999897 ), #50 );
#24 =( NAMED_UNIT ( * ) SI_UNIT ( $, .STERADIAN. ) SOLID_ANGLE_UNIT ( ) );
#25 = CIRCLE ( 'NONE', #213, 0.07866125999999999674 ) ;
#26 = STYLED_ITEM ( 'NONE', ( #79 ), #187 ) ;
#27 = CARTESIAN_POINT ( 'NONE',  ( -0.1424804999999998989, 0.0000000000000000000, 3.740156999999999954 ) ) ;
#28 = EDGE_CURVE ( 'NONE', #19, #4, #263, .T. ) ;
#29 = DIRECTION ( 'NONE',  ( 0.7071067811865563435, 8.659560562355041327E-17, -0.7071067811865386910 ) ) ;
#30 = SHAPE_DEFINITION_REPRESENTATION ( #206, #187 ) ;
#31 = EDGE_CURVE ( 'NONE', #94, #193, #288, .T. ) ;
#32 = DIRECTION ( 'NONE',  ( -1.224646799147353207E-16, -0.0000000000000000000, -1.000000000000000000 ) ) ;
#33 = MECHANICAL_DESIGN_GEOMETRIC_PRESENTATION_REPRESENTATION (  '', ( #54 ), #280 ) ;
#34 = COLOUR_RGB ( '',0.7921568627450980005, 0.8196078431372548767, 0.9333333333333333481 ) ;
#35 = CARTESIAN_POINT ( 'NONE',  ( 0.0000000000000000000, 0.0000000000000000000, 3.725156999999999829 ) ) ;
#36 = CARTESIAN_POINT ( 'NONE',  ( 1.511713956487397033E-16, 0.0000000000000000000, 1.234408122848082323 ) ) ;
#37 = EDGE_CURVE ( 'NONE', #19, #116, #266, .T. ) ;
#38 = LINE ( 'NONE', #139, #109 ) ;
#39 = AXIS2_PLACEMENT_3D ( 'NONE', #236, #292, #91 ) ;
#40 = DIRECTION ( 'NONE',  ( 1.000000000000000000, 0.0000000000000000000, 0.0000000000000000000 ) ) ;
#41 = EDGE_LOOP ( 'NONE', ( #188, #216 ) ) ;
#42 = ORIENTED_EDGE ( 'NONE', *, *, #110, .T. ) ;
#43 = EDGE_CURVE ( 'NONE', #166, #299, #25, .T. ) ;
#44 = DIRECTION ( 'NONE',  ( 0.0000000000000000000, 0.0000000000000000000, 1.000000000000000000 ) ) ;
#45 = CARTESIAN_POINT ( 'NONE',  ( 9.642893389422242582E-17, 0.0000000000000000000, 0.7874019999999999353 ) ) ;
#46 = ORIENTED_EDGE ( 'NONE', *, *, #61, .F. ) ;
#47 = PRODUCT_RELATED_PRODUCT_CATEGORY ( 'part', '', ( #151 ) ) ;
#48 = ORIENTED_EDGE ( 'NONE', *, *, #135, .T. ) ;
#49 = CYLINDRICAL_SURFACE ( 'NONE', #59, 0.07866125999999999674 ) ;
#50 =( LENGTH_UNIT ( ) NAMED_UNIT ( * ) SI_UNIT ( $, .METRE. ) );
#51 = ORIENTED_EDGE ( 'NONE', *, *, #163, .T. ) ;
#52 = UNCERTAINTY_MEASURE_WITH_UNIT (LENGTH_MEASURE( 1.000000000000000082E-05 ), #241, 'distance_accuracy_value', 'NONE');
#53 = DIRECTION ( 'NONE',  ( 1.000000000000000000, 0.0000000000000000000, 0.0000000000000000000 ) ) ;
#54 = STYLED_ITEM ( 'NONE', ( #215 ), #16 ) ;
#55 = DIRECTION ( 'NONE',  ( 1.000000000000000000, 0.0000000000000000000, 0.0000000000000000000 ) ) ;
#56 = AXIS2_PLACEMENT_3D ( 'NONE', #137, #208, #210 ) ;
#57 = DIRECTION ( 'NONE',  ( -1.000000000000000000, 0.0000000000000000000, 1.224646799147352961E-16 ) ) ;
#58 = DIRECTION ( 'NONE',  ( 1.000000000000000000, 0.0000000000000000000, 0.0000000000000000000 ) ) ;
#59 = AXIS2_PLACEMENT_3D ( 'NONE', #224, #60, #12 ) ;
#60 = DIRECTION ( 'NONE',  ( -1.224646799147353207E-16, -0.0000000000000000000, -1.000000000000000000 ) ) ;
#61 = EDGE_CURVE ( 'NONE', #99, #193, #200, .T. ) ;
#62 = CARTESIAN_POINT ( 'NONE',  ( -0.1574804999999998567, 0.0000000000000000000, 1.234408122848082323 ) ) ;
#63 = CLOSED_SHELL ( 'NONE', ( #20, #195, #253, #92, #293, #128, #183, #84, #167, #228 ) ) ;
#64 = DIRECTION ( 'NONE',  ( 0.0000000000000000000, 0.0000000000000000000, -1.000000000000000000 ) ) ;
#65 = CIRCLE ( 'NONE', #118, 0.1574804999999999955 ) ;
#66 = DIRECTION ( 'NONE',  ( -1.000000000000000000, 0.0000000000000000000, 0.0000000000000000000 ) ) ;
#67 = CIRCLE ( 'NONE', #285, 0.1574804999999999955 ) ;
#68 = ORIENTED_EDGE ( 'NONE', *, *, #61, .T. ) ;
#69 = SURFACE_STYLE_USAGE ( .BOTH. , #185 ) ;
#70 = CARTESIAN_POINT ( 'NONE',  ( 0.1574804999999999955, 1.928579902531247412E-17, 3.725156999999999829 ) ) ;
#71 = EDGE_LOOP ( 'NONE', ( #161, #48, #17, #147 ) ) ;
#72 = EDGE_LOOP ( 'NONE', ( #6, #3, #162, #278 ) ) ;
#73 = EDGE_CURVE ( 'NONE', #193, #260, #281, .T. ) ;
#74 = EDGE_LOOP ( 'NONE', ( #279, #119, #121, #191 ) ) ;
#75 = FILL_AREA_STYLE ('',( #107 ) ) ;
#76 = CARTESIAN_POINT ( 'NONE',  ( 1.179729942015078748E-33, 0.0000000000000000000, 9.633226027589770864E-18 ) ) ;
#77 = DIRECTION ( 'NONE',  ( 0.0000000000000000000, 0.0000000000000000000, 1.000000000000000000 ) ) ;
#78 = CARTESIAN_POINT ( 'NONE',  ( 9.642893389422242582E-17, 0.0000000000000000000, 0.7874019999999999353 ) ) ;
#79 = PRESENTATION_STYLE_ASSIGNMENT (( #69 ) ) ;
#80 = DIRECTION ( 'NONE',  ( -0.1736481776669311639, 2.126576849575783008E-17, 0.9848077530122080203 ) ) ;
#81 = CARTESIAN_POINT ( 'NONE',  ( -0.1424804999999998989, 0.0000000000000000000, 3.740156999999999954 ) ) ;
#82 = APPLICATION_CONTEXT ( 'automotive_design' ) ;
#83 = CARTESIAN_POINT ( 'NONE',  ( 0.07866125999999999674, 9.633226027589770864E-18, -9.633226027589770864E-18 ) ) ;
#84 = ADVANCED_FACE ( 'NONE', ( #287 ), #2, .T. ) ;
#85 = AXIS2_PLACEMENT_3D ( 'NONE', #178, #136, #108 ) ;
#86 = DIRECTION ( 'NONE',  ( -1.000000000000000000, 0.0000000000000000000, 0.0000000000000000000 ) ) ;
#87 = CARTESIAN_POINT ( 'NONE',  ( 0.0000000000000000000, 0.0000000000000000000, 3.740156999999999954 ) ) ;
#88 = DIRECTION ( 'NONE',  ( -1.224646799147353207E-16, -0.0000000000000000000, -1.000000000000000000 ) ) ;
#89 = SURFACE_STYLE_FILL_AREA ( #75 ) ;
#90 = CIRCLE ( 'NONE', #291, 0.07866125999999999674 ) ;
#91 = DIRECTION ( 'NONE',  ( 1.000000000000000000, 0.0000000000000000000, 0.0000000000000000000 ) ) ;
#92 = ADVANCED_FACE ( 'NONE', ( #222 ), #197, .T. ) ;
#93 = CONICAL_SURFACE ( 'NONE', #123, 0.1424804999999998989, 0.7853981633974608245 ) ;
#94 = VERTEX_POINT ( 'NONE', #286 ) ;
#95 = EDGE_LOOP ( 'NONE', ( #257, #237, #212, #51 ) ) ;
#96 = PRODUCT_DEFINITION_CONTEXT ( 'detailed design', #194, 'design' ) ;
#97 =( CONVERSION_BASED_UNIT ( 'INCH', #148 ) LENGTH_UNIT ( ) NAMED_UNIT ( #198 ) );
#98 = ORIENTED_EDGE ( 'NONE', *, *, #146, .T. ) ;
#99 = VERTEX_POINT ( 'NONE', #196 ) ;
#100 = CONICAL_SURFACE ( 'NONE', #130, 0.07866125999999999674, 0.1745329251994338637 ) ;
#101 = CARTESIAN_POINT ( 'NONE',  ( 0.0000000000000000000, 0.0000000000000000000, 0.0000000000000000000 ) ) ;
#102 = DIRECTION ( 'NONE',  ( -1.224646799147353207E-16, -0.0000000000000000000, -1.000000000000000000 ) ) ;
#103 = CARTESIAN_POINT ( 'NONE',  ( -0.07866125999999988572, 9.633226027589770864E-18, 0.7874019999999999353 ) ) ;
#104 =( GEOMETRIC_REPRESENTATION_CONTEXT ( 3 ) GLOBAL_UNCERTAINTY_ASSIGNED_CONTEXT ( ( #220 ) ) GLOBAL_UNIT_ASSIGNED_CONTEXT ( ( #97, #259, #24 ) ) REPRESENTATION_CONTEXT ( 'NONE', 'WORKASPACE' ) );
#105 = FACE_OUTER_BOUND ( 'NONE', #71, .T. ) ;
#106 = CARTESIAN_POINT ( 'NONE',  ( 0.07866125999999999674, 9.633226027589770864E-18, 0.0000000000000000000 ) ) ;
#107 = FILL_AREA_STYLE_COLOUR ( '', #34 ) ;
#108 = DIRECTION ( 'NONE',  ( -1.000000000000000000, 0.0000000000000000000, 1.224646799147352961E-16 ) ) ;
#109 = VECTOR ( 'NONE', #133, 39.37007874015748143 ) ;
#110 = EDGE_CURVE ( 'NONE', #99, #4, #11, .T. ) ;
#111 = LINE ( 'NONE', #296, #184 ) ;
#112 = CARTESIAN_POINT ( 'NONE',  ( 0.1574805000000001343, 1.928579902531249261E-17, 1.234408122848082323 ) ) ;
#113 = LENGTH_MEASURE_WITH_UNIT ( LENGTH_MEASURE( 0.02539999999999999897 ), #282 );
#114 = FACE_OUTER_BOUND ( 'NONE', #258, .T. ) ;
#115 = AXIS2_PLACEMENT_3D ( 'NONE', #78, #32, #129 ) ;
#116 = VERTEX_POINT ( 'NONE', #27 ) ;
#117 = VERTEX_POINT ( 'NONE', #225 ) ;
#118 = AXIS2_PLACEMENT_3D ( 'NONE', #270, #64, #40 ) ;
#119 = ORIENTED_EDGE ( 'NONE', *, *, #31, .T. ) ;
#120 = SURFACE_STYLE_FILL_AREA ( #22 ) ;
#121 = ORIENTED_EDGE ( 'NONE', *, *, #73, .T. ) ;
#122 = AXIS2_PLACEMENT_3D ( 'NONE', #127, #268, #53 ) ;
#123 = AXIS2_PLACEMENT_3D ( 'NONE', #87, #18, #180 ) ;
#124 = PRODUCT_DEFINITION ( 'UNKNOWN', '', #267, #96 ) ;
#125 =( NAMED_UNIT ( * ) SI_UNIT ( $, .STERADIAN. ) SOLID_ANGLE_UNIT ( ) );
#126 = COLOUR_RGB ( '',0.7921568627450980005, 0.8196078431372548767, 0.9333333333333333481 ) ;
#127 = CARTESIAN_POINT ( 'NONE',  ( 0.0000000000000000000, 0.0000000000000000000, 3.740156999999999954 ) ) ;
#128 = ADVANCED_FACE ( 'NONE', ( #173 ), #219, .T. ) ;
#129 = DIRECTION ( 'NONE',  ( -1.000000000000000000, 0.0000000000000000000, 0.0000000000000000000 ) ) ;
#130 = AXIS2_PLACEMENT_3D ( 'NONE', #45, #251, #141 ) ;
#131 = DIRECTION ( 'NONE',  ( 1.000000000000000000, 0.0000000000000000000, 0.0000000000000000000 ) ) ;
#132 = CARTESIAN_POINT ( 'NONE',  ( 9.642893389422242582E-17, 0.0000000000000000000, 0.7874019999999999353 ) ) ;
#133 = DIRECTION ( 'NONE',  ( -0.0000000000000000000, -0.0000000000000000000, -1.000000000000000000 ) ) ;
#134 = AXIS2_PLACEMENT_3D ( 'NONE', #36, #201, #131 ) ;
#135 = EDGE_CURVE ( 'NONE', #117, #166, #264, .T. ) ;
#136 = DIRECTION ( 'NONE',  ( -1.224646799147353207E-16, -0.0000000000000000000, -1.000000000000000000 ) ) ;
#137 = CARTESIAN_POINT ( 'NONE',  ( 0.0000000000000000000, 0.0000000000000000000, 3.740156999999999954 ) ) ;
#138 = ORIENTED_EDGE ( 'NONE', *, *, #243, .F. ) ;
#139 = CARTESIAN_POINT ( 'NONE',  ( 0.1574804999999999955, 1.928579902531247412E-17, 3.740156999999999954 ) ) ;
#140 = ORIENTED_EDGE ( 'NONE', *, *, #256, .F. ) ;
#141 = DIRECTION ( 'NONE',  ( 1.000000000000000000, 0.0000000000000000000, 0.0000000000000000000 ) ) ;
#142 = ORIENTED_EDGE ( 'NONE', *, *, #73, .F. ) ;
#143 = ORIENTED_EDGE ( 'NONE', *, *, #247, .F. ) ;
#144 = AXIS2_PLACEMENT_3D ( 'NONE', #249, #273, #66 ) ;
#145 = FILL_AREA_STYLE_COLOUR ( '', #126 ) ;
#146 = EDGE_CURVE ( 'NONE', #117, #94, #204, .T. ) ;
#147 = ORIENTED_EDGE ( 'NONE', *, *, #175, .F. ) ;
#148 = LENGTH_MEASURE_WITH_UNIT ( LENGTH_MEASURE( 0.02539999999999999897 ), #289 );
#149 = DIRECTION ( 'NONE',  ( 0.0000000000000000000, 0.0000000000000000000, -1.000000000000000000 ) ) ;
#150 = CARTESIAN_POINT ( 'NONE',  ( 0.0000000000000000000, 0.0000000000000000000, 3.740156999999999954 ) ) ;
#151 = PRODUCT ( 'Micro_SFLM-040-80', 'Micro_SFLM-040-80', '', ( #181 ) ) ;
#152 = DIRECTION ( 'NONE',  ( 1.000000000000000000, 0.0000000000000000000, 0.0000000000000000000 ) ) ;
#153 = CARTESIAN_POINT ( 'NONE',  ( 0.0000000000000000000, 0.0000000000000000000, 3.740156999999999954 ) ) ;
#154 = PRESENTATION_LAYER_ASSIGNMENT (  '', '', ( #26 ) ) ;
#155 = DIRECTION ( 'NONE',  ( -0.0000000000000000000, -0.0000000000000000000, -1.000000000000000000 ) ) ;
#156 = DIRECTION ( 'NONE',  ( -1.224646799147353207E-16, -0.0000000000000000000, -1.000000000000000000 ) ) ;
#157 = CARTESIAN_POINT ( 'NONE',  ( 0.0000000000000000000, 0.0000000000000000000, 0.0000000000000000000 ) ) ;
#158 = CARTESIAN_POINT ( 'NONE',  ( -0.07866125999999999674, 0.0000000000000000000, 1.926645205517954173E-17 ) ) ;
#159 = CIRCLE ( 'NONE', #39, 0.1424804999999998989 ) ;
#160 = EDGE_CURVE ( 'NONE', #116, #99, #171, .T. ) ;
#161 = ORIENTED_EDGE ( 'NONE', *, *, #226, .T. ) ;
#162 = ORIENTED_EDGE ( 'NONE', *, *, #110, .F. ) ;
#163 = EDGE_CURVE ( 'NONE', #260, #193, #67, .T. ) ;
#164 = ORIENTED_EDGE ( 'NONE', *, *, #175, .T. ) ;
#165 = AXIS2_PLACEMENT_3D ( 'NONE', #153, #261, #169 ) ;
#166 = VERTEX_POINT ( 'NONE', #106 ) ;
#167 = ADVANCED_FACE ( 'NONE', ( #176 ), #202, .T. ) ;
#168 = SURFACE_SIDE_STYLE ('',( #120 ) ) ;
#169 = DIRECTION ( 'NONE',  ( -1.000000000000000000, 0.0000000000000000000, 0.0000000000000000000 ) ) ;
#170 = AXIS2_PLACEMENT_3D ( 'NONE', #157, #44, #15 ) ;
#171 = LINE ( 'NONE', #81, #199 ) ;
#172 = DIMENSIONAL_EXPONENTS ( 1.000000000000000000, 0.0000000000000000000, 0.0000000000000000000, 0.0000000000000000000, 0.0000000000000000000, 0.0000000000000000000, 0.0000000000000000000 ) ;
#173 = FACE_OUTER_BOUND ( 'NONE', #41, .T. ) ;
#174 = CARTESIAN_POINT ( 'NONE',  ( 1.511713956487397033E-16, 0.0000000000000000000, 1.234408122848082323 ) ) ;
#175 = EDGE_CURVE ( 'NONE', #94, #299, #295, .T. ) ;
#176 = FACE_OUTER_BOUND ( 'NONE', #21, .T. ) ;
#177 = AXIS2_PLACEMENT_3D ( 'NONE', #150, #244, #9 ) ;
#178 = CARTESIAN_POINT ( 'NONE',  ( 0.0000000000000000000, 0.0000000000000000000, 0.0000000000000000000 ) ) ;
#179 = APPLICATION_PROTOCOL_DEFINITION ( 'draft international standard', 'automotive_design', 1998, #194 ) ;
#180 = DIRECTION ( 'NONE',  ( -1.000000000000000000, 0.0000000000000000000, 0.0000000000000000000 ) ) ;
#181 = PRODUCT_CONTEXT ( 'NONE', #82, 'mechanical' ) ;
#182 = FACE_OUTER_BOUND ( 'NONE', #214, .T. ) ;
#183 = ADVANCED_FACE ( 'NONE', ( #114 ), #217, .T. ) ;
#184 = VECTOR ( 'NONE', #246, 39.37007874015748143 ) ;
#185 = SURFACE_SIDE_STYLE ('',( #89 ) ) ;
#186 = DIRECTION ( 'NONE',  ( -1.000000000000000000, 0.0000000000000000000, 1.224646799147352961E-16 ) ) ;
#187 = ADVANCED_BREP_SHAPE_REPRESENTATION ( 'Micro_SFLM-040-80', ( #16, #272 ), #252 ) ;
#188 = ORIENTED_EDGE ( 'NONE', *, *, #243, .T. ) ;
#189 = VECTOR ( 'NONE', #102, 39.37007874015748143 ) ;
#190 = ORIENTED_EDGE ( 'NONE', *, *, #43, .F. ) ;
#191 = ORIENTED_EDGE ( 'NONE', *, *, #239, .F. ) ;
#192 = VECTOR ( 'NONE', #80, 39.37007874015747433 ) ;
#193 = VERTEX_POINT ( 'NONE', #62 ) ;
#194 = APPLICATION_CONTEXT ( 'automotive_design' ) ;
#195 = ADVANCED_FACE ( 'NONE', ( #203 ), #100, .T. ) ;
#196 = CARTESIAN_POINT ( 'NONE',  ( -0.1574804999999999955, 0.0000000000000000000, 3.725156999999999829 ) ) ;
#197 = CYLINDRICAL_SURFACE ( 'NONE', #165, 0.1574804999999999955 ) ;
#198 = DIMENSIONAL_EXPONENTS ( 1.000000000000000000, 0.0000000000000000000, 0.0000000000000000000, 0.0000000000000000000, 0.0000000000000000000, 0.0000000000000000000, 0.0000000000000000000 ) ;
#199 = VECTOR ( 'NONE', #245, 39.37007874015748143 ) ;
#200 = LINE ( 'NONE', #10, #262 ) ;
#201 = DIRECTION ( 'NONE',  ( -1.224646799147353207E-16, -0.0000000000000000000, -1.000000000000000000 ) ) ;
#202 = CYLINDRICAL_SURFACE ( 'NONE', #85, 0.07866125999999999674 ) ;
#203 = FACE_OUTER_BOUND ( 'NONE', #74, .T. ) ;
#204 = CIRCLE ( 'NONE', #115, 0.07866125999999999674 ) ;
#205 = CARTESIAN_POINT ( 'NONE',  ( 1.179729942015078748E-33, 0.0000000000000000000, 9.633226027589770864E-18 ) ) ;
#206 = PRODUCT_DEFINITION_SHAPE ( 'NONE', 'NONE',  #124 ) ;
#207 =( CONVERSION_BASED_UNIT ( 'INCH', #113 ) LENGTH_UNIT ( ) NAMED_UNIT ( #172 ) );
#208 = DIRECTION ( 'NONE',  ( 0.0000000000000000000, 0.0000000000000000000, -1.000000000000000000 ) ) ;
#209 = MECHANICAL_DESIGN_GEOMETRIC_PRESENTATION_REPRESENTATION (  '', ( #26 ), #104 ) ;
#210 = DIRECTION ( 'NONE',  ( -1.000000000000000000, 0.0000000000000000000, 0.0000000000000000000 ) ) ;
#211 =( NAMED_UNIT ( * ) SI_UNIT ( $, .STERADIAN. ) SOLID_ANGLE_UNIT ( ) );
#212 = ORIENTED_EDGE ( 'NONE', *, *, #239, .T. ) ;
#213 = AXIS2_PLACEMENT_3D ( 'NONE', #76, #227, #57 ) ;
#214 = EDGE_LOOP ( 'NONE', ( #143, #276, #68, #274 ) ) ;
#215 = PRESENTATION_STYLE_ASSIGNMENT (( #283 ) ) ;
#216 = ORIENTED_EDGE ( 'NONE', *, *, #37, .T. ) ;
#217 = CONICAL_SURFACE ( 'NONE', #56, 0.1424804999999998989, 0.7853981633974608245 ) ;
#218 = ORIENTED_EDGE ( 'NONE', *, *, #160, .T. ) ;
#219 = PLANE ( 'NONE',  #177 ) ;
#220 = UNCERTAINTY_MEASURE_WITH_UNIT (LENGTH_MEASURE( 1.000000000000000082E-05 ), #97, 'distance_accuracy_value', 'NONE');
#221 = APPLICATION_PROTOCOL_DEFINITION ( 'draft international standard', 'automotive_design', 1998, #82 ) ;
#222 = FACE_OUTER_BOUND ( 'NONE', #238, .T. ) ;
#223 = AXIS2_PLACEMENT_3D ( 'NONE', #250, #156, #86 ) ;
#224 = CARTESIAN_POINT ( 'NONE',  ( 0.0000000000000000000, 0.0000000000000000000, 0.0000000000000000000 ) ) ;
#225 = CARTESIAN_POINT ( 'NONE',  ( 0.07866126000000009388, 0.0000000000000000000, 0.7874019999999999353 ) ) ;
#226 = EDGE_CURVE ( 'NONE', #94, #117, #231, .T. ) ;
#227 = DIRECTION ( 'NONE',  ( -1.224646799147353207E-16, -0.0000000000000000000, -1.000000000000000000 ) ) ;
#228 = ADVANCED_FACE ( 'NONE', ( #232 ), #294, .F. ) ;
#229 = DIMENSIONAL_EXPONENTS ( 1.000000000000000000, 0.0000000000000000000, 0.0000000000000000000, 0.0000000000000000000, 0.0000000000000000000, 0.0000000000000000000, 0.0000000000000000000 ) ;
#230 = CARTESIAN_POINT ( 'NONE',  ( -0.07866125999999999674, 0.0000000000000000000, 9.633226027589770864E-18 ) ) ;
#231 = CIRCLE ( 'NONE', #223, 0.07866125999999999674 ) ;
#232 = FACE_OUTER_BOUND ( 'NONE', #255, .T. ) ;
#233 = ORIENTED_EDGE ( 'NONE', *, *, #28, .F. ) ;
#234 = PRESENTATION_LAYER_ASSIGNMENT (  '', '', ( #54 ) ) ;
#235 = AXIS2_PLACEMENT_3D ( 'NONE', #132, #14, #152 ) ;
#236 = CARTESIAN_POINT ( 'NONE',  ( 0.0000000000000000000, 0.0000000000000000000, 3.740156999999999954 ) ) ;
#237 = ORIENTED_EDGE ( 'NONE', *, *, #146, .F. ) ;
#238 = EDGE_LOOP ( 'NONE', ( #42, #297, #142, #46 ) ) ;
#239 = EDGE_CURVE ( 'NONE', #117, #260, #111, .T. ) ;
#240 = ORIENTED_EDGE ( 'NONE', *, *, #43, .T. ) ;
#241 =( CONVERSION_BASED_UNIT ( 'INCH', #23 ) LENGTH_UNIT ( ) NAMED_UNIT ( #229 ) );
#242 = DIRECTION ( 'NONE',  ( 1.000000000000000000, 0.0000000000000000000, 0.0000000000000000000 ) ) ;
#243 = EDGE_CURVE ( 'NONE', #116, #19, #159, .T. ) ;
#244 = DIRECTION ( 'NONE',  ( 0.0000000000000000000, 0.0000000000000000000, 1.000000000000000000 ) ) ;
#245 = DIRECTION ( 'NONE',  ( -0.7071067811865563435, 0.0000000000000000000, -0.7071067811865386910 ) ) ;
#246 = DIRECTION ( 'NONE',  ( 0.1736481776669313581, 0.0000000000000000000, 0.9848077530122077983 ) ) ;
#247 = EDGE_CURVE ( 'NONE', #4, #260, #38, .T. ) ;
#248 = DIRECTION ( 'NONE',  ( -1.224646799147353207E-16, -0.0000000000000000000, -1.000000000000000000 ) ) ;
#249 = CARTESIAN_POINT ( 'NONE',  ( 0.0000000000000000000, 0.0000000000000000000, 3.740156999999999954 ) ) ;
#250 = CARTESIAN_POINT ( 'NONE',  ( 9.642893389422242582E-17, 0.0000000000000000000, 0.7874019999999999353 ) ) ;
#251 = DIRECTION ( 'NONE',  ( 1.224646799147353207E-16, 0.0000000000000000000, 1.000000000000000000 ) ) ;
#252 =( GEOMETRIC_REPRESENTATION_CONTEXT ( 3 ) GLOBAL_UNCERTAINTY_ASSIGNED_CONTEXT ( ( #5 ) ) GLOBAL_UNIT_ASSIGNED_CONTEXT ( ( #207, #269, #211 ) ) REPRESENTATION_CONTEXT ( 'NONE', 'WORKASPACE' ) );
#253 = ADVANCED_FACE ( 'NONE', ( #298 ), #93, .T. ) ;
#254 = ORIENTED_EDGE ( 'NONE', *, *, #275, .T. ) ;
#255 = EDGE_LOOP ( 'NONE', ( #254, #240 ) ) ;
#256 = EDGE_CURVE ( 'NONE', #4, #99, #65, .T. ) ;
#257 = ORIENTED_EDGE ( 'NONE', *, *, #31, .F. ) ;
#258 = EDGE_LOOP ( 'NONE', ( #233, #138, #218, #140 ) ) ;
#259 =( NAMED_UNIT ( * ) PLANE_ANGLE_UNIT ( ) SI_UNIT ( $, .RADIAN. ) );
#260 = VERTEX_POINT ( 'NONE', #112 ) ;
#261 = DIRECTION ( 'NONE',  ( -0.0000000000000000000, -0.0000000000000000000, -1.000000000000000000 ) ) ;
#262 = VECTOR ( 'NONE', #155, 39.37007874015748143 ) ;
#263 = LINE ( 'NONE', #284, #290 ) ;
#264 = LINE ( 'NONE', #83, #189 ) ;
#265 = DIRECTION ( 'NONE',  ( -1.224646799147353207E-16, -0.0000000000000000000, -1.000000000000000000 ) ) ;
#266 = CIRCLE ( 'NONE', #122, 0.1424804999999998989 ) ;
#267 = PRODUCT_DEFINITION_FORMATION_WITH_SPECIFIED_SOURCE ( 'ANY', '', #151, .NOT_KNOWN. ) ;
#268 = DIRECTION ( 'NONE',  ( 0.0000000000000000000, 0.0000000000000000000, 1.000000000000000000 ) ) ;
#269 =( NAMED_UNIT ( * ) PLANE_ANGLE_UNIT ( ) SI_UNIT ( $, .RADIAN. ) );
#270 = CARTESIAN_POINT ( 'NONE',  ( 0.0000000000000000000, 0.0000000000000000000, 3.725156999999999829 ) ) ;
#271 = CYLINDRICAL_SURFACE ( 'NONE', #144, 0.1574804999999999955 ) ;
#272 = AXIS2_PLACEMENT_3D ( 'NONE', #101, #77, #55 ) ;
#273 = DIRECTION ( 'NONE',  ( -0.0000000000000000000, -0.0000000000000000000, -1.000000000000000000 ) ) ;
#274 = ORIENTED_EDGE ( 'NONE', *, *, #163, .F. ) ;
#275 = EDGE_CURVE ( 'NONE', #299, #166, #90, .T. ) ;
#276 = ORIENTED_EDGE ( 'NONE', *, *, #256, .T. ) ;
#277 = VECTOR ( 'NONE', #248, 39.37007874015748143 ) ;
#278 = ORIENTED_EDGE ( 'NONE', *, *, #160, .F. ) ;
#279 = ORIENTED_EDGE ( 'NONE', *, *, #226, .F. ) ;
#280 =( GEOMETRIC_REPRESENTATION_CONTEXT ( 3 ) GLOBAL_UNCERTAINTY_ASSIGNED_CONTEXT ( ( #52 ) ) GLOBAL_UNIT_ASSIGNED_CONTEXT ( ( #241, #8, #125 ) ) REPRESENTATION_CONTEXT ( 'NONE', 'WORKASPACE' ) );
#281 = CIRCLE ( 'NONE', #134, 0.1574804999999999955 ) ;
#282 =( LENGTH_UNIT ( ) NAMED_UNIT ( * ) SI_UNIT ( $, .METRE. ) );
#283 = SURFACE_STYLE_USAGE ( .BOTH. , #168 ) ;
#284 = CARTESIAN_POINT ( 'NONE',  ( 0.1424804999999998989, 1.744882882659143297E-17, 3.740156999999999954 ) ) ;
#285 = AXIS2_PLACEMENT_3D ( 'NONE', #174, #265, #58 ) ;
#286 = CARTESIAN_POINT ( 'NONE',  ( -0.07866125999999988572, 1.445951252645112249E-17, 0.7874019999999999353 ) ) ;
#287 = FACE_OUTER_BOUND ( 'NONE', #95, .T. ) ;
#288 = LINE ( 'NONE', #103, #192 ) ;
#289 =( LENGTH_UNIT ( ) NAMED_UNIT ( * ) SI_UNIT ( $, .METRE. ) );
#290 = VECTOR ( 'NONE', #29, 39.37007874015748143 ) ;
#291 = AXIS2_PLACEMENT_3D ( 'NONE', #205, #88, #186 ) ;
#292 = DIRECTION ( 'NONE',  ( 0.0000000000000000000, 0.0000000000000000000, 1.000000000000000000 ) ) ;
#293 = ADVANCED_FACE ( 'NONE', ( #182 ), #271, .T. ) ;
#294 = PLANE ( 'NONE',  #170 ) ;
#295 = LINE ( 'NONE', #230, #277 ) ;
#296 = CARTESIAN_POINT ( 'NONE',  ( 0.07866126000000009388, 0.0000000000000000000, 0.7874019999999999353 ) ) ;
#297 = ORIENTED_EDGE ( 'NONE', *, *, #247, .T. ) ;
#298 = FACE_OUTER_BOUND ( 'NONE', #72, .T. ) ;
#299 = VERTEX_POINT ( 'NONE', #158 ) ;
ENDSEC;
END-ISO-10303-21;
