ISO-10303-21;
HEADER;
FILE_DESCRIPTION (( 'STEP AP214' ),
    '1' );
FILE_NAME ('Micro_SFPM-040-50.STEP',
    '2021-09-02T06:58:56',
    ( '' ),
    ( '' ),
    'SwSTEP 2.0',
    'SolidWorks 2020',
    '' );
FILE_SCHEMA (( 'AUTOMOTIVE_DESIGN' ));
ENDSEC;

DATA;
#1 = DIRECTION ( 'NONE',  ( -1.224646799147353207E-16, -0.0000000000000000000, -1.000000000000000000 ) ) ;
#2 = AXIS2_PLACEMENT_3D ( 'NONE', #49, #137, #11 ) ;
#3 = STYLED_ITEM ( 'NONE', ( #89 ), #193 ) ;
#4 = ORIENTED_EDGE ( 'NONE', *, *, #246, .F. ) ;
#5 = DIRECTION ( 'NONE',  ( 0.0000000000000000000, 0.0000000000000000000, 1.000000000000000000 ) ) ;
#6 = VERTEX_POINT ( 'NONE', #59 ) ;
#7 = DIRECTION ( 'NONE',  ( -1.224646799147353207E-16, -0.0000000000000000000, -1.000000000000000000 ) ) ;
#8 = CYLINDRICAL_SURFACE ( 'NONE', #294, 0.1181100000000000066 ) ;
#9 = VECTOR ( 'NONE', #112, 39.37007874015748143 ) ;
#10 = ORIENTED_EDGE ( 'NONE', *, *, #61, .F. ) ;
#11 = DIRECTION ( 'NONE',  ( 1.000000000000000000, 0.0000000000000000000, 0.0000000000000000000 ) ) ;
#12 = VERTEX_POINT ( 'NONE', #63 ) ;
#13 = EDGE_CURVE ( 'NONE', #218, #174, #216, .T. ) ;
#14 = DIRECTION ( 'NONE',  ( 1.000000000000000000, 0.0000000000000000000, 0.0000000000000000000 ) ) ;
#15 = DIRECTION ( 'NONE',  ( -0.0000000000000000000, -0.0000000000000000000, -1.000000000000000000 ) ) ;
#16 = ADVANCED_FACE ( 'NONE', ( #57 ), #237, .T. ) ;
#17 = CIRCLE ( 'NONE', #276, 0.1181100000000000066 ) ;
#18 = ADVANCED_FACE ( 'NONE', ( #210 ), #147, .T. ) ;
#19 = CARTESIAN_POINT ( 'NONE',  ( 5.785733584359747758E-17, 0.0000000000000000000, 0.4724409999999999998 ) ) ;
#20 = AXIS2_PLACEMENT_3D ( 'NONE', #255, #31, #24 ) ;
#21 = LINE ( 'NONE', #87, #54 ) ;
#22 = ORIENTED_EDGE ( 'NONE', *, *, #231, .F. ) ;
#23 = CIRCLE ( 'NONE', #20, 0.1181100000000000066 ) ;
#24 = DIRECTION ( 'NONE',  ( 1.000000000000000000, 0.0000000000000000000, 0.0000000000000000000 ) ) ;
#25 = DIRECTION ( 'NONE',  ( -0.1736481776669311639, 2.126576849575782392E-17, 0.9848077530122080203 ) ) ;
#26 = FACE_OUTER_BOUND ( 'NONE', #80, .T. ) ;
#27 = ORIENTED_EDGE ( 'NONE', *, *, #65, .T. ) ;
#28 = PRESENTATION_LAYER_ASSIGNMENT (  '', '', ( #107 ) ) ;
#29 =( NAMED_UNIT ( * ) PLANE_ANGLE_UNIT ( ) SI_UNIT ( $, .RADIAN. ) );
#30 = DIRECTION ( 'NONE',  ( -1.000000000000000000, 0.0000000000000000000, 0.0000000000000000000 ) ) ;
#31 = DIRECTION ( 'NONE',  ( -1.224646799147353207E-16, -0.0000000000000000000, -1.000000000000000000 ) ) ;
#32 = DIRECTION ( 'NONE',  ( 0.0000000000000000000, 0.0000000000000000000, 1.000000000000000000 ) ) ;
#33 = ORIENTED_EDGE ( 'NONE', *, *, #291, .F. ) ;
#34 = CARTESIAN_POINT ( 'NONE',  ( 0.07866125999999999674, 9.633226027589770864E-18, 1.895600338963814870E-33 ) ) ;
#35 = ORIENTED_EDGE ( 'NONE', *, *, #176, .F. ) ;
#36 = DIRECTION ( 'NONE',  ( -1.224646799147353207E-16, -0.0000000000000000000, -1.000000000000000000 ) ) ;
#37 = ORIENTED_EDGE ( 'NONE', *, *, #211, .T. ) ;
#38 = LINE ( 'NONE', #247, #254 ) ;
#39 = VECTOR ( 'NONE', #15, 39.37007874015748143 ) ;
#40 = CARTESIAN_POINT ( 'NONE',  ( -0.1181100000000000066, 0.0000000000000000000, 2.229093999999999465 ) ) ;
#41 = AXIS2_PLACEMENT_3D ( 'NONE', #142, #207, #140 ) ;
#42 =( LENGTH_UNIT ( ) NAMED_UNIT ( * ) SI_UNIT ( $, .METRE. ) );
#43 = EDGE_LOOP ( 'NONE', ( #122, #197, #22, #220 ) ) ;
#44 = ADVANCED_FACE ( 'NONE', ( #242 ), #8, .T. ) ;
#45 = EDGE_LOOP ( 'NONE', ( #262, #37 ) ) ;
#46 = VECTOR ( 'NONE', #245, 39.37007874015748854 ) ;
#47 = UNCERTAINTY_MEASURE_WITH_UNIT (LENGTH_MEASURE( 1.000000000000000082E-05 ), #166, 'distance_accuracy_value', 'NONE');
#48 = PRODUCT_DEFINITION_SHAPE ( 'NONE', 'NONE',  #221 ) ;
#49 = CARTESIAN_POINT ( 'NONE',  ( 0.0000000000000000000, 0.0000000000000000000, 2.229093999999999465 ) ) ;
#50 = ORIENTED_EDGE ( 'NONE', *, *, #284, .T. ) ;
#51 = CARTESIAN_POINT ( 'NONE',  ( -0.1031100000000002570, 0.0000000000000000000, 2.244094000000000033 ) ) ;
#52 = DIRECTION ( 'NONE',  ( 1.000000000000000000, 0.0000000000000000000, -0.0000000000000000000 ) ) ;
#53 = DIRECTION ( 'NONE',  ( -1.224646799147353207E-16, -0.0000000000000000000, -1.000000000000000000 ) ) ;
#54 = VECTOR ( 'NONE', #106, 39.37007874015748143 ) ;
#55 =( GEOMETRIC_REPRESENTATION_CONTEXT ( 3 ) GLOBAL_UNCERTAINTY_ASSIGNED_CONTEXT ( ( #133 ) ) GLOBAL_UNIT_ASSIGNED_CONTEXT ( ( #187, #275, #250 ) ) REPRESENTATION_CONTEXT ( 'NONE', 'WORKASPACE' ) );
#56 = SURFACE_SIDE_STYLE ('',( #58 ) ) ;
#57 = FACE_OUTER_BOUND ( 'NONE', #84, .T. ) ;
#58 = SURFACE_STYLE_FILL_AREA ( #93 ) ;
#59 = CARTESIAN_POINT ( 'NONE',  ( 0.07866126000000002449, 0.0000000000000000000, 0.4724409999999999998 ) ) ;
#60 = ORIENTED_EDGE ( 'NONE', *, *, #184, .T. ) ;
#61 = EDGE_CURVE ( 'NONE', #6, #212, #116, .T. ) ;
#62 = DIRECTION ( 'NONE',  ( 0.0000000000000000000, 0.0000000000000000000, -1.000000000000000000 ) ) ;
#63 = CARTESIAN_POINT ( 'NONE',  ( 0.1181100000000000066, 1.446430334472939084E-17, 2.229093999999999465 ) ) ;
#64 = CARTESIAN_POINT ( 'NONE',  ( 5.785733584359747758E-17, 0.0000000000000000000, 0.4724409999999999998 ) ) ;
#65 = EDGE_CURVE ( 'NONE', #279, #115, #290, .T. ) ;
#66 = CARTESIAN_POINT ( 'NONE',  ( 0.0000000000000000000, 0.0000000000000000000, 0.0000000000000000000 ) ) ;
#67 = CIRCLE ( 'NONE', #234, 0.1031100000000002570 ) ;
#68 = PRODUCT_CONTEXT ( 'NONE', #292, 'mechanical' ) ;
#69 = ORIENTED_EDGE ( 'NONE', *, *, #65, .F. ) ;
#70 = DIRECTION ( 'NONE',  ( -1.224646799147353207E-16, -0.0000000000000000000, -1.000000000000000000 ) ) ;
#71 = AXIS2_PLACEMENT_3D ( 'NONE', #281, #76, #168 ) ;
#72 = CARTESIAN_POINT ( 'NONE',  ( 8.525573680145875752E-17, 0.0000000000000000000, 0.6961659219688249856 ) ) ;
#73 = CONICAL_SURFACE ( 'NONE', #267, 0.07866125999999996898, 0.1745329251994338360 ) ;
#74 =( NAMED_UNIT ( * ) SI_UNIT ( $, .STERADIAN. ) SOLID_ANGLE_UNIT ( ) );
#75 = PRESENTATION_STYLE_ASSIGNMENT (( #92 ) ) ;
#76 = DIRECTION ( 'NONE',  ( 0.0000000000000000000, 0.0000000000000000000, 1.000000000000000000 ) ) ;
#77 = CARTESIAN_POINT ( 'NONE',  ( -0.07866125999999992735, 1.204876468615957931E-17, 0.4724409999999999998 ) ) ;
#78 = ORIENTED_EDGE ( 'NONE', *, *, #213, .F. ) ;
#79 = LINE ( 'NONE', #263, #9 ) ;
#80 = EDGE_LOOP ( 'NONE', ( #288, #190 ) ) ;
#81 = FILL_AREA_STYLE ('',( #285 ) ) ;
#82 = ORIENTED_EDGE ( 'NONE', *, *, #13, .F. ) ;
#83 = DIRECTION ( 'NONE',  ( -1.224646799147353207E-16, -0.0000000000000000000, -1.000000000000000000 ) ) ;
#84 = EDGE_LOOP ( 'NONE', ( #33, #266, #268, #189 ) ) ;
#85 = CIRCLE ( 'NONE', #252, 0.07866125999999996898 ) ;
#86 = ADVANCED_FACE ( 'NONE', ( #104 ), #127, .T. ) ;
#87 = CARTESIAN_POINT ( 'NONE',  ( 0.1181100000000000066, 1.446430334472939084E-17, 2.244094000000000033 ) ) ;
#88 = CARTESIAN_POINT ( 'NONE',  ( 0.1031100000000002570, 1.262733314600838667E-17, 2.244094000000000033 ) ) ;
#89 = PRESENTATION_STYLE_ASSIGNMENT (( #241 ) ) ;
#90 = VECTOR ( 'NONE', #119, 39.37007874015748854 ) ;
#91 = UNCERTAINTY_MEASURE_WITH_UNIT (LENGTH_MEASURE( 1.000000000000000082E-05 ), #103, 'distance_accuracy_value', 'NONE');
#92 = SURFACE_STYLE_USAGE ( .BOTH. , #56 ) ;
#93 = FILL_AREA_STYLE ('',( #95 ) ) ;
#94 = EDGE_LOOP ( 'NONE', ( #100, #10, #132, #228 ) ) ;
#95 = FILL_AREA_STYLE_COLOUR ( '', #161 ) ;
#96 = ORIENTED_EDGE ( 'NONE', *, *, #155, .F. ) ;
#97 = CARTESIAN_POINT ( 'NONE',  ( -0.1031100000000002570, 0.0000000000000000000, 2.244094000000000033 ) ) ;
#98 = DIRECTION ( 'NONE',  ( -1.000000000000000000, 0.0000000000000000000, 0.0000000000000000000 ) ) ;
#99 = APPLICATION_PROTOCOL_DEFINITION ( 'draft international standard', 'automotive_design', 1998, #292 ) ;
#100 = ORIENTED_EDGE ( 'NONE', *, *, #158, .F. ) ;
#101 = LINE ( 'NONE', #88, #46 ) ;
#102 = ORIENTED_EDGE ( 'NONE', *, *, #253, .F. ) ;
#103 =( CONVERSION_BASED_UNIT ( 'INCH', #121 ) LENGTH_UNIT ( ) NAMED_UNIT ( #131 ) );
#104 = FACE_OUTER_BOUND ( 'NONE', #167, .T. ) ;
#105 = MANIFOLD_SOLID_BREP ( 'Cut-Revolve1', #153 ) ;
#106 = DIRECTION ( 'NONE',  ( -0.0000000000000000000, -0.0000000000000000000, -1.000000000000000000 ) ) ;
#107 = STYLED_ITEM ( 'NONE', ( #75 ), #105 ) ;
#108 =( GEOMETRIC_REPRESENTATION_CONTEXT ( 3 ) GLOBAL_UNCERTAINTY_ASSIGNED_CONTEXT ( ( #91 ) ) GLOBAL_UNIT_ASSIGNED_CONTEXT ( ( #103, #271, #173 ) ) REPRESENTATION_CONTEXT ( 'NONE', 'WORKASPACE' ) );
#109 = CARTESIAN_POINT ( 'NONE',  ( 0.0000000000000000000, 0.0000000000000000000, 2.229093999999999465 ) ) ;
#110 = DIMENSIONAL_EXPONENTS ( 1.000000000000000000, 0.0000000000000000000, 0.0000000000000000000, 0.0000000000000000000, 0.0000000000000000000, 0.0000000000000000000, 0.0000000000000000000 ) ;
#111 = MECHANICAL_DESIGN_GEOMETRIC_PRESENTATION_REPRESENTATION (  '', ( #3 ), #55 ) ;
#112 = DIRECTION ( 'NONE',  ( 0.1736481776669313304, 0.0000000000000000000, 0.9848077530122077983 ) ) ;
#113 = CARTESIAN_POINT ( 'NONE',  ( 0.1031100000000002570, 1.354581824536888722E-17, 2.244094000000000033 ) ) ;
#114 =( LENGTH_UNIT ( ) NAMED_UNIT ( * ) SI_UNIT ( $, .METRE. ) );
#115 = VERTEX_POINT ( 'NONE', #233 ) ;
#116 = CIRCLE ( 'NONE', #248, 0.07866125999999996898 ) ;
#117 = CARTESIAN_POINT ( 'NONE',  ( 1.179729942015078748E-33, 0.0000000000000000000, 9.633226027589770864E-18 ) ) ;
#118 = CARTESIAN_POINT ( 'NONE',  ( 0.0000000000000000000, 0.0000000000000000000, 2.244094000000000033 ) ) ;
#119 = DIRECTION ( 'NONE',  ( -0.7071067811865358044, 0.0000000000000000000, -0.7071067811865590080 ) ) ;
#120 = CARTESIAN_POINT ( 'NONE',  ( 5.785733584359747758E-17, 0.0000000000000000000, 0.4724409999999999998 ) ) ;
#121 = LENGTH_MEASURE_WITH_UNIT ( LENGTH_MEASURE( 0.02539999999999999897 ), #296 );
#122 = ORIENTED_EDGE ( 'NONE', *, *, #211, .F. ) ;
#123 = AXIS2_PLACEMENT_3D ( 'NONE', #194, #53, #178 ) ;
#124 = FACE_OUTER_BOUND ( 'NONE', #186, .T. ) ;
#125 = VERTEX_POINT ( 'NONE', #165 ) ;
#126 = DIRECTION ( 'NONE',  ( 0.0000000000000000000, 0.0000000000000000000, -1.000000000000000000 ) ) ;
#127 = CYLINDRICAL_SURFACE ( 'NONE', #130, 0.07866125999999996898 ) ;
#128 =( GEOMETRIC_REPRESENTATION_CONTEXT ( 3 ) GLOBAL_UNCERTAINTY_ASSIGNED_CONTEXT ( ( #47 ) ) GLOBAL_UNIT_ASSIGNED_CONTEXT ( ( #166, #29, #74 ) ) REPRESENTATION_CONTEXT ( 'NONE', 'WORKASPACE' ) );
#129 = DIRECTION ( 'NONE',  ( 1.000000000000000000, 0.0000000000000000000, 0.0000000000000000000 ) ) ;
#130 = AXIS2_PLACEMENT_3D ( 'NONE', #199, #70, #185 ) ;
#131 = DIMENSIONAL_EXPONENTS ( 1.000000000000000000, 0.0000000000000000000, 0.0000000000000000000, 0.0000000000000000000, 0.0000000000000000000, 0.0000000000000000000, 0.0000000000000000000 ) ;
#132 = ORIENTED_EDGE ( 'NONE', *, *, #225, .T. ) ;
#133 = UNCERTAINTY_MEASURE_WITH_UNIT (LENGTH_MEASURE( 1.000000000000000082E-05 ), #187, 'distance_accuracy_value', 'NONE');
#134 = PRODUCT_DEFINITION_FORMATION_WITH_SPECIFIED_SOURCE ( 'ANY', '', #249, .NOT_KNOWN. ) ;
#135 = EDGE_LOOP ( 'NONE', ( #4, #82, #60, #139 ) ) ;
#136 = DIRECTION ( 'NONE',  ( 0.0000000000000000000, 0.0000000000000000000, 1.000000000000000000 ) ) ;
#137 = DIRECTION ( 'NONE',  ( 0.0000000000000000000, 0.0000000000000000000, -1.000000000000000000 ) ) ;
#138 = CARTESIAN_POINT ( 'NONE',  ( -0.07866125999999996898, 0.0000000000000000000, 9.633226027589769323E-18 ) ) ;
#139 = ORIENTED_EDGE ( 'NONE', *, *, #295, .F. ) ;
#140 = DIRECTION ( 'NONE',  ( -1.000000000000000000, 0.0000000000000000000, 0.0000000000000000000 ) ) ;
#141 = CARTESIAN_POINT ( 'NONE',  ( 0.0000000000000000000, 0.0000000000000000000, 2.244094000000000033 ) ) ;
#142 = CARTESIAN_POINT ( 'NONE',  ( 0.0000000000000000000, 0.0000000000000000000, 2.244094000000000033 ) ) ;
#143 = EDGE_LOOP ( 'NONE', ( #145, #192, #27, #78 ) ) ;
#144 = FACE_OUTER_BOUND ( 'NONE', #135, .T. ) ;
#145 = ORIENTED_EDGE ( 'NONE', *, *, #284, .F. ) ;
#146 = SURFACE_SIDE_STYLE ('',( #265 ) ) ;
#147 = PLANE ( 'NONE',  #217 ) ;
#148 = MECHANICAL_DESIGN_GEOMETRIC_PRESENTATION_REPRESENTATION (  '', ( #107 ), #128 ) ;
#149 = AXIS2_PLACEMENT_3D ( 'NONE', #177, #238, #222 ) ;
#150 = DIRECTION ( 'NONE',  ( 1.000000000000000000, 0.0000000000000000000, 0.0000000000000000000 ) ) ;
#151 = DIRECTION ( 'NONE',  ( 1.000000000000000000, 0.0000000000000000000, -0.0000000000000000000 ) ) ;
#152 = FACE_OUTER_BOUND ( 'NONE', #94, .T. ) ;
#153 = CLOSED_SHELL ( 'NONE', ( #86, #270, #269, #172, #44, #18, #257, #274, #16, #195 ) ) ;
#154 = CIRCLE ( 'NONE', #169, 0.07866125999999999674 ) ;
#155 = EDGE_CURVE ( 'NONE', #212, #125, #208, .T. ) ;
#156 = FACE_OUTER_BOUND ( 'NONE', #43, .T. ) ;
#157 = COLOUR_RGB ( '',0.7921568627450980005, 0.8196078431372548767, 0.9333333333333333481 ) ;
#158 = EDGE_CURVE ( 'NONE', #212, #115, #278, .T. ) ;
#159 = EDGE_LOOP ( 'NONE', ( #273, #50, #35, #69 ) ) ;
#160 = APPLICATION_PROTOCOL_DEFINITION ( 'draft international standard', 'automotive_design', 1998, #175 ) ;
#161 = COLOUR_RGB ( '',0.7921568627450980005, 0.8196078431372548767, 0.9333333333333333481 ) ;
#162 = PRESENTATION_LAYER_ASSIGNMENT (  '', '', ( #3 ) ) ;
#163 = DIRECTION ( 'NONE',  ( -1.000000000000000000, 0.0000000000000000000, 1.224646799147352961E-16 ) ) ;
#164 = PRODUCT_RELATED_PRODUCT_CATEGORY ( 'part', '', ( #249 ) ) ;
#165 = CARTESIAN_POINT ( 'NONE',  ( -0.07866125999999999674, 0.0000000000000000000, 1.926645205517954173E-17 ) ) ;
#166 =( CONVERSION_BASED_UNIT ( 'INCH', #235 ) LENGTH_UNIT ( ) NAMED_UNIT ( #110 ) );
#167 = EDGE_LOOP ( 'NONE', ( #171, #239, #259, #96 ) ) ;
#168 = DIRECTION ( 'NONE',  ( 1.000000000000000000, 0.0000000000000000000, 0.0000000000000000000 ) ) ;
#169 = AXIS2_PLACEMENT_3D ( 'NONE', #117, #7, #163 ) ;
#170 = CARTESIAN_POINT ( 'NONE',  ( 0.0000000000000000000, 0.0000000000000000000, 2.244094000000000033 ) ) ;
#171 = ORIENTED_EDGE ( 'NONE', *, *, #253, .T. ) ;
#172 = ADVANCED_FACE ( 'NONE', ( #261 ), #258, .T. ) ;
#173 =( NAMED_UNIT ( * ) SI_UNIT ( $, .STERADIAN. ) SOLID_ANGLE_UNIT ( ) );
#174 = VERTEX_POINT ( 'NONE', #113 ) ;
#175 = APPLICATION_CONTEXT ( 'automotive_design' ) ;
#176 = EDGE_CURVE ( 'NONE', #115, #244, #180, .T. ) ;
#177 = CARTESIAN_POINT ( 'NONE',  ( 1.179729942015078748E-33, 0.0000000000000000000, 9.633226027589770864E-18 ) ) ;
#178 = DIRECTION ( 'NONE',  ( -1.000000000000000000, 0.0000000000000000000, 1.224646799147353207E-16 ) ) ;
#179 = CIRCLE ( 'NONE', #2, 0.1181100000000000066 ) ;
#180 = CIRCLE ( 'NONE', #297, 0.1181100000000000066 ) ;
#181 = DIRECTION ( 'NONE',  ( 0.0000000000000000000, 0.0000000000000000000, -1.000000000000000000 ) ) ;
#182 = DIRECTION ( 'NONE',  ( -1.000000000000000000, 0.0000000000000000000, 0.0000000000000000000 ) ) ;
#183 = LENGTH_MEASURE_WITH_UNIT ( LENGTH_MEASURE( 0.02539999999999999897 ), #42 );
#184 = EDGE_CURVE ( 'NONE', #218, #279, #277, .T. ) ;
#185 = DIRECTION ( 'NONE',  ( -1.000000000000000000, 0.0000000000000000000, 1.224646799147353207E-16 ) ) ;
#186 = EDGE_LOOP ( 'NONE', ( #102, #264, #283, #286 ) ) ;
#187 =( CONVERSION_BASED_UNIT ( 'INCH', #183 ) LENGTH_UNIT ( ) NAMED_UNIT ( #206 ) );
#188 = AXIS2_PLACEMENT_3D ( 'NONE', #243, #126, #198 ) ;
#189 = ORIENTED_EDGE ( 'NONE', *, *, #203, .F. ) ;
#190 = ORIENTED_EDGE ( 'NONE', *, *, #203, .T. ) ;
#191 = DIRECTION ( 'NONE',  ( 0.0000000000000000000, 0.0000000000000000000, 1.000000000000000000 ) ) ;
#192 = ORIENTED_EDGE ( 'NONE', *, *, #295, .T. ) ;
#193 = ADVANCED_BREP_SHAPE_REPRESENTATION ( 'Micro_SFPM-040-50', ( #105, #260 ), #108 ) ;
#194 = CARTESIAN_POINT ( 'NONE',  ( 0.0000000000000000000, 0.0000000000000000000, 0.0000000000000000000 ) ) ;
#195 = ADVANCED_FACE ( 'NONE', ( #26 ), #214, .F. ) ;
#196 = CARTESIAN_POINT ( 'NONE',  ( 0.1181100000000000899, 1.446430334472940009E-17, 0.6961659219688249856 ) ) ;
#197 = ORIENTED_EDGE ( 'NONE', *, *, #246, .T. ) ;
#198 = DIRECTION ( 'NONE',  ( -1.000000000000000000, 0.0000000000000000000, 0.0000000000000000000 ) ) ;
#199 = CARTESIAN_POINT ( 'NONE',  ( 0.0000000000000000000, 0.0000000000000000000, 0.0000000000000000000 ) ) ;
#200 = VECTOR ( 'NONE', #256, 39.37007874015748143 ) ;
#201 = CIRCLE ( 'NONE', #149, 0.07866125999999999674 ) ;
#202 = CARTESIAN_POINT ( 'NONE',  ( 0.0000000000000000000, 0.0000000000000000000, 2.244094000000000033 ) ) ;
#203 = EDGE_CURVE ( 'NONE', #251, #125, #154, .T. ) ;
#204 = DIRECTION ( 'NONE',  ( 1.000000000000000000, 0.0000000000000000000, 0.0000000000000000000 ) ) ;
#205 = AXIS2_PLACEMENT_3D ( 'NONE', #227, #289, #14 ) ;
#206 = DIMENSIONAL_EXPONENTS ( 1.000000000000000000, 0.0000000000000000000, 0.0000000000000000000, 0.0000000000000000000, 0.0000000000000000000, 0.0000000000000000000, 0.0000000000000000000 ) ;
#207 = DIRECTION ( 'NONE',  ( -0.0000000000000000000, -0.0000000000000000000, -1.000000000000000000 ) ) ;
#208 = LINE ( 'NONE', #138, #200 ) ;
#209 = CARTESIAN_POINT ( 'NONE',  ( 0.0000000000000000000, 0.0000000000000000000, 0.0000000000000000000 ) ) ;
#210 = FACE_OUTER_BOUND ( 'NONE', #45, .T. ) ;
#211 = EDGE_CURVE ( 'NONE', #174, #218, #67, .T. ) ;
#212 = VERTEX_POINT ( 'NONE', #77 ) ;
#213 = EDGE_CURVE ( 'NONE', #244, #115, #23, .T. ) ;
#214 = PLANE ( 'NONE',  #230 ) ;
#215 = DIRECTION ( 'NONE',  ( -1.224646799147353207E-16, -0.0000000000000000000, -1.000000000000000000 ) ) ;
#216 = CIRCLE ( 'NONE', #71, 0.1031100000000002570 ) ;
#217 = AXIS2_PLACEMENT_3D ( 'NONE', #118, #32, #151 ) ;
#218 = VERTEX_POINT ( 'NONE', #97 ) ;
#219 = DIRECTION ( 'NONE',  ( 1.224646799147353207E-16, 0.0000000000000000000, 1.000000000000000000 ) ) ;
#220 = ORIENTED_EDGE ( 'NONE', *, *, #184, .F. ) ;
#221 = PRODUCT_DEFINITION ( 'UNKNOWN', '', #134, #298 ) ;
#222 = DIRECTION ( 'NONE',  ( -1.000000000000000000, 0.0000000000000000000, 1.224646799147352961E-16 ) ) ;
#223 = CARTESIAN_POINT ( 'NONE',  ( -0.1181100000000000066, 0.0000000000000000000, 2.244094000000000033 ) ) ;
#224 = CONICAL_SURFACE ( 'NONE', #205, 0.07866125999999996898, 0.1745329251994338360 ) ;
#225 = EDGE_CURVE ( 'NONE', #6, #244, #79, .T. ) ;
#226 = AXIS2_PLACEMENT_3D ( 'NONE', #202, #62, #182 ) ;
#227 = CARTESIAN_POINT ( 'NONE',  ( 5.785733584359747758E-17, 0.0000000000000000000, 0.4724409999999999998 ) ) ;
#228 = ORIENTED_EDGE ( 'NONE', *, *, #213, .T. ) ;
#229 = SHAPE_DEFINITION_REPRESENTATION ( #48, #193 ) ;
#230 = AXIS2_PLACEMENT_3D ( 'NONE', #209, #191, #52 ) ;
#231 = EDGE_CURVE ( 'NONE', #279, #12, #179, .T. ) ;
#232 = DIRECTION ( 'NONE',  ( 1.000000000000000000, 0.0000000000000000000, 0.0000000000000000000 ) ) ;
#233 = CARTESIAN_POINT ( 'NONE',  ( -0.1181099999999999234, 0.0000000000000000000, 0.6961659219688249856 ) ) ;
#234 = AXIS2_PLACEMENT_3D ( 'NONE', #170, #5, #280 ) ;
#235 = LENGTH_MEASURE_WITH_UNIT ( LENGTH_MEASURE( 0.02539999999999999897 ), #114 );
#236 = DIRECTION ( 'NONE',  ( -0.0000000000000000000, -0.0000000000000000000, -1.000000000000000000 ) ) ;
#237 = CYLINDRICAL_SURFACE ( 'NONE', #123, 0.07866125999999996898 ) ;
#238 = DIRECTION ( 'NONE',  ( -1.224646799147353207E-16, -0.0000000000000000000, -1.000000000000000000 ) ) ;
#239 = ORIENTED_EDGE ( 'NONE', *, *, #291, .T. ) ;
#240 = CONICAL_SURFACE ( 'NONE', #188, 0.1031100000000002570, 0.7853981633974318477 ) ;
#241 = SURFACE_STYLE_USAGE ( .BOTH. , #146 ) ;
#242 = FACE_OUTER_BOUND ( 'NONE', #143, .T. ) ;
#243 = CARTESIAN_POINT ( 'NONE',  ( 0.0000000000000000000, 0.0000000000000000000, 2.244094000000000033 ) ) ;
#244 = VERTEX_POINT ( 'NONE', #196 ) ;
#245 = DIRECTION ( 'NONE',  ( 0.7071067811865358044, 8.659560562354788645E-17, -0.7071067811865590080 ) ) ;
#246 = EDGE_CURVE ( 'NONE', #174, #12, #101, .T. ) ;
#247 = CARTESIAN_POINT ( 'NONE',  ( 0.07866125999999996898, 9.633226027589769323E-18, -9.633226027589769323E-18 ) ) ;
#248 = AXIS2_PLACEMENT_3D ( 'NONE', #120, #215, #98 ) ;
#249 = PRODUCT ( 'Micro_SFPM-040-50', 'Micro_SFPM-040-50', '', ( #68 ) ) ;
#250 =( NAMED_UNIT ( * ) SI_UNIT ( $, .STERADIAN. ) SOLID_ANGLE_UNIT ( ) );
#251 = VERTEX_POINT ( 'NONE', #34 ) ;
#252 = AXIS2_PLACEMENT_3D ( 'NONE', #19, #83, #287 ) ;
#253 = EDGE_CURVE ( 'NONE', #212, #6, #85, .T. ) ;
#254 = VECTOR ( 'NONE', #36, 39.37007874015748143 ) ;
#255 = CARTESIAN_POINT ( 'NONE',  ( 8.525573680145875752E-17, 0.0000000000000000000, 0.6961659219688249856 ) ) ;
#256 = DIRECTION ( 'NONE',  ( -1.224646799147353207E-16, -0.0000000000000000000, -1.000000000000000000 ) ) ;
#257 = ADVANCED_FACE ( 'NONE', ( #144 ), #240, .T. ) ;
#258 = CYLINDRICAL_SURFACE ( 'NONE', #41, 0.1181100000000000066 ) ;
#259 = ORIENTED_EDGE ( 'NONE', *, *, #293, .F. ) ;
#260 = AXIS2_PLACEMENT_3D ( 'NONE', #66, #136, #204 ) ;
#261 = FACE_OUTER_BOUND ( 'NONE', #159, .T. ) ;
#262 = ORIENTED_EDGE ( 'NONE', *, *, #13, .T. ) ;
#263 = CARTESIAN_POINT ( 'NONE',  ( 0.07866126000000002449, 0.0000000000000000000, 0.4724409999999999998 ) ) ;
#264 = ORIENTED_EDGE ( 'NONE', *, *, #158, .T. ) ;
#265 = SURFACE_STYLE_FILL_AREA ( #81 ) ;
#266 = ORIENTED_EDGE ( 'NONE', *, *, #61, .T. ) ;
#267 = AXIS2_PLACEMENT_3D ( 'NONE', #64, #219, #150 ) ;
#268 = ORIENTED_EDGE ( 'NONE', *, *, #155, .T. ) ;
#269 = ADVANCED_FACE ( 'NONE', ( #156 ), #272, .T. ) ;
#270 = ADVANCED_FACE ( 'NONE', ( #124 ), #73, .T. ) ;
#271 =( NAMED_UNIT ( * ) PLANE_ANGLE_UNIT ( ) SI_UNIT ( $, .RADIAN. ) );
#272 = CONICAL_SURFACE ( 'NONE', #226, 0.1031100000000002570, 0.7853981633974318477 ) ;
#273 = ORIENTED_EDGE ( 'NONE', *, *, #231, .T. ) ;
#274 = ADVANCED_FACE ( 'NONE', ( #152 ), #224, .T. ) ;
#275 =( NAMED_UNIT ( * ) PLANE_ANGLE_UNIT ( ) SI_UNIT ( $, .RADIAN. ) );
#276 = AXIS2_PLACEMENT_3D ( 'NONE', #109, #181, #129 ) ;
#277 = LINE ( 'NONE', #51, #90 ) ;
#278 = LINE ( 'NONE', #299, #282 ) ;
#279 = VERTEX_POINT ( 'NONE', #40 ) ;
#280 = DIRECTION ( 'NONE',  ( 1.000000000000000000, 0.0000000000000000000, 0.0000000000000000000 ) ) ;
#281 = CARTESIAN_POINT ( 'NONE',  ( 0.0000000000000000000, 0.0000000000000000000, 2.244094000000000033 ) ) ;
#282 = VECTOR ( 'NONE', #25, 39.37007874015747433 ) ;
#283 = ORIENTED_EDGE ( 'NONE', *, *, #176, .T. ) ;
#284 = EDGE_CURVE ( 'NONE', #12, #244, #21, .T. ) ;
#285 = FILL_AREA_STYLE_COLOUR ( '', #157 ) ;
#286 = ORIENTED_EDGE ( 'NONE', *, *, #225, .F. ) ;
#287 = DIRECTION ( 'NONE',  ( -1.000000000000000000, 0.0000000000000000000, 0.0000000000000000000 ) ) ;
#288 = ORIENTED_EDGE ( 'NONE', *, *, #293, .T. ) ;
#289 = DIRECTION ( 'NONE',  ( 1.224646799147353207E-16, 0.0000000000000000000, 1.000000000000000000 ) ) ;
#290 = LINE ( 'NONE', #223, #39 ) ;
#291 = EDGE_CURVE ( 'NONE', #6, #251, #38, .T. ) ;
#292 = APPLICATION_CONTEXT ( 'automotive_design' ) ;
#293 = EDGE_CURVE ( 'NONE', #125, #251, #201, .T. ) ;
#294 = AXIS2_PLACEMENT_3D ( 'NONE', #141, #236, #30 ) ;
#295 = EDGE_CURVE ( 'NONE', #12, #279, #17, .T. ) ;
#296 =( LENGTH_UNIT ( ) NAMED_UNIT ( * ) SI_UNIT ( $, .METRE. ) );
#297 = AXIS2_PLACEMENT_3D ( 'NONE', #72, #1, #232 ) ;
#298 = PRODUCT_DEFINITION_CONTEXT ( 'detailed design', #175, 'design' ) ;
#299 = CARTESIAN_POINT ( 'NONE',  ( -0.07866125999999992735, 9.633226027589769323E-18, 0.4724409999999999998 ) ) ;
ENDSEC;
END-ISO-10303-21;
