ISO-10303-21;
HEADER;
FILE_DESCRIPTION (( 'STEP AP214' ),
    '1' );
FILE_NAME ('83367.STEP',
    '2023-06-30T23:07:33',
    ( '' ),
    ( '' ),
    'SwSTEP 2.0',
    'SolidWorks 2023',
    '' );
FILE_SCHEMA (( 'AUTOMOTIVE_DESIGN' ));
ENDSEC;

DATA;
#1 = ADVANCED_FACE ( 'NONE', ( #164 ), #367, .T. ) ;
#2 = CARTESIAN_POINT ( 'NONE',  ( 0.000000000000000000, 0.000000000000000000, -0.1874999999999999722 ) ) ;
#3 = SPHERICAL_SURFACE ( 'NONE', #259, 0.1875000000000000555 ) ;
#4 = AXIS2_PLACEMENT_3D ( 'NONE', #104, #103, #73 ) ;
#5 =( NAMED_UNIT ( * ) SI_UNIT ( $, .STERADIAN. ) SOLID_ANGLE_UNIT ( ) );
#6 =( CONVERSION_BASED_UNIT ( 'INCH', #70 ) LENGTH_UNIT ( ) NAMED_UNIT ( #271 ) );
#7 = EDGE_CURVE ( 'NONE', #245, #161, #189, .T. ) ;
#8 = UNCERTAINTY_MEASURE_WITH_UNIT (LENGTH_MEASURE( 1.000000000000000082E-05 ), #101, 'distance_accuracy_value', 'NONE');
#9 = CARTESIAN_POINT ( 'NONE',  ( 0.000000000000000000, 0.1875000000000000555, 0.000000000000000000 ) ) ;
#10 = SHAPE_DEFINITION_REPRESENTATION ( #361, #186 ) ;
#11 = MECHANICAL_DESIGN_GEOMETRIC_PRESENTATION_REPRESENTATION (  '', ( #71 ), #22 ) ;
#12 =( LENGTH_UNIT ( ) NAMED_UNIT ( * ) SI_UNIT ( $, .METRE. ) );
#13 = DIRECTION ( 'NONE',  ( 0.000000000000000000, 0.000000000000000000, -1.000000000000000000 ) ) ;
#14 = CARTESIAN_POINT ( 'NONE',  ( -2.296212748401287726E-17, 0.1875000000000000278, 0.000000000000000000 ) ) ;
#15 = PRODUCT_RELATED_PRODUCT_CATEGORY ( 'part', '', ( #181 ) ) ;
#16 = CARTESIAN_POINT ( 'NONE',  ( 0.000000000000000000, 0.7500000000000001110, 0.000000000000000000 ) ) ;
#17 =( CONVERSION_BASED_UNIT ( 'INCH', #175 ) LENGTH_UNIT ( ) NAMED_UNIT ( #150 ) );
#18 = FILL_AREA_STYLE ('',( #254 ) ) ;
#19 = PRESENTATION_STYLE_ASSIGNMENT (( #100 ) ) ;
#20 = SURFACE_STYLE_FILL_AREA ( #48 ) ;
#21 = DIMENSIONAL_EXPONENTS ( 1.000000000000000000, 0.000000000000000000, 0.000000000000000000, 0.000000000000000000, 0.000000000000000000, 0.000000000000000000, 0.000000000000000000 ) ;
#22 =( GEOMETRIC_REPRESENTATION_CONTEXT ( 3 ) GLOBAL_UNCERTAINTY_ASSIGNED_CONTEXT ( ( #160 ) ) GLOBAL_UNIT_ASSIGNED_CONTEXT ( ( #6, #111, #88 ) ) REPRESENTATION_CONTEXT ( 'NONE', 'WORKASPACE' ) );
#23 = FILL_AREA_STYLE ('',( #59 ) ) ;
#24 = CARTESIAN_POINT ( 'NONE',  ( 2.296212748401288034E-17, 0.1875000000000000555, 0.1875000000000000555 ) ) ;
#25 = ORIENTED_EDGE ( 'NONE', *, *, #239, .F. ) ;
#26 = FILL_AREA_STYLE ('',( #65 ) ) ;
#27 = ORIENTED_EDGE ( 'NONE', *, *, #68, .F. ) ;
#28 = ORIENTED_EDGE ( 'NONE', *, *, #133, .T. ) ;
#29 = CARTESIAN_POINT ( 'NONE',  ( 0.000000000000000000, 0.000000000000000000, 0.000000000000000000 ) ) ;
#30 = VECTOR ( 'NONE', #373, 39.37007874015748143 ) ;
#31 = PRESENTATION_LAYER_ASSIGNMENT (  '', '', ( #98 ) ) ;
#32 = ORIENTED_EDGE ( 'NONE', *, *, #252, .T. ) ;
#33 = CARTESIAN_POINT ( 'NONE',  ( 0.1875000000000000555, 0.1875000000000000555, 0.000000000000000000 ) ) ;
#34 = DIRECTION ( 'NONE',  ( -1.236411169696824824E-16, 1.000000000000000000, -0.000000000000000000 ) ) ;
#35 = ORIENTED_EDGE ( 'NONE', *, *, #313, .F. ) ;
#36 =( NAMED_UNIT ( * ) PLANE_ANGLE_UNIT ( ) SI_UNIT ( $, .RADIAN. ) );
#37 = AXIS2_PLACEMENT_3D ( 'NONE', #57, #157, #347 ) ;
#38 = AXIS2_PLACEMENT_3D ( 'NONE', #29, #134, #241 ) ;
#39 = SURFACE_STYLE_USAGE ( .BOTH. , #231 ) ;
#40 = PRESENTATION_STYLE_ASSIGNMENT (( #168 ) ) ;
#41 = DIRECTION ( 'NONE',  ( -1.236411169696824824E-16, 1.000000000000000000, -0.000000000000000000 ) ) ;
#42 =( GEOMETRIC_REPRESENTATION_CONTEXT ( 3 ) GLOBAL_UNCERTAINTY_ASSIGNED_CONTEXT ( ( #117 ) ) GLOBAL_UNIT_ASSIGNED_CONTEXT ( ( #371, #165, #92 ) ) REPRESENTATION_CONTEXT ( 'NONE', 'WORKASPACE' ) );
#43 = CARTESIAN_POINT ( 'NONE',  ( 0.1874999999999999167, 2.500000000000000000, 2.296212748401285260E-17 ) ) ;
#44 = DIRECTION ( 'NONE',  ( -0.000000000000000000, -1.000000000000000000, -0.000000000000000000 ) ) ;
#45 = FILL_AREA_STYLE_COLOUR ( '', #199 ) ;
#46 = DIRECTION ( 'NONE',  ( 0.000000000000000000, 0.000000000000000000, -1.000000000000000000 ) ) ;
#47 = ORIENTED_EDGE ( 'NONE', *, *, #7, .F. ) ;
#48 = FILL_AREA_STYLE ('',( #45 ) ) ;
#49 = FILL_AREA_STYLE ('',( #297 ) ) ;
#50 =( NAMED_UNIT ( * ) PLANE_ANGLE_UNIT ( ) SI_UNIT ( $, .RADIAN. ) );
#51 = ADVANCED_FACE ( 'NONE', ( #118 ), #114, .T. ) ;
#52 = STYLED_ITEM ( 'NONE', ( #126 ), #293 ) ;
#53 = FACE_OUTER_BOUND ( 'NONE', #202, .T. ) ;
#54 = AXIS2_PLACEMENT_3D ( 'NONE', #9, #220, #228 ) ;
#55 =( NAMED_UNIT ( * ) SI_UNIT ( $, .STERADIAN. ) SOLID_ANGLE_UNIT ( ) );
#56 =( NAMED_UNIT ( * ) SI_UNIT ( $, .STERADIAN. ) SOLID_ANGLE_UNIT ( ) );
#57 = CARTESIAN_POINT ( 'NONE',  ( 0.1874999999999999167, 2.500000000000000000, 0.000000000000000000 ) ) ;
#58 = DIMENSIONAL_EXPONENTS ( 1.000000000000000000, 0.000000000000000000, 0.000000000000000000, 0.000000000000000000, 0.000000000000000000, 0.000000000000000000, 0.000000000000000000 ) ;
#59 = FILL_AREA_STYLE_COLOUR ( '', #72 ) ;
#60 = ADVANCED_FACE ( 'NONE', ( #299 ), #345, .T. ) ;
#61 = DIRECTION ( 'NONE',  ( -0.000000000000000000, -1.000000000000000000, -0.000000000000000000 ) ) ;
#62 = EDGE_LOOP ( 'NONE', ( #284, #365, #32, #25, #106 ) ) ;
#63 = DIMENSIONAL_EXPONENTS ( 1.000000000000000000, 0.000000000000000000, 0.000000000000000000, 0.000000000000000000, 0.000000000000000000, 0.000000000000000000, 0.000000000000000000 ) ;
#64 =( NAMED_UNIT ( * ) PLANE_ANGLE_UNIT ( ) SI_UNIT ( $, .RADIAN. ) );
#65 = FILL_AREA_STYLE_COLOUR ( '', #176 ) ;
#66 = EDGE_LOOP ( 'NONE', ( #282, #321, #370, #102 ) ) ;
#67 = VERTEX_POINT ( 'NONE', #229 ) ;
#68 = EDGE_CURVE ( 'NONE', #308, #260, #222, .T. ) ;
#69 = CARTESIAN_POINT ( 'NONE',  ( 2.776042946543121093E-16, 0.7499999999999998890, 0.000000000000000000 ) ) ;
#70 = LENGTH_MEASURE_WITH_UNIT ( LENGTH_MEASURE( 0.02539999999999999897 ), #268 );
#71 = STYLED_ITEM ( 'NONE', ( #40 ), #51 ) ;
#72 = COLOUR_RGB ( '',0.7921568627450980005, 0.8196078431372548767, 0.9333333333333333481 ) ;
#73 = DIRECTION ( 'NONE',  ( -1.000000000000000000, 0.000000000000000000, 0.000000000000000000 ) ) ;
#74 = CIRCLE ( 'NONE', #54, 0.1875000000000000555 ) ;
#75 = CARTESIAN_POINT ( 'NONE',  ( -0.1875000000000000555, 0.1875000000000000555, 2.296212748401287726E-17 ) ) ;
#76 = FILL_AREA_STYLE ('',( #314 ) ) ;
#77 = SURFACE_STYLE_FILL_AREA ( #224 ) ;
#78 = CARTESIAN_POINT ( 'NONE',  ( 0.000000000000000000, 0.7500000000000001110, 0.000000000000000000 ) ) ;
#79 = CARTESIAN_POINT ( 'NONE',  ( 0.000000000000000000, 0.000000000000000000, 0.000000000000000000 ) ) ;
#80 = PRESENTATION_LAYER_ASSIGNMENT (  '', '', ( #52 ) ) ;
#81 = COLOUR_RGB ( '',0.7921568627450980005, 0.8196078431372548767, 0.9333333333333333481 ) ;
#82 = EDGE_LOOP ( 'NONE', ( #125, #139 ) ) ;
#83 = FACE_OUTER_BOUND ( 'NONE', #66, .T. ) ;
#84 = FACE_OUTER_BOUND ( 'NONE', #82, .T. ) ;
#85 = ORIENTED_EDGE ( 'NONE', *, *, #162, .T. ) ;
#86 = PRESENTATION_LAYER_ASSIGNMENT (  '', '', ( #71 ) ) ;
#87 = STYLED_ITEM ( 'NONE', ( #19 ), #195 ) ;
#88 =( NAMED_UNIT ( * ) SI_UNIT ( $, .STERADIAN. ) SOLID_ANGLE_UNIT ( ) );
#89 = CARTESIAN_POINT ( 'NONE',  ( 0.000000000000000000, 0.1875000000000000555, 0.000000000000000000 ) ) ;
#90 = FACE_OUTER_BOUND ( 'NONE', #298, .T. ) ;
#91 = DIRECTION ( 'NONE',  ( -1.000000000000000000, 0.000000000000000000, 0.000000000000000000 ) ) ;
#92 =( NAMED_UNIT ( * ) SI_UNIT ( $, .STERADIAN. ) SOLID_ANGLE_UNIT ( ) );
#93 = CARTESIAN_POINT ( 'NONE',  ( 6.123233995736772199E-17, 2.500000000000000000, 0.000000000000000000 ) ) ;
#94 = PRODUCT_DEFINITION ( 'UNKNOWN', '', #357, #327 ) ;
#95 = ORIENTED_EDGE ( 'NONE', *, *, #133, .F. ) ;
#96 = PRESENTATION_LAYER_ASSIGNMENT (  '', '', ( #246 ) ) ;
#97 = CARTESIAN_POINT ( 'NONE',  ( 0.1874999999999999167, 0.7499999999999998890, 2.296212748401285260E-17 ) ) ;
#98 = STYLED_ITEM ( 'NONE', ( #244 ), #326 ) ;
#99 = CARTESIAN_POINT ( 'NONE',  ( 6.123233995736772199E-17, 2.500000000000000000, 0.000000000000000000 ) ) ;
#100 = SURFACE_STYLE_USAGE ( .BOTH. , #332 ) ;
#101 =( CONVERSION_BASED_UNIT ( 'INCH', #312 ) LENGTH_UNIT ( ) NAMED_UNIT ( #177 ) );
#102 = ORIENTED_EDGE ( 'NONE', *, *, #204, .F. ) ;
#103 = DIRECTION ( 'NONE',  ( -1.236411169696824824E-16, 1.000000000000000000, -0.000000000000000000 ) ) ;
#104 = CARTESIAN_POINT ( 'NONE',  ( 6.123233995736772199E-17, 2.500000000000000000, 0.000000000000000000 ) ) ;
#105 = SURFACE_STYLE_USAGE ( .BOTH. , #341 ) ;
#106 = ORIENTED_EDGE ( 'NONE', *, *, #179, .F. ) ;
#107 = PRESENTATION_STYLE_ASSIGNMENT (( #372 ) ) ;
#108 = DIRECTION ( 'NONE',  ( -1.000000000000000000, 0.000000000000000000, 0.000000000000000000 ) ) ;
#109 = AXIS2_PLACEMENT_3D ( 'NONE', #201, #266, #46 ) ;
#110 = ORIENTED_EDGE ( 'NONE', *, *, #179, .T. ) ;
#111 =( NAMED_UNIT ( * ) PLANE_ANGLE_UNIT ( ) SI_UNIT ( $, .RADIAN. ) );
#112 = DIRECTION ( 'NONE',  ( -1.236411169696824824E-16, 1.000000000000000000, -0.000000000000000000 ) ) ;
#113 = STYLED_ITEM ( 'NONE', ( #270 ), #60 ) ;
#114 = PLANE ( 'NONE',  #212 ) ;
#115 = DIRECTION ( 'NONE',  ( -1.000000000000000000, 0.000000000000000000, 0.000000000000000000 ) ) ;
#116 = CARTESIAN_POINT ( 'NONE',  ( -0.1874999999999996669, 2.500000000000000000, 0.000000000000000000 ) ) ;
#117 = UNCERTAINTY_MEASURE_WITH_UNIT (LENGTH_MEASURE( 1.000000000000000082E-05 ), #371, 'distance_accuracy_value', 'NONE');
#118 = FACE_OUTER_BOUND ( 'NONE', #349, .T. ) ;
#119 = COLOUR_RGB ( '',1.000000000000000000, 0.000000000000000000, 0.000000000000000000 ) ;
#120 = VECTOR ( 'NONE', #140, 39.37007874015748143 ) ;
#121 = ORIENTED_EDGE ( 'NONE', *, *, #272, .F. ) ;
#122 = CARTESIAN_POINT ( 'NONE',  ( -0.1874999999999997780, 2.500000000000000000, 0.000000000000000000 ) ) ;
#123 =( NAMED_UNIT ( * ) PLANE_ANGLE_UNIT ( ) SI_UNIT ( $, .RADIAN. ) );
#124 = DIRECTION ( 'NONE',  ( -1.000000000000000000, 0.000000000000000000, 0.000000000000000000 ) ) ;
#125 = ORIENTED_EDGE ( 'NONE', *, *, #227, .T. ) ;
#126 = PRESENTATION_STYLE_ASSIGNMENT (( #354 ) ) ;
#127 = MECHANICAL_DESIGN_GEOMETRIC_PRESENTATION_REPRESENTATION (  '', ( #113 ), #226 ) ;
#128 = DIRECTION ( 'NONE',  ( 1.224646799147353207E-16, -0.000000000000000000, 1.000000000000000000 ) ) ;
#129 = DIRECTION ( 'NONE',  ( 0.000000000000000000, 0.000000000000000000, 1.000000000000000000 ) ) ;
#130 = VERTEX_POINT ( 'NONE', #43 ) ;
#131 = ORIENTED_EDGE ( 'NONE', *, *, #344, .T. ) ;
#132 = VECTOR ( 'NONE', #41, 39.37007874015748143 ) ;
#133 = EDGE_CURVE ( 'NONE', #258, #309, #167, .T. ) ;
#134 = DIRECTION ( 'NONE',  ( -0.000000000000000000, -1.000000000000000000, -0.000000000000000000 ) ) ;
#135 = UNCERTAINTY_MEASURE_WITH_UNIT (LENGTH_MEASURE( 1.000000000000000082E-05 ), #301, 'distance_accuracy_value', 'NONE');
#136 =( LENGTH_UNIT ( ) NAMED_UNIT ( * ) SI_UNIT ( $, .METRE. ) );
#137 = CARTESIAN_POINT ( 'NONE',  ( -2.296212748401287726E-17, 0.1875000000000000278, 0.000000000000000000 ) ) ;
#138 = EDGE_CURVE ( 'NONE', #309, #258, #319, .T. ) ;
#139 = ORIENTED_EDGE ( 'NONE', *, *, #204, .T. ) ;
#140 = DIRECTION ( 'NONE',  ( -0.000000000000000000, -1.000000000000000000, -0.000000000000000000 ) ) ;
#141 = MECHANICAL_DESIGN_GEOMETRIC_PRESENTATION_REPRESENTATION (  '', ( #52 ), #280 ) ;
#142 = AXIS2_PLACEMENT_3D ( 'NONE', #221, #291, #115 ) ;
#143 = SURFACE_SIDE_STYLE ('',( #174 ) ) ;
#144 = DIRECTION ( 'NONE',  ( -0.000000000000000000, -1.000000000000000000, -0.000000000000000000 ) ) ;
#145 =( NAMED_UNIT ( * ) PLANE_ANGLE_UNIT ( ) SI_UNIT ( $, .RADIAN. ) );
#146 = PRESENTATION_LAYER_ASSIGNMENT (  '', '', ( #366 ) ) ;
#147 = CIRCLE ( 'NONE', #142, 0.1874999999999996392 ) ;
#148 = LINE ( 'NONE', #191, #30 ) ;
#149 = SURFACE_SIDE_STYLE ('',( #20 ) ) ;
#150 = DIMENSIONAL_EXPONENTS ( 1.000000000000000000, 0.000000000000000000, 0.000000000000000000, 0.000000000000000000, 0.000000000000000000, 0.000000000000000000, 0.000000000000000000 ) ;
#151 = APPLICATION_PROTOCOL_DEFINITION ( 'draft international standard', 'automotive_design', 1998, #262 ) ;
#152 = AXIS2_PLACEMENT_3D ( 'NONE', #99, #355, #91 ) ;
#153 = AXIS2_PLACEMENT_3D ( 'NONE', #69, #34, #166 ) ;
#154 = CARTESIAN_POINT ( 'NONE',  ( -2.296212748401287726E-17, 0.1875000000000000278, 0.000000000000000000 ) ) ;
#155 = DIRECTION ( 'NONE',  ( 0.000000000000000000, 1.000000000000000000, 0.000000000000000000 ) ) ;
#156 = SPHERICAL_SURFACE ( 'NONE', #216, 0.1875000000000000555 ) ;
#157 = DIRECTION ( 'NONE',  ( 1.236411169696824824E-16, -1.000000000000000000, 0.000000000000000000 ) ) ;
#158 = AXIS2_PLACEMENT_3D ( 'NONE', #14, #368, #108 ) ;
#159 = DIMENSIONAL_EXPONENTS ( 1.000000000000000000, 0.000000000000000000, 0.000000000000000000, 0.000000000000000000, 0.000000000000000000, 0.000000000000000000, 0.000000000000000000 ) ;
#160 = UNCERTAINTY_MEASURE_WITH_UNIT (LENGTH_MEASURE( 1.000000000000000082E-05 ), #6, 'distance_accuracy_value', 'NONE');
#161 = VERTEX_POINT ( 'NONE', #33 ) ;
#162 = EDGE_CURVE ( 'NONE', #309, #188, #148, .T. ) ;
#163 = ORIENTED_EDGE ( 'NONE', *, *, #255, .F. ) ;
#164 = FACE_OUTER_BOUND ( 'NONE', #351, .T. ) ;
#165 =( NAMED_UNIT ( * ) PLANE_ANGLE_UNIT ( ) SI_UNIT ( $, .RADIAN. ) );
#166 = DIRECTION ( 'NONE',  ( -1.000000000000000000, 0.000000000000000000, 0.000000000000000000 ) ) ;
#167 = CIRCLE ( 'NONE', #296, 0.1874999999999999167 ) ;
#168 = SURFACE_STYLE_USAGE ( .BOTH. , #294 ) ;
#169 = LINE ( 'NONE', #171, #346 ) ;
#170 = LENGTH_MEASURE_WITH_UNIT ( LENGTH_MEASURE( 0.02539999999999999897 ), #12 );
#171 = CARTESIAN_POINT ( 'NONE',  ( 0.1874999999999998057, 2.500000000000000000, 2.296212748401284336E-17 ) ) ;
#172 = PRESENTATION_STYLE_ASSIGNMENT (( #39 ) ) ;
#173 = ADVANCED_FACE ( 'NONE', ( #84 ), #353, .F. ) ;
#174 = SURFACE_STYLE_FILL_AREA ( #49 ) ;
#175 = LENGTH_MEASURE_WITH_UNIT ( LENGTH_MEASURE( 0.02539999999999999897 ), #223 );
#176 = COLOUR_RGB ( '',1.000000000000000000, 0.000000000000000000, 0.000000000000000000 ) ;
#177 = DIMENSIONAL_EXPONENTS ( 1.000000000000000000, 0.000000000000000000, 0.000000000000000000, 0.000000000000000000, 0.000000000000000000, 0.000000000000000000, 0.000000000000000000 ) ;
#178 = DIRECTION ( 'NONE',  ( -1.236411169696824824E-16, 1.000000000000000000, -0.000000000000000000 ) ) ;
#179 = EDGE_CURVE ( 'NONE', #188, #333, #316, .T. ) ;
#180 = UNCERTAINTY_MEASURE_WITH_UNIT (LENGTH_MEASURE( 1.000000000000000082E-05 ), #184, 'distance_accuracy_value', 'NONE');
#181 = PRODUCT ( '83367', '83367', '', ( #225 ) ) ;
#182 = MECHANICAL_DESIGN_GEOMETRIC_PRESENTATION_REPRESENTATION (  '', ( #246 ), #42 ) ;
#183 = ORIENTED_EDGE ( 'NONE', *, *, #344, .F. ) ;
#184 =( CONVERSION_BASED_UNIT ( 'INCH', #289 ) LENGTH_UNIT ( ) NAMED_UNIT ( #21 ) );
#185 = ORIENTED_EDGE ( 'NONE', *, *, #227, .F. ) ;
#186 = ADVANCED_BREP_SHAPE_REPRESENTATION ( '83367', ( #326, #243, #350 ), #194 ) ;
#187 = UNCERTAINTY_MEASURE_WITH_UNIT (LENGTH_MEASURE( 1.000000000000000082E-05 ), #196, 'distance_accuracy_value', 'NONE');
#188 = VERTEX_POINT ( 'NONE', #24 ) ;
#189 = CIRCLE ( 'NONE', #275, 0.1875000000000000555 ) ;
#190 = MECHANICAL_DESIGN_GEOMETRIC_PRESENTATION_REPRESENTATION (  '', ( #366 ), #256 ) ;
#191 = CARTESIAN_POINT ( 'NONE',  ( 2.296212748401286801E-17, 0.000000000000000000, 0.1874999999999999722 ) ) ;
#192 = ORIENTED_EDGE ( 'NONE', *, *, #272, .T. ) ;
#193 = PRESENTATION_LAYER_ASSIGNMENT (  '', '', ( #113 ) ) ;
#194 =( GEOMETRIC_REPRESENTATION_CONTEXT ( 3 ) GLOBAL_UNCERTAINTY_ASSIGNED_CONTEXT ( ( #337 ) ) GLOBAL_UNIT_ASSIGNED_CONTEXT ( ( #17, #50, #250 ) ) REPRESENTATION_CONTEXT ( 'NONE', 'WORKASPACE' ) );
#195 = ADVANCED_FACE ( 'NONE', ( #363 ), #156, .T. ) ;
#196 =( CONVERSION_BASED_UNIT ( 'INCH', #170 ) LENGTH_UNIT ( ) NAMED_UNIT ( #159 ) );
#197 = DIRECTION ( 'NONE',  ( 0.000000000000000000, 0.000000000000000000, -1.000000000000000000 ) ) ;
#198 = ADVANCED_FACE ( 'NONE', ( #234 ), #3, .T. ) ;
#199 = COLOUR_RGB ( '',1.000000000000000000, 0.000000000000000000, 0.000000000000000000 ) ;
#200 = AXIS2_PLACEMENT_3D ( 'NONE', #154, #128, #277 ) ;
#201 = CARTESIAN_POINT ( 'NONE',  ( 0.000000000000000000, 0.000000000000000000, 0.000000000000000000 ) ) ;
#202 = EDGE_LOOP ( 'NONE', ( #28, #85, #183, #47, #305 ) ) ;
#203 = CIRCLE ( 'NONE', #152, 0.1874999999999998335 ) ;
#204 = EDGE_CURVE ( 'NONE', #130, #260, #237, .T. ) ;
#205 = LENGTH_MEASURE_WITH_UNIT ( LENGTH_MEASURE( 0.02539999999999999897 ), #232 );
#206 =( LENGTH_UNIT ( ) NAMED_UNIT ( * ) SI_UNIT ( $, .METRE. ) );
#207 = DIRECTION ( 'NONE',  ( -0.000000000000000000, -1.000000000000000000, -0.000000000000000000 ) ) ;
#208 = CARTESIAN_POINT ( 'NONE',  ( 2.776042946543121093E-16, 0.7500000000000001110, 0.000000000000000000 ) ) ;
#209 = CYLINDRICAL_SURFACE ( 'NONE', #286, 0.1874999999999997502 ) ;
#210 = DIMENSIONAL_EXPONENTS ( 1.000000000000000000, 0.000000000000000000, 0.000000000000000000, 0.000000000000000000, 0.000000000000000000, 0.000000000000000000, 0.000000000000000000 ) ;
#211 = CARTESIAN_POINT ( 'NONE',  ( 0.000000000000000000, 0.1875000000000000555, 0.000000000000000000 ) ) ;
#212 = AXIS2_PLACEMENT_3D ( 'NONE', #16, #155, #276 ) ;
#213 = ORIENTED_EDGE ( 'NONE', *, *, #329, .T. ) ;
#214 = ORIENTED_EDGE ( 'NONE', *, *, #320, .T. ) ;
#215 = CARTESIAN_POINT ( 'NONE',  ( 0.000000000000000000, 0.1875000000000000555, -0.1875000000000000555 ) ) ;
#216 = AXIS2_PLACEMENT_3D ( 'NONE', #230, #129, #323 ) ;
#217 = MECHANICAL_DESIGN_GEOMETRIC_PRESENTATION_REPRESENTATION (  '', ( #98 ), #219 ) ;
#218 = CIRCLE ( 'NONE', #158, 0.1875000000000000555 ) ;
#219 =( GEOMETRIC_REPRESENTATION_CONTEXT ( 3 ) GLOBAL_UNCERTAINTY_ASSIGNED_CONTEXT ( ( #8 ) ) GLOBAL_UNIT_ASSIGNED_CONTEXT ( ( #101, #358, #307 ) ) REPRESENTATION_CONTEXT ( 'NONE', 'WORKASPACE' ) );
#220 = DIRECTION ( 'NONE',  ( -0.000000000000000000, -1.000000000000000000, -0.000000000000000000 ) ) ;
#221 = CARTESIAN_POINT ( 'NONE',  ( 2.776042946543121093E-16, 0.7499999999999998890, 0.000000000000000000 ) ) ;
#222 = LINE ( 'NONE', #116, #132 ) ;
#223 =( LENGTH_UNIT ( ) NAMED_UNIT ( * ) SI_UNIT ( $, .METRE. ) );
#224 = FILL_AREA_STYLE ('',( #317 ) ) ;
#225 = PRODUCT_CONTEXT ( 'NONE', #362, 'mechanical' ) ;
#226 =( GEOMETRIC_REPRESENTATION_CONTEXT ( 3 ) GLOBAL_UNCERTAINTY_ASSIGNED_CONTEXT ( ( #303 ) ) GLOBAL_UNIT_ASSIGNED_CONTEXT ( ( #324, #123, #55 ) ) REPRESENTATION_CONTEXT ( 'NONE', 'WORKASPACE' ) );
#227 = EDGE_CURVE ( 'NONE', #260, #130, #203, .T. ) ;
#228 = DIRECTION ( 'NONE',  ( 0.000000000000000000, 0.000000000000000000, -1.000000000000000000 ) ) ;
#229 = CARTESIAN_POINT ( 'NONE',  ( -1.148106374200643555E-17, -3.414809992080329023E-17, 0.000000000000000000 ) ) ;
#230 = CARTESIAN_POINT ( 'NONE',  ( -2.296212748401287726E-17, 0.1875000000000000278, 0.000000000000000000 ) ) ;
#231 = SURFACE_SIDE_STYLE ('',( #352 ) ) ;
#232 =( LENGTH_UNIT ( ) NAMED_UNIT ( * ) SI_UNIT ( $, .METRE. ) );
#233 = AXIS2_PLACEMENT_3D ( 'NONE', #78, #334, #13 ) ;
#234 = FACE_OUTER_BOUND ( 'NONE', #242, .T. ) ;
#235 = ORIENTED_EDGE ( 'NONE', *, *, #239, .T. ) ;
#236 = SURFACE_STYLE_FILL_AREA ( #26 ) ;
#237 = CIRCLE ( 'NONE', #292, 0.1874999999999998335 ) ;
#238 = CIRCLE ( 'NONE', #153, 0.1874999999999996392 ) ;
#239 = EDGE_CURVE ( 'NONE', #333, #245, #311, .T. ) ;
#240 = EDGE_LOOP ( 'NONE', ( #121, #235, #283, #338 ) ) ;
#241 = DIRECTION ( 'NONE',  ( 0.000000000000000000, 0.000000000000000000, -1.000000000000000000 ) ) ;
#242 = EDGE_LOOP ( 'NONE', ( #110, #192, #163, #131 ) ) ;
#243 = MANIFOLD_SOLID_BREP ( 'Revolve - Tool Body (Straight Shanked)', #315 ) ;
#244 = PRESENTATION_STYLE_ASSIGNMENT (( #105 ) ) ;
#245 = VERTEX_POINT ( 'NONE', #215 ) ;
#246 = STYLED_ITEM ( 'NONE', ( #172 ), #198 ) ;
#247 = CARTESIAN_POINT ( 'NONE',  ( 0.000000000000000000, 0.1875000000000000555, 0.000000000000000000 ) ) ;
#248 = SURFACE_STYLE_USAGE ( .BOTH. , #143 ) ;
#249 = MECHANICAL_DESIGN_GEOMETRIC_PRESENTATION_REPRESENTATION (  '', ( #87 ), #265 ) ;
#250 =( NAMED_UNIT ( * ) SI_UNIT ( $, .STERADIAN. ) SOLID_ANGLE_UNIT ( ) );
#251 = ORIENTED_EDGE ( 'NONE', *, *, #138, .F. ) ;
#252 = EDGE_CURVE ( 'NONE', #258, #245, #264, .T. ) ;
#253 =( LENGTH_UNIT ( ) NAMED_UNIT ( * ) SI_UNIT ( $, .METRE. ) );
#254 = FILL_AREA_STYLE_COLOUR ( '', #279 ) ;
#255 = EDGE_CURVE ( 'NONE', #161, #67, #218, .T. ) ;
#256 =( GEOMETRIC_REPRESENTATION_CONTEXT ( 3 ) GLOBAL_UNCERTAINTY_ASSIGNED_CONTEXT ( ( #180 ) ) GLOBAL_UNIT_ASSIGNED_CONTEXT ( ( #184, #36, #5 ) ) REPRESENTATION_CONTEXT ( 'NONE', 'WORKASPACE' ) );
#257 = SURFACE_STYLE_FILL_AREA ( #23 ) ;
#258 = VERTEX_POINT ( 'NONE', #342 ) ;
#259 = AXIS2_PLACEMENT_3D ( 'NONE', #137, #261, #263 ) ;
#260 = VERTEX_POINT ( 'NONE', #122 ) ;
#261 = DIRECTION ( 'NONE',  ( 0.000000000000000000, 0.000000000000000000, 1.000000000000000000 ) ) ;
#262 = APPLICATION_CONTEXT ( 'automotive_design' ) ;
#263 = DIRECTION ( 'NONE',  ( 1.000000000000000000, 0.000000000000000000, 0.000000000000000000 ) ) ;
#264 = LINE ( 'NONE', #2, #120 ) ;
#265 =( GEOMETRIC_REPRESENTATION_CONTEXT ( 3 ) GLOBAL_UNCERTAINTY_ASSIGNED_CONTEXT ( ( #135 ) ) GLOBAL_UNIT_ASSIGNED_CONTEXT ( ( #301, #145, #56 ) ) REPRESENTATION_CONTEXT ( 'NONE', 'WORKASPACE' ) );
#266 = DIRECTION ( 'NONE',  ( -0.000000000000000000, -1.000000000000000000, -0.000000000000000000 ) ) ;
#267 = DIRECTION ( 'NONE',  ( 0.000000000000000000, 0.000000000000000000, 1.000000000000000000 ) ) ;
#268 =( LENGTH_UNIT ( ) NAMED_UNIT ( * ) SI_UNIT ( $, .METRE. ) );
#269 = DIRECTION ( 'NONE',  ( 0.000000000000000000, 0.000000000000000000, -1.000000000000000000 ) ) ;
#270 = PRESENTATION_STYLE_ASSIGNMENT (( #248 ) ) ;
#271 = DIMENSIONAL_EXPONENTS ( 1.000000000000000000, 0.000000000000000000, 0.000000000000000000, 0.000000000000000000, 0.000000000000000000, 0.000000000000000000, 0.000000000000000000 ) ;
#272 = EDGE_CURVE ( 'NONE', #333, #67, #340, .T. ) ;
#273 = ORIENTED_EDGE ( 'NONE', *, *, #329, .F. ) ;
#274 = LENGTH_MEASURE_WITH_UNIT ( LENGTH_MEASURE( 0.02539999999999999897 ), #253 );
#275 = AXIS2_PLACEMENT_3D ( 'NONE', #247, #144, #197 ) ;
#276 = DIRECTION ( 'NONE',  ( 0.000000000000000000, -0.000000000000000000, 1.000000000000000000 ) ) ;
#277 = DIRECTION ( 'NONE',  ( 1.000000000000000000, 0.000000000000000000, -1.224646799147353207E-16 ) ) ;
#278 = DIRECTION ( 'NONE',  ( 0.000000000000000000, 0.000000000000000000, -1.000000000000000000 ) ) ;
#279 = COLOUR_RGB ( '',1.000000000000000000, 0.000000000000000000, 0.000000000000000000 ) ;
#280 =( GEOMETRIC_REPRESENTATION_CONTEXT ( 3 ) GLOBAL_UNCERTAINTY_ASSIGNED_CONTEXT ( ( #187 ) ) GLOBAL_UNIT_ASSIGNED_CONTEXT ( ( #196, #64, #330 ) ) REPRESENTATION_CONTEXT ( 'NONE', 'WORKASPACE' ) );
#281 = DIRECTION ( 'NONE',  ( 0.000000000000000000, 0.000000000000000000, -1.000000000000000000 ) ) ;
#282 = ORIENTED_EDGE ( 'NONE', *, *, #320, .F. ) ;
#283 = ORIENTED_EDGE ( 'NONE', *, *, #7, .T. ) ;
#284 = ORIENTED_EDGE ( 'NONE', *, *, #162, .F. ) ;
#285 = AXIS2_PLACEMENT_3D ( 'NONE', #89, #207, #278 ) ;
#286 = AXIS2_PLACEMENT_3D ( 'NONE', #93, #178, #124 ) ;
#287 = ADVANCED_FACE ( 'NONE', ( #90 ), #302, .F. ) ;
#288 =( LENGTH_UNIT ( ) NAMED_UNIT ( * ) SI_UNIT ( $, .METRE. ) );
#289 = LENGTH_MEASURE_WITH_UNIT ( LENGTH_MEASURE( 0.02539999999999999897 ), #136 );
#290 = DIRECTION ( 'NONE',  ( -1.236411169696824824E-16, 1.000000000000000000, -0.000000000000000000 ) ) ;
#291 = DIRECTION ( 'NONE',  ( -1.236411169696824824E-16, 1.000000000000000000, -0.000000000000000000 ) ) ;
#292 = AXIS2_PLACEMENT_3D ( 'NONE', #360, #290, #343 ) ;
#293 = ADVANCED_FACE ( 'NONE', ( #53 ), #369, .T. ) ;
#294 = SURFACE_SIDE_STYLE ('',( #77 ) ) ;
#295 = DIRECTION ( 'NONE',  ( 1.000000000000000000, 0.000000000000000000, 0.000000000000000000 ) ) ;
#296 = AXIS2_PLACEMENT_3D ( 'NONE', #318, #44, #269 ) ;
#297 = FILL_AREA_STYLE_COLOUR ( '', #306 ) ;
#298 = EDGE_LOOP ( 'NONE', ( #273, #35 ) ) ;
#299 = FACE_OUTER_BOUND ( 'NONE', #62, .T. ) ;
#300 = DIRECTION ( 'NONE',  ( -1.000000000000000000, -1.236411169696824824E-16, 0.000000000000000000 ) ) ;
#301 =( CONVERSION_BASED_UNIT ( 'INCH', #205 ) LENGTH_UNIT ( ) NAMED_UNIT ( #63 ) );
#302 = PLANE ( 'NONE',  #339 ) ;
#303 = UNCERTAINTY_MEASURE_WITH_UNIT (LENGTH_MEASURE( 1.000000000000000082E-05 ), #324, 'distance_accuracy_value', 'NONE');
#304 = DIRECTION ( 'NONE',  ( -1.236411169696824824E-16, 1.000000000000000000, 0.000000000000000000 ) ) ;
#305 = ORIENTED_EDGE ( 'NONE', *, *, #252, .F. ) ;
#306 = COLOUR_RGB ( '',1.000000000000000000, 0.000000000000000000, 0.000000000000000000 ) ;
#307 =( NAMED_UNIT ( * ) SI_UNIT ( $, .STERADIAN. ) SOLID_ANGLE_UNIT ( ) );
#308 = VERTEX_POINT ( 'NONE', #335 ) ;
#309 = VERTEX_POINT ( 'NONE', #310 ) ;
#310 = CARTESIAN_POINT ( 'NONE',  ( 2.296212748401286493E-17, 0.7500000000000001110, 0.1874999999999999167 ) ) ;
#311 = CIRCLE ( 'NONE', #285, 0.1875000000000000555 ) ;
#312 = LENGTH_MEASURE_WITH_UNIT ( LENGTH_MEASURE( 0.02539999999999999897 ), #288 );
#313 = EDGE_CURVE ( 'NONE', #328, #308, #238, .T. ) ;
#314 = FILL_AREA_STYLE_COLOUR ( '', #81 ) ;
#315 = CLOSED_SHELL ( 'NONE', ( #1, #287, #348, #173 ) ) ;
#316 = CIRCLE ( 'NONE', #356, 0.1875000000000000555 ) ;
#317 = FILL_AREA_STYLE_COLOUR ( '', #119 ) ;
#318 = CARTESIAN_POINT ( 'NONE',  ( 0.000000000000000000, 0.7500000000000001110, 0.000000000000000000 ) ) ;
#319 = CIRCLE ( 'NONE', #233, 0.1874999999999999167 ) ;
#320 = EDGE_CURVE ( 'NONE', #328, #130, #169, .T. ) ;
#321 = ORIENTED_EDGE ( 'NONE', *, *, #313, .T. ) ;
#322 = APPLICATION_PROTOCOL_DEFINITION ( 'draft international standard', 'automotive_design', 1998, #362 ) ;
#323 = DIRECTION ( 'NONE',  ( 1.000000000000000000, 0.000000000000000000, 0.000000000000000000 ) ) ;
#324 =( CONVERSION_BASED_UNIT ( 'INCH', #274 ) LENGTH_UNIT ( ) NAMED_UNIT ( #58 ) );
#325 = CLOSED_SHELL ( 'NONE', ( #198, #293, #51, #60, #195 ) ) ;
#326 = MANIFOLD_SOLID_BREP ( 'Revolve - Cutting Edge', #325 ) ;
#327 = PRODUCT_DEFINITION_CONTEXT ( 'detailed design', #262, 'design' ) ;
#328 = VERTEX_POINT ( 'NONE', #97 ) ;
#329 = EDGE_CURVE ( 'NONE', #308, #328, #147, .T. ) ;
#330 =( NAMED_UNIT ( * ) SI_UNIT ( $, .STERADIAN. ) SOLID_ANGLE_UNIT ( ) );
#331 = PRESENTATION_LAYER_ASSIGNMENT (  '', '', ( #87 ) ) ;
#332 = SURFACE_SIDE_STYLE ('',( #236 ) ) ;
#333 = VERTEX_POINT ( 'NONE', #75 ) ;
#334 = DIRECTION ( 'NONE',  ( -0.000000000000000000, -1.000000000000000000, -0.000000000000000000 ) ) ;
#335 = CARTESIAN_POINT ( 'NONE',  ( -0.1874999999999993616, 0.7499999999999998890, 0.000000000000000000 ) ) ;
#336 = SURFACE_STYLE_FILL_AREA ( #76 ) ;
#337 = UNCERTAINTY_MEASURE_WITH_UNIT (LENGTH_MEASURE( 1.000000000000000082E-05 ), #17, 'distance_accuracy_value', 'NONE');
#338 = ORIENTED_EDGE ( 'NONE', *, *, #255, .T. ) ;
#339 = AXIS2_PLACEMENT_3D ( 'NONE', #208, #304, #300 ) ;
#340 = CIRCLE ( 'NONE', #200, 0.1875000000000000555 ) ;
#341 = SURFACE_SIDE_STYLE ('',( #336 ) ) ;
#342 = CARTESIAN_POINT ( 'NONE',  ( 0.000000000000000000, 0.7500000000000001110, -0.1874999999999999167 ) ) ;
#343 = DIRECTION ( 'NONE',  ( -1.000000000000000000, 0.000000000000000000, 0.000000000000000000 ) ) ;
#344 = EDGE_CURVE ( 'NONE', #161, #188, #74, .T. ) ;
#345 = CYLINDRICAL_SURFACE ( 'NONE', #109, 0.1874999999999999722 ) ;
#346 = VECTOR ( 'NONE', #112, 39.37007874015748143 ) ;
#347 = DIRECTION ( 'NONE',  ( 1.000000000000000000, 1.236411169696824824E-16, 0.000000000000000000 ) ) ;
#348 = ADVANCED_FACE ( 'NONE', ( #83 ), #209, .T. ) ;
#349 = EDGE_LOOP ( 'NONE', ( #95, #251 ) ) ;
#350 = AXIS2_PLACEMENT_3D ( 'NONE', #79, #267, #295 ) ;
#351 = EDGE_LOOP ( 'NONE', ( #213, #214, #185, #27 ) ) ;
#352 = SURFACE_STYLE_FILL_AREA ( #18 ) ;
#353 = PLANE ( 'NONE',  #37 ) ;
#354 = SURFACE_STYLE_USAGE ( .BOTH. , #149 ) ;
#355 = DIRECTION ( 'NONE',  ( -1.236411169696824824E-16, 1.000000000000000000, -0.000000000000000000 ) ) ;
#356 = AXIS2_PLACEMENT_3D ( 'NONE', #211, #61, #281 ) ;
#357 = PRODUCT_DEFINITION_FORMATION_WITH_SPECIFIED_SOURCE ( 'ANY', '', #181, .NOT_KNOWN. ) ;
#358 =( NAMED_UNIT ( * ) PLANE_ANGLE_UNIT ( ) SI_UNIT ( $, .RADIAN. ) );
#359 = SURFACE_SIDE_STYLE ('',( #257 ) ) ;
#360 = CARTESIAN_POINT ( 'NONE',  ( 6.123233995736772199E-17, 2.500000000000000000, 0.000000000000000000 ) ) ;
#361 = PRODUCT_DEFINITION_SHAPE ( 'NONE', 'NONE',  #94 ) ;
#362 = APPLICATION_CONTEXT ( 'automotive_design' ) ;
#363 = FACE_OUTER_BOUND ( 'NONE', #240, .T. ) ;
#364 = LENGTH_MEASURE_WITH_UNIT ( LENGTH_MEASURE( 0.02539999999999999897 ), #206 );
#365 = ORIENTED_EDGE ( 'NONE', *, *, #138, .T. ) ;
#366 = STYLED_ITEM ( 'NONE', ( #107 ), #243 ) ;
#367 = CYLINDRICAL_SURFACE ( 'NONE', #4, 0.1874999999999997502 ) ;
#368 = DIRECTION ( 'NONE',  ( 0.000000000000000000, 0.000000000000000000, -1.000000000000000000 ) ) ;
#369 = CYLINDRICAL_SURFACE ( 'NONE', #38, 0.1874999999999999722 ) ;
#370 = ORIENTED_EDGE ( 'NONE', *, *, #68, .T. ) ;
#371 =( CONVERSION_BASED_UNIT ( 'INCH', #364 ) LENGTH_UNIT ( ) NAMED_UNIT ( #210 ) );
#372 = SURFACE_STYLE_USAGE ( .BOTH. , #359 ) ;
#373 = DIRECTION ( 'NONE',  ( -0.000000000000000000, -1.000000000000000000, -0.000000000000000000 ) ) ;
ENDSEC;
END-ISO-10303-21;
