ISO-10303-21;
HEADER;
FILE_DESCRIPTION (( 'STEP AP214' ),
    '1' );
FILE_NAME ('59529.STEP',
    '2023-07-24T15:09:17',
    ( '' ),
    ( '' ),
    'SwSTEP 2.0',
    'SolidWorks 2023',
    '' );
FILE_SCHEMA (( 'AUTOMOTIVE_DESIGN' ));
ENDSEC;

DATA;
#1 = AXIS2_PLACEMENT_3D ( 'NONE', #73, #272, #105 ) ;
#2 = MECHANICAL_DESIGN_GEOMETRIC_PRESENTATION_REPRESENTATION (  '', ( #209 ), #85 ) ;
#3 = CARTESIAN_POINT ( 'NONE',  ( 8.000000000000000000, 89.00000000000000000, 0.000000000000000000 ) ) ;
#4 = ADVANCED_FACE ( 'NONE', ( #148 ), #235, .T. ) ;
#5 = PRESENTATION_STYLE_ASSIGNMENT (( #191 ) ) ;
#6 = PRESENTATION_LAYER_ASSIGNMENT (  '', '', ( #189 ) ) ;
#7 = ADVANCED_FACE ( 'NONE', ( #329 ), #230, .F. ) ;
#8 = ORIENTED_EDGE ( 'NONE', *, *, #347, .F. ) ;
#9 =( NAMED_UNIT ( * ) PLANE_ANGLE_UNIT ( ) SI_UNIT ( $, .RADIAN. ) );
#10 = EDGE_LOOP ( 'NONE', ( #122, #269, #237, #243 ) ) ;
#11 = COLOUR_RGB ( '',1.000000000000000000, 0.000000000000000000, 0.000000000000000000 ) ;
#12 = CIRCLE ( 'NONE', #318, 8.000000000000001776 ) ;
#13 =( LENGTH_UNIT ( ) NAMED_UNIT ( * ) SI_UNIT ( .MILLI., .METRE. ) );
#14 = PRODUCT_DEFINITION_SHAPE ( 'NONE', 'NONE',  #23 ) ;
#15 = ORIENTED_EDGE ( 'NONE', *, *, #220, .F. ) ;
#16 = FILL_AREA_STYLE_COLOUR ( '', #195 ) ;
#17 = VERTEX_POINT ( 'NONE', #202 ) ;
#18 = CARTESIAN_POINT ( 'NONE',  ( 0.000000000000000000, 0.000000000000000000, -8.000000000000000000 ) ) ;
#19 = DIRECTION ( 'NONE',  ( 0.000000000000000000, 0.000000000000000000, -1.000000000000000000 ) ) ;
#20 = DIRECTION ( 'NONE',  ( 0.000000000000000000, 0.000000000000000000, 1.000000000000000000 ) ) ;
#21 = CIRCLE ( 'NONE', #27, 8.000000000000000000 ) ;
#22 =( GEOMETRIC_REPRESENTATION_CONTEXT ( 3 ) GLOBAL_UNCERTAINTY_ASSIGNED_CONTEXT ( ( #46 ) ) GLOBAL_UNIT_ASSIGNED_CONTEXT ( ( #175, #121, #274 ) ) REPRESENTATION_CONTEXT ( 'NONE', 'WORKASPACE' ) );
#23 = PRODUCT_DEFINITION ( 'UNKNOWN', '', #97, #65 ) ;
#24 = CARTESIAN_POINT ( 'NONE',  ( 0.000000000000000000, 0.5000000000000000000, 0.000000000000000000 ) ) ;
#25 = CARTESIAN_POINT ( 'NONE',  ( 9.797174393178825657E-16, 0.000000000000000000, 8.000000000000000000 ) ) ;
#26 = DIRECTION ( 'NONE',  ( 1.000000000000000000, 0.000000000000000000, -1.224646799147353207E-16 ) ) ;
#27 = AXIS2_PLACEMENT_3D ( 'NONE', #229, #288, #31 ) ;
#28 = DIRECTION ( 'NONE',  ( -1.231212018341879827E-16, 1.000000000000000000, 0.000000000000000000 ) ) ;
#29 = CARTESIAN_POINT ( 'NONE',  ( 0.000000000000000000, 0.000000000000000000, 0.000000000000000000 ) ) ;
#30 = DIRECTION ( 'NONE',  ( -1.224646799147353454E-16, 0.000000000000000000, -1.000000000000000000 ) ) ;
#31 = DIRECTION ( 'NONE',  ( 0.000000000000000000, 0.000000000000000000, -1.000000000000000000 ) ) ;
#32 =( GEOMETRIC_REPRESENTATION_CONTEXT ( 3 ) GLOBAL_UNCERTAINTY_ASSIGNED_CONTEXT ( ( #248 ) ) GLOBAL_UNIT_ASSIGNED_CONTEXT ( ( #265, #211, #119 ) ) REPRESENTATION_CONTEXT ( 'NONE', 'WORKASPACE' ) );
#33 = STYLED_ITEM ( 'NONE', ( #287 ), #252 ) ;
#34 = CIRCLE ( 'NONE', #38, 7.500000000000000000 ) ;
#35 = EDGE_LOOP ( 'NONE', ( #57, #214 ) ) ;
#36 = SURFACE_STYLE_FILL_AREA ( #293 ) ;
#37 = ORIENTED_EDGE ( 'NONE', *, *, #326, .F. ) ;
#38 = AXIS2_PLACEMENT_3D ( 'NONE', #102, #334, #50 ) ;
#39 = UNCERTAINTY_MEASURE_WITH_UNIT (LENGTH_MEASURE( 1.000000000000000082E-05 ), #337, 'distance_accuracy_value', 'NONE');
#40 = PRESENTATION_STYLE_ASSIGNMENT (( #180 ) ) ;
#41 =( LENGTH_UNIT ( ) NAMED_UNIT ( * ) SI_UNIT ( .MILLI., .METRE. ) );
#42 = ORIENTED_EDGE ( 'NONE', *, *, #224, .T. ) ;
#43 = TOROIDAL_SURFACE ( 'NONE', #317, 7.500000000000000000, 0.5000000000000002220 ) ;
#44 = ORIENTED_EDGE ( 'NONE', *, *, #300, .T. ) ;
#45 = SURFACE_STYLE_USAGE ( .BOTH. , #190 ) ;
#46 = UNCERTAINTY_MEASURE_WITH_UNIT (LENGTH_MEASURE( 1.000000000000000082E-05 ), #175, 'distance_accuracy_value', 'NONE');
#47 = DIRECTION ( 'NONE',  ( -1.231212018341879827E-16, 1.000000000000000000, -0.000000000000000000 ) ) ;
#48 = CARTESIAN_POINT ( 'NONE',  ( -1.714505518806293652E-15, 89.00000000000000000, 0.000000000000000000 ) ) ;
#49 =( NAMED_UNIT ( * ) PLANE_ANGLE_UNIT ( ) SI_UNIT ( $, .RADIAN. ) );
#50 = DIRECTION ( 'NONE',  ( 0.000000000000000000, 0.000000000000000000, -1.000000000000000000 ) ) ;
#51 = ADVANCED_FACE ( 'NONE', ( #54 ), #342, .F. ) ;
#52 = PRESENTATION_LAYER_ASSIGNMENT (  '', '', ( #178 ) ) ;
#53 = MECHANICAL_DESIGN_GEOMETRIC_PRESENTATION_REPRESENTATION (  '', ( #125 ), #22 ) ;
#54 = FACE_OUTER_BOUND ( 'NONE', #96, .T. ) ;
#55 = EDGE_CURVE ( 'NONE', #17, #68, #123, .T. ) ;
#56 = DIRECTION ( 'NONE',  ( 0.000000000000000000, 0.000000000000000000, 1.000000000000000000 ) ) ;
#57 = ORIENTED_EDGE ( 'NONE', *, *, #174, .F. ) ;
#58 = DIRECTION ( 'NONE',  ( -0.000000000000000000, -1.000000000000000000, -0.000000000000000000 ) ) ;
#59 = DIRECTION ( 'NONE',  ( 1.231212018341879827E-16, -1.000000000000000000, 0.000000000000000000 ) ) ;
#60 = FILL_AREA_STYLE ('',( #117 ) ) ;
#61 = DIRECTION ( 'NONE',  ( -1.000000000000000000, 0.000000000000000000, 0.000000000000000000 ) ) ;
#62 = DIRECTION ( 'NONE',  ( -0.000000000000000000, -1.000000000000000000, -0.000000000000000000 ) ) ;
#63 = ADVANCED_FACE ( 'NONE', ( #90 ), #43, .T. ) ;
#64 = FILL_AREA_STYLE ('',( #322 ) ) ;
#65 = PRODUCT_DEFINITION_CONTEXT ( 'detailed design', #308, 'design' ) ;
#66 = EDGE_LOOP ( 'NONE', ( #146, #292 ) ) ;
#67 =( NAMED_UNIT ( * ) PLANE_ANGLE_UNIT ( ) SI_UNIT ( $, .RADIAN. ) );
#68 = VERTEX_POINT ( 'NONE', #286 ) ;
#69 = MECHANICAL_DESIGN_GEOMETRIC_PRESENTATION_REPRESENTATION (  '', ( #297 ), #32 ) ;
#70 = FILL_AREA_STYLE ('',( #99 ) ) ;
#71 = ORIENTED_EDGE ( 'NONE', *, *, #353, .F. ) ;
#72 = VERTEX_POINT ( 'NONE', #261 ) ;
#73 = CARTESIAN_POINT ( 'NONE',  ( 0.000000000000000000, 0.000000000000000000, 0.000000000000000000 ) ) ;
#74 = SURFACE_SIDE_STYLE ('',( #183 ) ) ;
#75 = AXIS2_PLACEMENT_3D ( 'NONE', #226, #92, #346 ) ;
#76 = FILL_AREA_STYLE ('',( #16 ) ) ;
#77 =( LENGTH_UNIT ( ) NAMED_UNIT ( * ) SI_UNIT ( .MILLI., .METRE. ) );
#78 = CYLINDRICAL_SURFACE ( 'NONE', #310, 7.999999999999996447 ) ;
#79 = PRODUCT ( '59529', '59529', '', ( #200 ) ) ;
#80 = SURFACE_SIDE_STYLE ('',( #136 ) ) ;
#81 = DIRECTION ( 'NONE',  ( -0.000000000000000000, -1.000000000000000000, -0.000000000000000000 ) ) ;
#82 = MECHANICAL_DESIGN_GEOMETRIC_PRESENTATION_REPRESENTATION (  '', ( #33 ), #257 ) ;
#83 = SURFACE_SIDE_STYLE ('',( #246 ) ) ;
#84 = PRESENTATION_LAYER_ASSIGNMENT (  '', '', ( #33 ) ) ;
#85 =( GEOMETRIC_REPRESENTATION_CONTEXT ( 3 ) GLOBAL_UNCERTAINTY_ASSIGNED_CONTEXT ( ( #39 ) ) GLOBAL_UNIT_ASSIGNED_CONTEXT ( ( #337, #135, #339 ) ) REPRESENTATION_CONTEXT ( 'NONE', 'WORKASPACE' ) );
#86 = PRODUCT_RELATED_PRODUCT_CATEGORY ( 'part', '', ( #79 ) ) ;
#87 = SHAPE_DEFINITION_REPRESENTATION ( #14, #291 ) ;
#88 = AXIS2_PLACEMENT_3D ( 'NONE', #256, #216, #311 ) ;
#89 = AXIS2_PLACEMENT_3D ( 'NONE', #231, #370, #61 ) ;
#90 = FACE_OUTER_BOUND ( 'NONE', #10, .T. ) ;
#91 = DIRECTION ( 'NONE',  ( 0.000000000000000000, -1.000000000000000000, -0.000000000000000000 ) ) ;
#92 = DIRECTION ( 'NONE',  ( -1.231212018341879827E-16, 1.000000000000000000, -0.000000000000000000 ) ) ;
#93 = AXIS2_PLACEMENT_3D ( 'NONE', #29, #91, #262 ) ;
#94 = CARTESIAN_POINT ( 'NONE',  ( 0.000000000000000000, 0.000000000000000000, 0.000000000000000000 ) ) ;
#95 = ORIENTED_EDGE ( 'NONE', *, *, #215, .T. ) ;
#96 = EDGE_LOOP ( 'NONE', ( #212, #218 ) ) ;
#97 = PRODUCT_DEFINITION_FORMATION_WITH_SPECIFIED_SOURCE ( 'ANY', '', #79, .NOT_KNOWN. ) ;
#98 = FILL_AREA_STYLE_COLOUR ( '', #217 ) ;
#99 = FILL_AREA_STYLE_COLOUR ( '', #139 ) ;
#100 = VERTEX_POINT ( 'NONE', #206 ) ;
#101 =( NAMED_UNIT ( * ) SI_UNIT ( $, .STERADIAN. ) SOLID_ANGLE_UNIT ( ) );
#102 = CARTESIAN_POINT ( 'NONE',  ( 0.000000000000000000, 0.000000000000000000, 0.000000000000000000 ) ) ;
#103 = EDGE_LOOP ( 'NONE', ( #176, #296, #270, #127 ) ) ;
#104 = VECTOR ( 'NONE', #221, 1000.000000000000000 ) ;
#105 = DIRECTION ( 'NONE',  ( 0.000000000000000000, 0.000000000000000000, -1.000000000000000000 ) ) ;
#106 = LINE ( 'NONE', #25, #104 ) ;
#107 = DIRECTION ( 'NONE',  ( -1.000000000000000000, 0.000000000000000000, 0.000000000000000000 ) ) ;
#108 =( LENGTH_UNIT ( ) NAMED_UNIT ( * ) SI_UNIT ( .MILLI., .METRE. ) );
#109 = STYLED_ITEM ( 'NONE', ( #356 ), #63 ) ;
#110 = CARTESIAN_POINT ( 'NONE',  ( 8.000000000000000000, 23.99999999999999289, 9.797174393178825657E-16 ) ) ;
#111 = VERTEX_POINT ( 'NONE', #323 ) ;
#112 = CARTESIAN_POINT ( 'NONE',  ( 0.000000000000000000, 24.00000000000000000, -8.000000000000000000 ) ) ;
#113 =( NAMED_UNIT ( * ) SI_UNIT ( $, .STERADIAN. ) SOLID_ANGLE_UNIT ( ) );
#114 = EDGE_CURVE ( 'NONE', #360, #68, #170, .T. ) ;
#115 = CIRCLE ( 'NONE', #263, 8.000000000000000000 ) ;
#116 = CYLINDRICAL_SURFACE ( 'NONE', #89, 7.999999999999996447 ) ;
#117 = FILL_AREA_STYLE_COLOUR ( '', #354 ) ;
#118 = SURFACE_SIDE_STYLE ('',( #154 ) ) ;
#119 =( NAMED_UNIT ( * ) SI_UNIT ( $, .STERADIAN. ) SOLID_ANGLE_UNIT ( ) );
#120 = PRESENTATION_LAYER_ASSIGNMENT (  '', '', ( #109 ) ) ;
#121 =( NAMED_UNIT ( * ) PLANE_ANGLE_UNIT ( ) SI_UNIT ( $, .RADIAN. ) );
#122 = ORIENTED_EDGE ( 'NONE', *, *, #220, .T. ) ;
#123 = CIRCLE ( 'NONE', #366, 8.000000000000001776 ) ;
#124 = VERTEX_POINT ( 'NONE', #167 ) ;
#125 = STYLED_ITEM ( 'NONE', ( #5 ), #321 ) ;
#126 = CIRCLE ( 'NONE', #290, 8.000000000000000000 ) ;
#127 = ORIENTED_EDGE ( 'NONE', *, *, #319, .F. ) ;
#128 = DIRECTION ( 'NONE',  ( -0.000000000000000000, -1.000000000000000000, -0.000000000000000000 ) ) ;
#129 = FACE_OUTER_BOUND ( 'NONE', #35, .T. ) ;
#130 = MECHANICAL_DESIGN_GEOMETRIC_PRESENTATION_REPRESENTATION (  '', ( #208 ), #253 ) ;
#131 = CARTESIAN_POINT ( 'NONE',  ( -7.999999999999998224, 89.00000000000000000, 0.000000000000000000 ) ) ;
#132 = PRESENTATION_STYLE_ASSIGNMENT (( #358 ) ) ;
#133 = FILL_AREA_STYLE ('',( #157 ) ) ;
#134 = DIRECTION ( 'NONE',  ( 0.000000000000000000, 0.000000000000000000, -1.000000000000000000 ) ) ;
#135 =( NAMED_UNIT ( * ) PLANE_ANGLE_UNIT ( ) SI_UNIT ( $, .RADIAN. ) );
#136 = SURFACE_STYLE_FILL_AREA ( #133 ) ;
#137 = FACE_OUTER_BOUND ( 'NONE', #271, .T. ) ;
#138 = DIRECTION ( 'NONE',  ( 0.000000000000000000, 0.000000000000000000, -1.000000000000000000 ) ) ;
#139 = COLOUR_RGB ( '',1.000000000000000000, 0.000000000000000000, 0.000000000000000000 ) ;
#140 = AXIS2_PLACEMENT_3D ( 'NONE', #258, #58, #138 ) ;
#141 = PRESENTATION_LAYER_ASSIGNMENT (  '', '', ( #209 ) ) ;
#142 = SURFACE_SIDE_STYLE ('',( #36 ) ) ;
#143 =( NAMED_UNIT ( * ) SI_UNIT ( $, .STERADIAN. ) SOLID_ANGLE_UNIT ( ) );
#144 = FILL_AREA_STYLE ('',( #351 ) ) ;
#145 =( GEOMETRIC_REPRESENTATION_CONTEXT ( 3 ) GLOBAL_UNCERTAINTY_ASSIGNED_CONTEXT ( ( #150 ) ) GLOBAL_UNIT_ASSIGNED_CONTEXT ( ( #77, #9, #210 ) ) REPRESENTATION_CONTEXT ( 'NONE', 'WORKASPACE' ) );
#146 = ORIENTED_EDGE ( 'NONE', *, *, #359, .T. ) ;
#147 = EDGE_CURVE ( 'NONE', #111, #181, #185, .T. ) ;
#148 = FACE_OUTER_BOUND ( 'NONE', #103, .T. ) ;
#149 = VECTOR ( 'NONE', #276, 1000.000000000000000 ) ;
#150 = UNCERTAINTY_MEASURE_WITH_UNIT (LENGTH_MEASURE( 1.000000000000000082E-05 ), #77, 'distance_accuracy_value', 'NONE');
#151 = LINE ( 'NONE', #131, #149 ) ;
#152 = DIRECTION ( 'NONE',  ( -1.000000000000000000, 0.000000000000000000, 0.000000000000000000 ) ) ;
#153 =( LENGTH_UNIT ( ) NAMED_UNIT ( * ) SI_UNIT ( .MILLI., .METRE. ) );
#154 = SURFACE_STYLE_FILL_AREA ( #144 ) ;
#155 = DIRECTION ( 'NONE',  ( -1.000000000000000000, 0.000000000000000000, 0.000000000000000000 ) ) ;
#156 = CIRCLE ( 'NONE', #254, 0.5000000000000004441 ) ;
#157 = FILL_AREA_STYLE_COLOUR ( '', #242 ) ;
#158 = DIRECTION ( 'NONE',  ( -0.000000000000000000, -1.000000000000000000, -0.000000000000000000 ) ) ;
#159 = DIRECTION ( 'NONE',  ( -1.000000000000000000, 0.000000000000000000, 0.000000000000000000 ) ) ;
#160 = DIRECTION ( 'NONE',  ( 0.000000000000000000, 0.000000000000000000, -1.000000000000000000 ) ) ;
#161 = PLANE ( 'NONE',  #93 ) ;
#162 = MECHANICAL_DESIGN_GEOMETRIC_PRESENTATION_REPRESENTATION (  '', ( #109 ), #277 ) ;
#163 = APPLICATION_PROTOCOL_DEFINITION ( 'draft international standard', 'automotive_design', 1998, #308 ) ;
#164 = EDGE_CURVE ( 'NONE', #111, #124, #331, .T. ) ;
#165 = AXIS2_PLACEMENT_3D ( 'NONE', #282, #26, #30 ) ;
#166 = ORIENTED_EDGE ( 'NONE', *, *, #114, .F. ) ;
#167 = CARTESIAN_POINT ( 'NONE',  ( 0.000000000000000000, 0.5000000000000000000, -8.000000000000000000 ) ) ;
#168 = DIRECTION ( 'NONE',  ( 1.000000000000000000, 1.231212018341879827E-16, 0.000000000000000000 ) ) ;
#169 = SURFACE_SIDE_STYLE ('',( #199 ) ) ;
#170 = LINE ( 'NONE', #369, #335 ) ;
#171 = DIRECTION ( 'NONE',  ( -1.000000000000000000, 0.000000000000000000, 0.000000000000000000 ) ) ;
#172 = AXIS2_PLACEMENT_3D ( 'NONE', #193, #81, #348 ) ;
#173 =( GEOMETRIC_REPRESENTATION_CONTEXT ( 3 ) GLOBAL_UNCERTAINTY_ASSIGNED_CONTEXT ( ( #275 ) ) GLOBAL_UNIT_ASSIGNED_CONTEXT ( ( #13, #307, #101 ) ) REPRESENTATION_CONTEXT ( 'NONE', 'WORKASPACE' ) );
#174 = EDGE_CURVE ( 'NONE', #299, #100, #21, .T. ) ;
#175 =( LENGTH_UNIT ( ) NAMED_UNIT ( * ) SI_UNIT ( .MILLI., .METRE. ) );
#176 = ORIENTED_EDGE ( 'NONE', *, *, #147, .F. ) ;
#177 = ADVANCED_FACE ( 'NONE', ( #328 ), #236, .T. ) ;
#178 = STYLED_ITEM ( 'NONE', ( #132 ), #177 ) ;
#179 = AXIS2_PLACEMENT_3D ( 'NONE', #94, #247, #349 ) ;
#180 = SURFACE_STYLE_USAGE ( .BOTH. , #74 ) ;
#181 = VERTEX_POINT ( 'NONE', #184 ) ;
#182 = UNCERTAINTY_MEASURE_WITH_UNIT (LENGTH_MEASURE( 1.000000000000000082E-05 ), #233, 'distance_accuracy_value', 'NONE');
#183 = SURFACE_STYLE_FILL_AREA ( #70 ) ;
#184 = CARTESIAN_POINT ( 'NONE',  ( 9.491012693391985815E-16, 0.000000000000000000, 7.500000000000000000 ) ) ;
#185 = CIRCLE ( 'NONE', #165, 0.5000000000000004441 ) ;
#186 = ORIENTED_EDGE ( 'NONE', *, *, #326, .T. ) ;
#187 = CARTESIAN_POINT ( 'NONE',  ( 6.288372600415925717E-15, 23.99999999999999289, 0.000000000000000000 ) ) ;
#188 = ADVANCED_FACE ( 'NONE', ( #129 ), #197, .T. ) ;
#189 = STYLED_ITEM ( 'NONE', ( #234 ), #314 ) ;
#190 = SURFACE_SIDE_STYLE ('',( #250 ) ) ;
#191 = SURFACE_STYLE_USAGE ( .BOTH. , #142 ) ;
#192 = CARTESIAN_POINT ( 'NONE',  ( -1.714505518806293849E-15, 89.00000000000000000, 0.000000000000000000 ) ) ;
#193 = CARTESIAN_POINT ( 'NONE',  ( 0.000000000000000000, 0.5000000000000000000, 0.000000000000000000 ) ) ;
#194 = DIRECTION ( 'NONE',  ( -1.231212018341879827E-16, 1.000000000000000000, -0.000000000000000000 ) ) ;
#195 = COLOUR_RGB ( '',1.000000000000000000, 0.000000000000000000, 0.000000000000000000 ) ;
#196 = COLOUR_RGB ( '',1.000000000000000000, 0.000000000000000000, 0.000000000000000000 ) ;
#197 = PLANE ( 'NONE',  #88 ) ;
#198 = APPLICATION_PROTOCOL_DEFINITION ( 'draft international standard', 'automotive_design', 1998, #201 ) ;
#199 = SURFACE_STYLE_FILL_AREA ( #60 ) ;
#200 = PRODUCT_CONTEXT ( 'NONE', #201, 'mechanical' ) ;
#201 = APPLICATION_CONTEXT ( 'automotive_design' ) ;
#202 = CARTESIAN_POINT ( 'NONE',  ( -8.000000000000003553, 89.00000000000000000, 0.000000000000000000 ) ) ;
#203 = ORIENTED_EDGE ( 'NONE', *, *, #174, .T. ) ;
#204 = CARTESIAN_POINT ( 'NONE',  ( 0.000000000000000000, 24.00000000000000000, 0.000000000000000000 ) ) ;
#205 = FACE_OUTER_BOUND ( 'NONE', #352, .T. ) ;
#206 = CARTESIAN_POINT ( 'NONE',  ( 9.797174393178825657E-16, 24.00000000000000000, 8.000000000000000000 ) ) ;
#207 = DIRECTION ( 'NONE',  ( -1.000000000000000000, -1.231212018341879827E-16, 0.000000000000000000 ) ) ;
#208 = STYLED_ITEM ( 'NONE', ( #362 ), #188 ) ;
#209 = STYLED_ITEM ( 'NONE', ( #255 ), #327 ) ;
#210 =( NAMED_UNIT ( * ) SI_UNIT ( $, .STERADIAN. ) SOLID_ANGLE_UNIT ( ) );
#211 =( NAMED_UNIT ( * ) PLANE_ANGLE_UNIT ( ) SI_UNIT ( $, .RADIAN. ) );
#212 = ORIENTED_EDGE ( 'NONE', *, *, #55, .T. ) ;
#213 = COLOUR_RGB ( '',0.7921568627450980005, 0.8196078431372548767, 0.9333333333333333481 ) ;
#214 = ORIENTED_EDGE ( 'NONE', *, *, #300, .F. ) ;
#215 = EDGE_CURVE ( 'NONE', #360, #72, #228, .T. ) ;
#216 = DIRECTION ( 'NONE',  ( 0.000000000000000000, 1.000000000000000000, 0.000000000000000000 ) ) ;
#217 = COLOUR_RGB ( '',1.000000000000000000, 0.000000000000000000, 0.000000000000000000 ) ;
#218 = ORIENTED_EDGE ( 'NONE', *, *, #347, .T. ) ;
#219 =( NAMED_UNIT ( * ) SI_UNIT ( $, .STERADIAN. ) SOLID_ANGLE_UNIT ( ) );
#220 = EDGE_CURVE ( 'NONE', #124, #111, #115, .T. ) ;
#221 = DIRECTION ( 'NONE',  ( -0.000000000000000000, -1.000000000000000000, -0.000000000000000000 ) ) ;
#222 = DIRECTION ( 'NONE',  ( 1.000000000000000000, 0.000000000000000000, 0.000000000000000000 ) ) ;
#223 = EDGE_LOOP ( 'NONE', ( #225, #305, #355, #71 ) ) ;
#224 = EDGE_CURVE ( 'NONE', #299, #124, #306, .T. ) ;
#225 = ORIENTED_EDGE ( 'NONE', *, *, #285, .T. ) ;
#226 = CARTESIAN_POINT ( 'NONE',  ( 6.288372600415925717E-15, 23.99999999999999289, 0.000000000000000000 ) ) ;
#227 = PRESENTATION_LAYER_ASSIGNMENT (  '', '', ( #297 ) ) ;
#228 = CIRCLE ( 'NONE', #298, 7.999999999999992895 ) ;
#229 = CARTESIAN_POINT ( 'NONE',  ( 0.000000000000000000, 24.00000000000000000, 0.000000000000000000 ) ) ;
#230 = PLANE ( 'NONE',  #283 ) ;
#231 = CARTESIAN_POINT ( 'NONE',  ( -1.714505518806293849E-15, 89.00000000000000000, 0.000000000000000000 ) ) ;
#232 = ADVANCED_FACE ( 'NONE', ( #365 ), #78, .T. ) ;
#233 =( LENGTH_UNIT ( ) NAMED_UNIT ( * ) SI_UNIT ( .MILLI., .METRE. ) );
#234 = PRESENTATION_STYLE_ASSIGNMENT (( #268 ) ) ;
#235 = TOROIDAL_SURFACE ( 'NONE', #172, 7.500000000000000000, 0.5000000000000002220 ) ;
#236 = CYLINDRICAL_SURFACE ( 'NONE', #1, 8.000000000000000000 ) ;
#237 = ORIENTED_EDGE ( 'NONE', *, *, #359, .F. ) ;
#238 = ORIENTED_EDGE ( 'NONE', *, *, #164, .F. ) ;
#239 = AXIS2_PLACEMENT_3D ( 'NONE', #3, #59, #168 ) ;
#240 = MECHANICAL_DESIGN_GEOMETRIC_PRESENTATION_REPRESENTATION (  '', ( #178 ), #173 ) ;
#241 = UNCERTAINTY_MEASURE_WITH_UNIT (LENGTH_MEASURE( 1.000000000000000082E-05 ), #153, 'distance_accuracy_value', 'NONE');
#242 = COLOUR_RGB ( '',0.7921568627450980005, 0.8196078431372548767, 0.9333333333333333481 ) ;
#243 = ORIENTED_EDGE ( 'NONE', *, *, #330, .F. ) ;
#244 = SURFACE_STYLE_USAGE ( .BOTH. , #302 ) ;
#245 = ORIENTED_EDGE ( 'NONE', *, *, #224, .F. ) ;
#246 = SURFACE_STYLE_FILL_AREA ( #350 ) ;
#247 = DIRECTION ( 'NONE',  ( -0.000000000000000000, -1.000000000000000000, -0.000000000000000000 ) ) ;
#248 = UNCERTAINTY_MEASURE_WITH_UNIT (LENGTH_MEASURE( 1.000000000000000082E-05 ), #265, 'distance_accuracy_value', 'NONE');
#249 = ORIENTED_EDGE ( 'NONE', *, *, #353, .T. ) ;
#250 = SURFACE_STYLE_FILL_AREA ( #76 ) ;
#251 = CLOSED_SHELL ( 'NONE', ( #177, #63, #252, #4, #314, #188 ) ) ;
#252 = ADVANCED_FACE ( 'NONE', ( #338 ), #161, .T. ) ;
#253 =( GEOMETRIC_REPRESENTATION_CONTEXT ( 3 ) GLOBAL_UNCERTAINTY_ASSIGNED_CONTEXT ( ( #241 ) ) GLOBAL_UNIT_ASSIGNED_CONTEXT ( ( #153, #49, #219 ) ) REPRESENTATION_CONTEXT ( 'NONE', 'WORKASPACE' ) );
#254 = AXIS2_PLACEMENT_3D ( 'NONE', #312, #159, #20 ) ;
#255 = PRESENTATION_STYLE_ASSIGNMENT (( #364 ) ) ;
#256 = CARTESIAN_POINT ( 'NONE',  ( 0.000000000000000000, 24.00000000000000000, 0.000000000000000000 ) ) ;
#257 =( GEOMETRIC_REPRESENTATION_CONTEXT ( 3 ) GLOBAL_UNCERTAINTY_ASSIGNED_CONTEXT ( ( #182 ) ) GLOBAL_UNIT_ASSIGNED_CONTEXT ( ( #233, #260, #113 ) ) REPRESENTATION_CONTEXT ( 'NONE', 'WORKASPACE' ) );
#258 = CARTESIAN_POINT ( 'NONE',  ( 0.000000000000000000, 0.5000000000000000000, 0.000000000000000000 ) ) ;
#259 = CARTESIAN_POINT ( 'NONE',  ( -1.714505518806293652E-15, 89.00000000000000000, 0.000000000000000000 ) ) ;
#260 =( NAMED_UNIT ( * ) PLANE_ANGLE_UNIT ( ) SI_UNIT ( $, .RADIAN. ) );
#261 = CARTESIAN_POINT ( 'NONE',  ( -7.999999999999986677, 23.99999999999999289, 0.000000000000000000 ) ) ;
#262 = DIRECTION ( 'NONE',  ( 0.000000000000000000, 0.000000000000000000, -1.000000000000000000 ) ) ;
#263 = AXIS2_PLACEMENT_3D ( 'NONE', #24, #273, #134 ) ;
#264 = AXIS2_PLACEMENT_3D ( 'NONE', #279, #158, #19 ) ;
#265 =( LENGTH_UNIT ( ) NAMED_UNIT ( * ) SI_UNIT ( .MILLI., .METRE. ) );
#266 = MECHANICAL_DESIGN_GEOMETRIC_PRESENTATION_REPRESENTATION (  '', ( #189 ), #145 ) ;
#267 = FILL_AREA_STYLE_COLOUR ( '', #213 ) ;
#268 = SURFACE_STYLE_USAGE ( .BOTH. , #118 ) ;
#269 = ORIENTED_EDGE ( 'NONE', *, *, #147, .T. ) ;
#270 = ORIENTED_EDGE ( 'NONE', *, *, #330, .T. ) ;
#271 = EDGE_LOOP ( 'NONE', ( #166, #95, #249, #8 ) ) ;
#272 = DIRECTION ( 'NONE',  ( -0.000000000000000000, -1.000000000000000000, -0.000000000000000000 ) ) ;
#273 = DIRECTION ( 'NONE',  ( -0.000000000000000000, -1.000000000000000000, -0.000000000000000000 ) ) ;
#274 =( NAMED_UNIT ( * ) SI_UNIT ( $, .STERADIAN. ) SOLID_ANGLE_UNIT ( ) );
#275 = UNCERTAINTY_MEASURE_WITH_UNIT (LENGTH_MEASURE( 1.000000000000000082E-05 ), #13, 'distance_accuracy_value', 'NONE');
#276 = DIRECTION ( 'NONE',  ( -1.231212018341879827E-16, 1.000000000000000000, -0.000000000000000000 ) ) ;
#277 =( GEOMETRIC_REPRESENTATION_CONTEXT ( 3 ) GLOBAL_UNCERTAINTY_ASSIGNED_CONTEXT ( ( #336 ) ) GLOBAL_UNIT_ASSIGNED_CONTEXT ( ( #41, #67, #143 ) ) REPRESENTATION_CONTEXT ( 'NONE', 'WORKASPACE' ) );
#278 = AXIS2_PLACEMENT_3D ( 'NONE', #315, #56, #222 ) ;
#279 = CARTESIAN_POINT ( 'NONE',  ( 0.000000000000000000, 0.000000000000000000, 0.000000000000000000 ) ) ;
#280 = CARTESIAN_POINT ( 'NONE',  ( 0.000000000000000000, 0.000000000000000000, -7.500000000000000000 ) ) ;
#281 =( NAMED_UNIT ( * ) PLANE_ANGLE_UNIT ( ) SI_UNIT ( $, .RADIAN. ) );
#282 = CARTESIAN_POINT ( 'NONE',  ( 9.184850993605147944E-16, 0.5000000000000000000, 7.500000000000000000 ) ) ;
#283 = AXIS2_PLACEMENT_3D ( 'NONE', #320, #28, #207 ) ;
#284 = SURFACE_STYLE_USAGE ( .BOTH. , #169 ) ;
#285 = EDGE_CURVE ( 'NONE', #72, #360, #304, .T. ) ;
#286 = CARTESIAN_POINT ( 'NONE',  ( 8.000000000000000000, 89.00000000000000000, 9.797174393178825657E-16 ) ) ;
#287 = PRESENTATION_STYLE_ASSIGNMENT (( #284 ) ) ;
#288 = DIRECTION ( 'NONE',  ( -0.000000000000000000, -1.000000000000000000, -0.000000000000000000 ) ) ;
#289 = SURFACE_STYLE_FILL_AREA ( #64 ) ;
#290 = AXIS2_PLACEMENT_3D ( 'NONE', #204, #343, #345 ) ;
#291 = ADVANCED_BREP_SHAPE_REPRESENTATION ( '59529', ( #327, #321, #278 ), #363 ) ;
#292 = ORIENTED_EDGE ( 'NONE', *, *, #319, .T. ) ;
#293 = FILL_AREA_STYLE ('',( #267 ) ) ;
#294 = ADVANCED_FACE ( 'NONE', ( #137 ), #116, .T. ) ;
#295 = UNCERTAINTY_MEASURE_WITH_UNIT (LENGTH_MEASURE( 1.000000000000000082E-05 ), #108, 'distance_accuracy_value', 'NONE');
#296 = ORIENTED_EDGE ( 'NONE', *, *, #164, .T. ) ;
#297 = STYLED_ITEM ( 'NONE', ( #40 ), #4 ) ;
#298 = AXIS2_PLACEMENT_3D ( 'NONE', #187, #194, #155 ) ;
#299 = VERTEX_POINT ( 'NONE', #112 ) ;
#300 = EDGE_CURVE ( 'NONE', #100, #299, #126, .T. ) ;
#301 = EDGE_LOOP ( 'NONE', ( #357, #333 ) ) ;
#302 = SURFACE_SIDE_STYLE ('',( #289 ) ) ;
#303 =( NAMED_UNIT ( * ) SI_UNIT ( $, .STERADIAN. ) SOLID_ANGLE_UNIT ( ) );
#304 = CIRCLE ( 'NONE', #75, 7.999999999999992895 ) ;
#305 = ORIENTED_EDGE ( 'NONE', *, *, #114, .T. ) ;
#306 = LINE ( 'NONE', #18, #340 ) ;
#307 =( NAMED_UNIT ( * ) PLANE_ANGLE_UNIT ( ) SI_UNIT ( $, .RADIAN. ) );
#308 = APPLICATION_CONTEXT ( 'automotive_design' ) ;
#309 = CLOSED_SHELL ( 'NONE', ( #232, #7, #294, #51 ) ) ;
#310 = AXIS2_PLACEMENT_3D ( 'NONE', #192, #47, #107 ) ;
#311 = DIRECTION ( 'NONE',  ( 0.000000000000000000, -0.000000000000000000, 1.000000000000000000 ) ) ;
#312 = CARTESIAN_POINT ( 'NONE',  ( 0.000000000000000000, 0.5000000000000000000, -7.500000000000000000 ) ) ;
#313 = CARTESIAN_POINT ( 'NONE',  ( 0.000000000000000000, 0.5000000000000000000, 0.000000000000000000 ) ) ;
#314 = ADVANCED_FACE ( 'NONE', ( #205 ), #325, .T. ) ;
#315 = CARTESIAN_POINT ( 'NONE',  ( 0.000000000000000000, 0.000000000000000000, 0.000000000000000000 ) ) ;
#316 = DIRECTION ( 'NONE',  ( -1.231212018341879827E-16, 1.000000000000000000, -0.000000000000000000 ) ) ;
#317 = AXIS2_PLACEMENT_3D ( 'NONE', #313, #62, #160 ) ;
#318 = AXIS2_PLACEMENT_3D ( 'NONE', #48, #361, #152 ) ;
#319 = EDGE_CURVE ( 'NONE', #181, #324, #34, .T. ) ;
#320 = CARTESIAN_POINT ( 'NONE',  ( 6.288372600415925717E-15, 24.00000000000000000, 0.000000000000000000 ) ) ;
#321 = MANIFOLD_SOLID_BREP ( 'Revolve - Tool Body (Straight Shanked)', #309 ) ;
#322 = FILL_AREA_STYLE_COLOUR ( '', #11 ) ;
#323 = CARTESIAN_POINT ( 'NONE',  ( 9.797174393178825657E-16, 0.5000000000000000000, 8.000000000000000000 ) ) ;
#324 = VERTEX_POINT ( 'NONE', #280 ) ;
#325 = CYLINDRICAL_SURFACE ( 'NONE', #179, 8.000000000000000000 ) ;
#326 = EDGE_CURVE ( 'NONE', #100, #111, #106, .T. ) ;
#327 = MANIFOLD_SOLID_BREP ( 'Revolve - Cutting Edge', #251 ) ;
#328 = FACE_OUTER_BOUND ( 'NONE', #332, .T. ) ;
#329 = FACE_OUTER_BOUND ( 'NONE', #301, .T. ) ;
#330 = EDGE_CURVE ( 'NONE', #124, #324, #156, .T. ) ;
#331 = CIRCLE ( 'NONE', #140, 8.000000000000000000 ) ;
#332 = EDGE_LOOP ( 'NONE', ( #203, #186, #15, #245 ) ) ;
#333 = ORIENTED_EDGE ( 'NONE', *, *, #215, .F. ) ;
#334 = DIRECTION ( 'NONE',  ( -0.000000000000000000, -1.000000000000000000, -0.000000000000000000 ) ) ;
#335 = VECTOR ( 'NONE', #316, 1000.000000000000000 ) ;
#336 = UNCERTAINTY_MEASURE_WITH_UNIT (LENGTH_MEASURE( 1.000000000000000082E-05 ), #41, 'distance_accuracy_value', 'NONE');
#337 =( LENGTH_UNIT ( ) NAMED_UNIT ( * ) SI_UNIT ( .MILLI., .METRE. ) );
#338 = FACE_OUTER_BOUND ( 'NONE', #66, .T. ) ;
#339 =( NAMED_UNIT ( * ) SI_UNIT ( $, .STERADIAN. ) SOLID_ANGLE_UNIT ( ) );
#340 = VECTOR ( 'NONE', #128, 1000.000000000000000 ) ;
#341 = PRESENTATION_LAYER_ASSIGNMENT (  '', '', ( #125 ) ) ;
#342 = PLANE ( 'NONE',  #239 ) ;
#343 = DIRECTION ( 'NONE',  ( -0.000000000000000000, -1.000000000000000000, -0.000000000000000000 ) ) ;
#344 = DIRECTION ( 'NONE',  ( -1.231212018341879827E-16, 1.000000000000000000, -0.000000000000000000 ) ) ;
#345 = DIRECTION ( 'NONE',  ( 0.000000000000000000, 0.000000000000000000, -1.000000000000000000 ) ) ;
#346 = DIRECTION ( 'NONE',  ( -1.000000000000000000, 0.000000000000000000, 0.000000000000000000 ) ) ;
#347 = EDGE_CURVE ( 'NONE', #68, #17, #12, .T. ) ;
#348 = DIRECTION ( 'NONE',  ( 0.000000000000000000, 0.000000000000000000, -1.000000000000000000 ) ) ;
#349 = DIRECTION ( 'NONE',  ( 0.000000000000000000, 0.000000000000000000, -1.000000000000000000 ) ) ;
#350 = FILL_AREA_STYLE ('',( #98 ) ) ;
#351 = FILL_AREA_STYLE_COLOUR ( '', #196 ) ;
#352 = EDGE_LOOP ( 'NONE', ( #37, #44, #42, #238 ) ) ;
#353 = EDGE_CURVE ( 'NONE', #72, #17, #151, .T. ) ;
#354 = COLOUR_RGB ( '',1.000000000000000000, 0.000000000000000000, 0.000000000000000000 ) ;
#355 = ORIENTED_EDGE ( 'NONE', *, *, #55, .F. ) ;
#356 = PRESENTATION_STYLE_ASSIGNMENT (( #244 ) ) ;
#357 = ORIENTED_EDGE ( 'NONE', *, *, #285, .F. ) ;
#358 = SURFACE_STYLE_USAGE ( .BOTH. , #83 ) ;
#359 = EDGE_CURVE ( 'NONE', #324, #181, #368, .T. ) ;
#360 = VERTEX_POINT ( 'NONE', #110 ) ;
#361 = DIRECTION ( 'NONE',  ( -1.231212018341879827E-16, 1.000000000000000000, -0.000000000000000000 ) ) ;
#362 = PRESENTATION_STYLE_ASSIGNMENT (( #45 ) ) ;
#363 =( GEOMETRIC_REPRESENTATION_CONTEXT ( 3 ) GLOBAL_UNCERTAINTY_ASSIGNED_CONTEXT ( ( #295 ) ) GLOBAL_UNIT_ASSIGNED_CONTEXT ( ( #108, #281, #303 ) ) REPRESENTATION_CONTEXT ( 'NONE', 'WORKASPACE' ) );
#364 = SURFACE_STYLE_USAGE ( .BOTH. , #80 ) ;
#365 = FACE_OUTER_BOUND ( 'NONE', #223, .T. ) ;
#366 = AXIS2_PLACEMENT_3D ( 'NONE', #259, #344, #171 ) ;
#367 = PRESENTATION_LAYER_ASSIGNMENT (  '', '', ( #208 ) ) ;
#368 = CIRCLE ( 'NONE', #264, 7.500000000000000000 ) ;
#369 = CARTESIAN_POINT ( 'NONE',  ( 7.999999999999994671, 89.00000000000000000, 9.797174393178821713E-16 ) ) ;
#370 = DIRECTION ( 'NONE',  ( -1.231212018341879827E-16, 1.000000000000000000, -0.000000000000000000 ) ) ;
ENDSEC;
END-ISO-10303-21;
