ISO-10303-21;
HEADER;
FILE_DESCRIPTION (( 'STEP AP214' ),
    '1' );
FILE_NAME ('Micro_SBMM-040-232.STEP',
    '2021-09-02T17:09:32',
    ( '' ),
    ( '' ),
    'SwSTEP 2.0',
    'SolidWorks 2020',
    '' );
FILE_SCHEMA (( 'AUTOMOTIVE_DESIGN' ));
ENDSEC;

DATA;
#1 = AXIS2_PLACEMENT_3D ( 'NONE', #55, #291, #82 ) ;
#2 = CARTESIAN_POINT ( 'NONE',  ( -0.05314949999999984964, 1.048661992492879804E-17, 1.259842999999999824 ) ) ;
#3 = ADVANCED_FACE ( 'NONE', ( #301 ), #299, .T. ) ;
#4 = DIRECTION ( 'NONE',  ( 0.0000000000000000000, 0.0000000000000000000, 1.000000000000000000 ) ) ;
#5 = ADVANCED_BREP_SHAPE_REPRESENTATION ( 'Micro_SBMM-040-232', ( #162, #73 ), #180 ) ;
#6 = DIRECTION ( 'NONE',  ( -1.000000000000000000, 0.0000000000000000000, 0.0000000000000000000 ) ) ;
#7 = VERTEX_POINT ( 'NONE', #250 ) ;
#8 = ADVANCED_FACE ( 'NONE', ( #69 ), #120, .T. ) ;
#9 =( LENGTH_UNIT ( ) NAMED_UNIT ( * ) SI_UNIT ( $, .METRE. ) );
#10 = UNCERTAINTY_MEASURE_WITH_UNIT (LENGTH_MEASURE( 1.000000000000000082E-05 ), #318, 'distance_accuracy_value', 'NONE');
#11 = CONICAL_SURFACE ( 'NONE', #317, 0.1031100000000005484, 0.7853981633974410625 ) ;
#12 = VERTEX_POINT ( 'NONE', #2 ) ;
#13 = DIRECTION ( 'NONE',  ( -0.0000000000000000000, -0.0000000000000000000, -1.000000000000000000 ) ) ;
#14 = DIRECTION ( 'NONE',  ( 0.0000000000000000000, 0.0000000000000000000, -1.000000000000000000 ) ) ;
#15 = PRODUCT_DEFINITION ( 'UNKNOWN', '', #158, #198 ) ;
#16 = ADVANCED_FACE ( 'NONE', ( #66 ), #119, .T. ) ;
#17 = DIRECTION ( 'NONE',  ( -0.7071067811865422437, 0.0000000000000000000, -0.7071067811865526798 ) ) ;
#18 = AXIS2_PLACEMENT_3D ( 'NONE', #108, #57, #289 ) ;
#19 = DIRECTION ( 'NONE',  ( -1.000000000000000000, 0.0000000000000000000, 0.0000000000000000000 ) ) ;
#20 = CARTESIAN_POINT ( 'NONE',  ( 0.0000000000000000000, 0.0000000000000000000, 3.922007999999999939 ) ) ;
#21 = EDGE_CURVE ( 'NONE', #278, #277, #205, .T. ) ;
#22 = DIRECTION ( 'NONE',  ( -0.0000000000000000000, -0.0000000000000000000, -1.000000000000000000 ) ) ;
#23 = DIMENSIONAL_EXPONENTS ( 1.000000000000000000, 0.0000000000000000000, 0.0000000000000000000, 0.0000000000000000000, 0.0000000000000000000, 0.0000000000000000000, 0.0000000000000000000 ) ;
#24 = AXIS2_PLACEMENT_3D ( 'NONE', #229, #327, #35 ) ;
#25 = EDGE_CURVE ( 'NONE', #269, #278, #334, .T. ) ;
#26 = CARTESIAN_POINT ( 'NONE',  ( 0.1181100000000000344, 1.446430334472939084E-17, 1.732282999999999795 ) ) ;
#27 = EDGE_LOOP ( 'NONE', ( #146, #88, #223, #238 ) ) ;
#28 = DIRECTION ( 'NONE',  ( 1.000000000000000000, 0.0000000000000000000, 0.0000000000000000000 ) ) ;
#29 = ORIENTED_EDGE ( 'NONE', *, *, #281, .T. ) ;
#30 = STYLED_ITEM ( 'NONE', ( #191 ), #5 ) ;
#31 = DIRECTION ( 'NONE',  ( 0.7071067811865422437, 8.659560562354868763E-17, -0.7071067811865526798 ) ) ;
#32 = CARTESIAN_POINT ( 'NONE',  ( 0.0000000000000000000, 0.0000000000000000000, 0.1368357679160022988 ) ) ;
#33 = ORIENTED_EDGE ( 'NONE', *, *, #78, .F. ) ;
#34 = ADVANCED_FACE ( 'NONE', ( #125 ), #190, .T. ) ;
#35 = DIRECTION ( 'NONE',  ( -1.000000000000000000, 0.0000000000000000000, 0.0000000000000000000 ) ) ;
#36 = CIRCLE ( 'NONE', #72, 0.05314949999999998842 ) ;
#37 = SURFACE_STYLE_USAGE ( .BOTH. , #117 ) ;
#38 = DIRECTION ( 'NONE',  ( -1.000000000000000000, 0.0000000000000000000, 0.0000000000000000000 ) ) ;
#39 = DIRECTION ( 'NONE',  ( -1.000000000000000000, 0.0000000000000000000, 0.0000000000000000000 ) ) ;
#40 = ORIENTED_EDGE ( 'NONE', *, *, #21, .T. ) ;
#41 = SURFACE_STYLE_FILL_AREA ( #169 ) ;
#42 = VECTOR ( 'NONE', #17, 39.37007874015748854 ) ;
#43 = ORIENTED_EDGE ( 'NONE', *, *, #78, .T. ) ;
#44 = PRESENTATION_STYLE_ASSIGNMENT (( #309 ) ) ;
#45 =( NAMED_UNIT ( * ) PLANE_ANGLE_UNIT ( ) SI_UNIT ( $, .RADIAN. ) );
#46 = ADVANCED_FACE ( 'NONE', ( #143 ), #203, .T. ) ;
#47 = DIRECTION ( 'NONE',  ( -0.0000000000000000000, -0.0000000000000000000, -1.000000000000000000 ) ) ;
#48 = CARTESIAN_POINT ( 'NONE',  ( 0.0000000000000000000, 0.0000000000000000000, 1.818181181818179670 ) ) ;
#49 =( CONVERSION_BASED_UNIT ( 'INCH', #286 ) LENGTH_UNIT ( ) NAMED_UNIT ( #23 ) );
#50 = DIRECTION ( 'NONE',  ( -1.000000000000000000, 0.0000000000000000000, 0.0000000000000000000 ) ) ;
#51 = AXIS2_PLACEMENT_3D ( 'NONE', #263, #28, #87 ) ;
#52 = EDGE_CURVE ( 'NONE', #12, #114, #179, .T. ) ;
#53 = DIRECTION ( 'NONE',  ( -0.0000000000000000000, -0.0000000000000000000, -1.000000000000000000 ) ) ;
#54 = ORIENTED_EDGE ( 'NONE', *, *, #90, .T. ) ;
#55 = CARTESIAN_POINT ( 'NONE',  ( 0.0000000000000000000, 0.0000000000000000000, 3.937007999999999619 ) ) ;
#56 = VERTEX_POINT ( 'NONE', #333 ) ;
#57 = DIRECTION ( 'NONE',  ( 0.0000000000000000000, 0.0000000000000000000, -1.000000000000000000 ) ) ;
#58 = ORIENTED_EDGE ( 'NONE', *, *, #136, .T. ) ;
#59 = AXIS2_PLACEMENT_3D ( 'NONE', #226, #193, #39 ) ;
#60 = VECTOR ( 'NONE', #153, 39.37007874015748143 ) ;
#61 = DIRECTION ( 'NONE',  ( 1.000000000000000000, 1.224646799147353207E-16, -0.0000000000000000000 ) ) ;
#62 = ADVANCED_FACE ( 'NONE', ( #285 ), #11, .T. ) ;
#63 = VERTEX_POINT ( 'NONE', #283 ) ;
#64 = CARTESIAN_POINT ( 'NONE',  ( 0.0000000000000000000, 0.0000000000000000000, 0.0000000000000000000 ) ) ;
#65 = EDGE_CURVE ( 'NONE', #114, #338, #138, .T. ) ;
#66 = FACE_OUTER_BOUND ( 'NONE', #116, .T. ) ;
#67 = AXIS2_PLACEMENT_3D ( 'NONE', #195, #196, #6 ) ;
#68 = PRODUCT_DEFINITION_SHAPE ( 'NONE', 'NONE',  #15 ) ;
#69 = FACE_OUTER_BOUND ( 'NONE', #303, .T. ) ;
#70 = ORIENTED_EDGE ( 'NONE', *, *, #65, .T. ) ;
#71 = ORIENTED_EDGE ( 'NONE', *, *, #155, .F. ) ;
#72 = AXIS2_PLACEMENT_3D ( 'NONE', #288, #112, #50 ) ;
#73 = AXIS2_PLACEMENT_3D ( 'NONE', #64, #4, #224 ) ;
#74 = DIRECTION ( 'NONE',  ( -1.000000000000000000, 0.0000000000000000000, 0.0000000000000000000 ) ) ;
#75 = ADVANCED_FACE ( 'NONE', ( #102 ), #121, .T. ) ;
#76 = DIRECTION ( 'NONE',  ( -1.000000000000000000, 0.0000000000000000000, 0.0000000000000000000 ) ) ;
#77 = CARTESIAN_POINT ( 'NONE',  ( -0.1181100000000000344, 0.0000000000000000000, 3.937007999999999619 ) ) ;
#78 = EDGE_CURVE ( 'NONE', #142, #114, #132, .T. ) ;
#79 = SURFACE_STYLE_FILL_AREA ( #280 ) ;
#80 = AXIS2_PLACEMENT_3D ( 'NONE', #337, #208, #311 ) ;
#81 = CARTESIAN_POINT ( 'NONE',  ( 0.05314949999999998842, 6.508936505128222953E-18, 0.1368357679160022988 ) ) ;
#82 = DIRECTION ( 'NONE',  ( 1.000000000000000000, 0.0000000000000000000, 0.0000000000000000000 ) ) ;
#83 = CIRCLE ( 'NONE', #273, 0.07873999999999999055 ) ;
#84 = CARTESIAN_POINT ( 'NONE',  ( 0.0000000000000000000, 0.0000000000000000000, 1.259842999999999824 ) ) ;
#85 = ORIENTED_EDGE ( 'NONE', *, *, #310, .T. ) ;
#86 = SPHERICAL_SURFACE ( 'NONE', #171, 0.07873999999999999055 ) ;
#87 = DIRECTION ( 'NONE',  ( 0.0000000000000000000, 1.000000000000000000, 0.0000000000000000000 ) ) ;
#88 = ORIENTED_EDGE ( 'NONE', *, *, #264, .T. ) ;
#89 = VECTOR ( 'NONE', #113, 39.37007874015748143 ) ;
#90 = EDGE_CURVE ( 'NONE', #97, #12, #164, .T. ) ;
#91 = EDGE_LOOP ( 'NONE', ( #96, #94 ) ) ;
#92 = EDGE_LOOP ( 'NONE', ( #137, #85, #325, #321 ) ) ;
#93 = PRODUCT ( 'Micro_SBMM-040-232', 'Micro_SBMM-040-232', '', ( #192 ) ) ;
#94 = ORIENTED_EDGE ( 'NONE', *, *, #183, .T. ) ;
#95 =( NAMED_UNIT ( * ) PLANE_ANGLE_UNIT ( ) SI_UNIT ( $, .RADIAN. ) );
#96 = ORIENTED_EDGE ( 'NONE', *, *, #336, .T. ) ;
#97 = VERTEX_POINT ( 'NONE', #151 ) ;
#98 = ORIENTED_EDGE ( 'NONE', *, *, #281, .F. ) ;
#99 = MECHANICAL_DESIGN_GEOMETRIC_PRESENTATION_REPRESENTATION (  '', ( #212 ), #292 ) ;
#100 = PRODUCT_RELATED_PRODUCT_CATEGORY ( 'part', '', ( #93 ) ) ;
#101 = ADVANCED_FACE ( 'NONE', ( #129 ), #258, .T. ) ;
#102 = FACE_OUTER_BOUND ( 'NONE', #340, .T. ) ;
#103 = LINE ( 'NONE', #126, #156 ) ;
#104 = CARTESIAN_POINT ( 'NONE',  ( 0.0000000000000000000, 0.0000000000000000000, 1.259842999999999824 ) ) ;
#105 = CARTESIAN_POINT ( 'NONE',  ( -0.1031100000000005484, 0.0000000000000000000, 3.937007999999999619 ) ) ;
#106 = CARTESIAN_POINT ( 'NONE',  ( 0.0000000000000000000, 0.0000000000000000000, 0.07874000000000000443 ) ) ;
#107 = ORIENTED_EDGE ( 'NONE', *, *, #111, .T. ) ;
#108 = CARTESIAN_POINT ( 'NONE',  ( 0.0000000000000000000, 0.0000000000000000000, 3.922007999999999939 ) ) ;
#109 = AXIS2_PLACEMENT_3D ( 'NONE', #342, #53, #216 ) ;
#110 = DIRECTION ( 'NONE',  ( 0.0000000000000000000, 0.0000000000000000000, 1.000000000000000000 ) ) ;
#111 = EDGE_CURVE ( 'NONE', #142, #7, #255, .T. ) ;
#112 = DIRECTION ( 'NONE',  ( -0.0000000000000000000, -0.0000000000000000000, -1.000000000000000000 ) ) ;
#113 = DIRECTION ( 'NONE',  ( -0.0000000000000000000, -0.0000000000000000000, -1.000000000000000000 ) ) ;
#114 = VERTEX_POINT ( 'NONE', #232 ) ;
#115 = COLOUR_RGB ( '',0.7921568627450980005, 0.8196078431372548767, 0.9333333333333333481 ) ;
#116 = EDGE_LOOP ( 'NONE', ( #225, #54, #140, #118, #98 ) ) ;
#117 = SURFACE_SIDE_STYLE ('',( #41 ) ) ;
#118 = ORIENTED_EDGE ( 'NONE', *, *, #310, .F. ) ;
#119 = CYLINDRICAL_SURFACE ( 'NONE', #59, 0.05314949999999991903 ) ;
#120 = CONICAL_SURFACE ( 'NONE', #307, 0.1299209999999997867, 0.1366431624910874332 ) ;
#121 = CONICAL_SURFACE ( 'NONE', #324, 0.1299209999999997867, 0.1366431624910874332 ) ;
#122 =( NAMED_UNIT ( * ) SI_UNIT ( $, .STERADIAN. ) SOLID_ANGLE_UNIT ( ) );
#123 = DIRECTION ( 'NONE',  ( 0.0000000000000000000, 0.0000000000000000000, 1.000000000000000000 ) ) ;
#124 = LENGTH_MEASURE_WITH_UNIT ( LENGTH_MEASURE( 0.02539999999999999897 ), #9 );
#125 = FACE_OUTER_BOUND ( 'NONE', #27, .T. ) ;
#126 = CARTESIAN_POINT ( 'NONE',  ( 0.1299209999999997867, 0.0000000000000000000, 1.818181181818179670 ) ) ;
#127 = CIRCLE ( 'NONE', #313, 0.1031100000000005484 ) ;
#128 = CARTESIAN_POINT ( 'NONE',  ( 0.0000000000000000000, 0.0000000000000000000, 3.937007999999999619 ) ) ;
#129 = FACE_OUTER_BOUND ( 'NONE', #91, .T. ) ;
#130 = CARTESIAN_POINT ( 'NONE',  ( -0.1299209999999997867, 1.591073367920230343E-17, 1.818181181818179670 ) ) ;
#131 = AXIS2_PLACEMENT_3D ( 'NONE', #152, #233, #328 ) ;
#132 = LINE ( 'NONE', #77, #60 ) ;
#133 = DIRECTION ( 'NONE',  ( 1.000000000000000000, 0.0000000000000000000, 0.0000000000000000000 ) ) ;
#134 = ORIENTED_EDGE ( 'NONE', *, *, #65, .F. ) ;
#135 = CARTESIAN_POINT ( 'NONE',  ( 0.0000000000000000000, 0.0000000000000000000, 0.07874000000000000443 ) ) ;
#136 = EDGE_CURVE ( 'NONE', #276, #142, #207, .T. ) ;
#137 = ORIENTED_EDGE ( 'NONE', *, *, #322, .F. ) ;
#138 = CIRCLE ( 'NONE', #131, 0.1181100000000000344 ) ;
#139 = CARTESIAN_POINT ( 'NONE',  ( -0.05314949999999998842, 0.0000000000000000000, 0.1368357679160022988 ) ) ;
#140 = ORIENTED_EDGE ( 'NONE', *, *, #244, .T. ) ;
#141 = CARTESIAN_POINT ( 'NONE',  ( 0.0000000000000000000, 0.0000000000000000000, 3.937007999999999619 ) ) ;
#142 = VERTEX_POINT ( 'NONE', #332 ) ;
#143 = FACE_OUTER_BOUND ( 'NONE', #248, .T. ) ;
#144 =( NAMED_UNIT ( * ) SI_UNIT ( $, .STERADIAN. ) SOLID_ANGLE_UNIT ( ) );
#145 = ORIENTED_EDGE ( 'NONE', *, *, #52, .F. ) ;
#146 = ORIENTED_EDGE ( 'NONE', *, *, #183, .F. ) ;
#147 = ORIENTED_EDGE ( 'NONE', *, *, #322, .T. ) ;
#148 = CIRCLE ( 'NONE', #335, 0.07873999999999996280 ) ;
#149 =( NAMED_UNIT ( * ) PLANE_ANGLE_UNIT ( ) SI_UNIT ( $, .RADIAN. ) );
#150 = CARTESIAN_POINT ( 'NONE',  ( 0.0000000000000000000, 0.0000000000000000000, 1.818181181818179670 ) ) ;
#151 = CARTESIAN_POINT ( 'NONE',  ( 0.05314949999999984964, 0.0000000000000000000, 1.259842999999999824 ) ) ;
#152 = CARTESIAN_POINT ( 'NONE',  ( 0.0000000000000000000, 0.0000000000000000000, 1.732282999999999795 ) ) ;
#153 = DIRECTION ( 'NONE',  ( -0.0000000000000000000, -0.0000000000000000000, -1.000000000000000000 ) ) ;
#154 = CARTESIAN_POINT ( 'NONE',  ( 0.0000000000000000000, 0.0000000000000000000, 3.937007999999999619 ) ) ;
#155 = EDGE_CURVE ( 'NONE', #7, #338, #202, .T. ) ;
#156 = VECTOR ( 'NONE', #282, 39.37007874015748143 ) ;
#157 = CARTESIAN_POINT ( 'NONE',  ( 0.0000000000000000000, 0.0000000000000000000, 0.07874000000000000443 ) ) ;
#158 = PRODUCT_DEFINITION_FORMATION_WITH_SPECIFIED_SOURCE ( 'ANY', '', #93, .NOT_KNOWN. ) ;
#159 = EDGE_CURVE ( 'NONE', #97, #338, #103, .T. ) ;
#160 = CARTESIAN_POINT ( 'NONE',  ( -0.05314949999999991903, 0.0000000000000000000, 0.0000000000000000000 ) ) ;
#161 = EDGE_LOOP ( 'NONE', ( #247, #326, #58, #290 ) ) ;
#162 = MANIFOLD_SOLID_BREP ( 'Cut-Revolve3', #176 ) ;
#163 = FACE_OUTER_BOUND ( 'NONE', #92, .T. ) ;
#164 = CIRCLE ( 'NONE', #227, 0.05314949999999984964 ) ;
#165 = CARTESIAN_POINT ( 'NONE',  ( 0.0000000000000000000, 0.0000000000000000000, 1.732282999999999795 ) ) ;
#166 = ORIENTED_EDGE ( 'NONE', *, *, #210, .T. ) ;
#167 = APPLICATION_PROTOCOL_DEFINITION ( 'draft international standard', 'automotive_design', 1998, #260 ) ;
#168 = DIMENSIONAL_EXPONENTS ( 1.000000000000000000, 0.0000000000000000000, 0.0000000000000000000, 0.0000000000000000000, 0.0000000000000000000, 0.0000000000000000000, 0.0000000000000000000 ) ;
#169 = FILL_AREA_STYLE ('',( #297 ) ) ;
#170 = CARTESIAN_POINT ( 'NONE',  ( 0.0000000000000000000, 0.0000000000000000000, 0.1368357679160022988 ) ) ;
#171 = AXIS2_PLACEMENT_3D ( 'NONE', #135, #239, #187 ) ;
#172 = DIRECTION ( 'NONE',  ( 1.000000000000000000, 0.0000000000000000000, 0.0000000000000000000 ) ) ;
#173 = CARTESIAN_POINT ( 'NONE',  ( 0.0000000000000000000, 0.0000000000000000000, 0.1368357679160022988 ) ) ;
#174 = ADVANCED_FACE ( 'NONE', ( #242 ), #178, .T. ) ;
#175 = ORIENTED_EDGE ( 'NONE', *, *, #256, .T. ) ;
#176 = CLOSED_SHELL ( 'NONE', ( #3, #302, #8, #34, #46, #174, #101, #62, #75, #253, #16 ) ) ;
#177 = CIRCLE ( 'NONE', #18, 0.1181100000000000344 ) ;
#178 = CYLINDRICAL_SURFACE ( 'NONE', #109, 0.1181100000000000344 ) ;
#179 = LINE ( 'NONE', #130, #279 ) ;
#180 =( GEOMETRIC_REPRESENTATION_CONTEXT ( 3 ) GLOBAL_UNCERTAINTY_ASSIGNED_CONTEXT ( ( #10 ) ) GLOBAL_UNIT_ASSIGNED_CONTEXT ( ( #318, #95, #122 ) ) REPRESENTATION_CONTEXT ( 'NONE', 'WORKASPACE' ) );
#181 = DIRECTION ( 'NONE',  ( -0.1362183404787285501, 1.668193546524392655E-17, 0.9906788398452957001 ) ) ;
#182 = EDGE_CURVE ( 'NONE', #7, #142, #177, .T. ) ;
#183 = EDGE_CURVE ( 'NONE', #272, #276, #304, .T. ) ;
#184 = CIRCLE ( 'NONE', #201, 0.1181100000000000344 ) ;
#185 = DIRECTION ( 'NONE',  ( -0.0000000000000000000, -0.0000000000000000000, -1.000000000000000000 ) ) ;
#186 = LINE ( 'NONE', #160, #298 ) ;
#187 = DIRECTION ( 'NONE',  ( 0.0000000000000000000, 1.000000000000000000, 0.0000000000000000000 ) ) ;
#188 = ORIENTED_EDGE ( 'NONE', *, *, #241, .F. ) ;
#189 = DIRECTION ( 'NONE',  ( -0.0000000000000000000, -0.0000000000000000000, -1.000000000000000000 ) ) ;
#190 = CONICAL_SURFACE ( 'NONE', #24, 0.1031100000000005484, 0.7853981633974410625 ) ;
#191 = PRESENTATION_STYLE_ASSIGNMENT (( #37 ) ) ;
#192 = PRODUCT_CONTEXT ( 'NONE', #266, 'mechanical' ) ;
#193 = DIRECTION ( 'NONE',  ( -0.0000000000000000000, -0.0000000000000000000, -1.000000000000000000 ) ) ;
#194 = APPLICATION_PROTOCOL_DEFINITION ( 'draft international standard', 'automotive_design', 1998, #266 ) ;
#195 = CARTESIAN_POINT ( 'NONE',  ( 0.0000000000000000000, 0.0000000000000000000, 0.0000000000000000000 ) ) ;
#196 = DIRECTION ( 'NONE',  ( -0.0000000000000000000, -0.0000000000000000000, -1.000000000000000000 ) ) ;
#197 = ORIENTED_EDGE ( 'NONE', *, *, #90, .F. ) ;
#198 = PRODUCT_DEFINITION_CONTEXT ( 'detailed design', #260, 'design' ) ;
#199 = ORIENTED_EDGE ( 'NONE', *, *, #244, .F. ) ;
#200 = DIMENSIONAL_EXPONENTS ( 1.000000000000000000, 0.0000000000000000000, 0.0000000000000000000, 0.0000000000000000000, 0.0000000000000000000, 0.0000000000000000000, 0.0000000000000000000 ) ;
#201 = AXIS2_PLACEMENT_3D ( 'NONE', #165, #110, #315 ) ;
#202 = LINE ( 'NONE', #259, #308 ) ;
#203 = CYLINDRICAL_SURFACE ( 'NONE', #206, 0.1181100000000000344 ) ;
#204 = DIRECTION ( 'NONE',  ( 0.0000000000000000000, 0.0000000000000000000, -1.000000000000000000 ) ) ;
#205 = CIRCLE ( 'NONE', #249, 0.05314949999999998842 ) ;
#206 = AXIS2_PLACEMENT_3D ( 'NONE', #154, #47, #254 ) ;
#207 = LINE ( 'NONE', #105, #42 ) ;
#208 = DIRECTION ( 'NONE',  ( 0.0000000000000000000, 0.0000000000000000000, 1.000000000000000000 ) ) ;
#209 =( NAMED_UNIT ( * ) SI_UNIT ( $, .STERADIAN. ) SOLID_ANGLE_UNIT ( ) );
#210 = EDGE_CURVE ( 'NONE', #338, #114, #184, .T. ) ;
#211 = ORIENTED_EDGE ( 'NONE', *, *, #221, .F. ) ;
#212 = STYLED_ITEM ( 'NONE', ( #44 ), #162 ) ;
#213 = DIRECTION ( 'NONE',  ( -1.000000000000000000, 0.0000000000000000000, 0.0000000000000000000 ) ) ;
#214 = PRESENTATION_LAYER_ASSIGNMENT (  '', '', ( #30 ) ) ;
#215 = EDGE_LOOP ( 'NONE', ( #71, #294, #43, #70 ) ) ;
#216 = DIRECTION ( 'NONE',  ( -1.000000000000000000, 0.0000000000000000000, 0.0000000000000000000 ) ) ;
#217 = FACE_OUTER_BOUND ( 'NONE', #243, .T. ) ;
#218 = DIRECTION ( 'NONE',  ( 0.0000000000000000000, 0.0000000000000000000, 1.000000000000000000 ) ) ;
#219 = CIRCLE ( 'NONE', #235, 0.05314949999999984964 ) ;
#220 =( GEOMETRIC_REPRESENTATION_CONTEXT ( 3 ) GLOBAL_UNCERTAINTY_ASSIGNED_CONTEXT ( ( #251 ) ) GLOBAL_UNIT_ASSIGNED_CONTEXT ( ( #319, #149, #144 ) ) REPRESENTATION_CONTEXT ( 'NONE', 'WORKASPACE' ) );
#221 = EDGE_CURVE ( 'NONE', #12, #97, #219, .T. ) ;
#222 = LENGTH_MEASURE_WITH_UNIT ( LENGTH_MEASURE( 0.02539999999999999897 ), #295 );
#223 = ORIENTED_EDGE ( 'NONE', *, *, #111, .F. ) ;
#224 = DIRECTION ( 'NONE',  ( 1.000000000000000000, 0.0000000000000000000, 0.0000000000000000000 ) ) ;
#225 = ORIENTED_EDGE ( 'NONE', *, *, #256, .F. ) ;
#226 = CARTESIAN_POINT ( 'NONE',  ( 0.0000000000000000000, 0.0000000000000000000, 0.0000000000000000000 ) ) ;
#227 = AXIS2_PLACEMENT_3D ( 'NONE', #104, #257, #76 ) ;
#228 = ORIENTED_EDGE ( 'NONE', *, *, #210, .F. ) ;
#229 = CARTESIAN_POINT ( 'NONE',  ( 0.0000000000000000000, 0.0000000000000000000, 3.937007999999999619 ) ) ;
#230 =( LENGTH_UNIT ( ) NAMED_UNIT ( * ) SI_UNIT ( $, .METRE. ) );
#231 = AXIS2_PLACEMENT_3D ( 'NONE', #32, #189, #293 ) ;
#232 = CARTESIAN_POINT ( 'NONE',  ( -0.1181100000000000344, 0.0000000000000000000, 1.732282999999999795 ) ) ;
#233 = DIRECTION ( 'NONE',  ( 0.0000000000000000000, 0.0000000000000000000, 1.000000000000000000 ) ) ;
#234 = SURFACE_SIDE_STYLE ('',( #79 ) ) ;
#235 = AXIS2_PLACEMENT_3D ( 'NONE', #84, #344, #339 ) ;
#236 = DIRECTION ( 'NONE',  ( 1.000000000000000000, 0.0000000000000000000, 0.0000000000000000000 ) ) ;
#237 = LINE ( 'NONE', #312, #89 ) ;
#238 = ORIENTED_EDGE ( 'NONE', *, *, #136, .F. ) ;
#239 = DIRECTION ( 'NONE',  ( 1.000000000000000000, 0.0000000000000000000, 0.0000000000000000000 ) ) ;
#240 = CARTESIAN_POINT ( 'NONE',  ( 0.1031100000000005484, 1.354581824536890879E-17, 3.937007999999999619 ) ) ;
#241 = EDGE_CURVE ( 'NONE', #278, #63, #148, .T. ) ;
#242 = FACE_OUTER_BOUND ( 'NONE', #215, .T. ) ;
#243 = EDGE_LOOP ( 'NONE', ( #40, #29, #147, #188 ) ) ;
#244 = EDGE_CURVE ( 'NONE', #12, #269, #186, .T. ) ;
#245 = AXIS2_PLACEMENT_3D ( 'NONE', #170, #274, #38 ) ;
#246 = ORIENTED_EDGE ( 'NONE', *, *, #221, .T. ) ;
#247 = ORIENTED_EDGE ( 'NONE', *, *, #264, .F. ) ;
#248 = EDGE_LOOP ( 'NONE', ( #107, #300, #166, #33 ) ) ;
#249 = AXIS2_PLACEMENT_3D ( 'NONE', #173, #13, #74 ) ;
#250 = CARTESIAN_POINT ( 'NONE',  ( 0.1181100000000000344, 1.446430334472939084E-17, 3.922007999999999939 ) ) ;
#251 = UNCERTAINTY_MEASURE_WITH_UNIT (LENGTH_MEASURE( 1.000000000000000082E-05 ), #319, 'distance_accuracy_value', 'NONE');
#252 = ORIENTED_EDGE ( 'NONE', *, *, #25, .F. ) ;
#253 = ADVANCED_FACE ( 'NONE', ( #163 ), #86, .T. ) ;
#254 = DIRECTION ( 'NONE',  ( -1.000000000000000000, 0.0000000000000000000, 0.0000000000000000000 ) ) ;
#255 = CIRCLE ( 'NONE', #261, 0.1181100000000000344 ) ;
#256 = EDGE_CURVE ( 'NONE', #97, #277, #237, .T. ) ;
#257 = DIRECTION ( 'NONE',  ( -0.0000000000000000000, -0.0000000000000000000, -1.000000000000000000 ) ) ;
#258 = PLANE ( 'NONE',  #80 ) ;
#259 = CARTESIAN_POINT ( 'NONE',  ( 0.1181100000000000344, 1.446430334472939084E-17, 3.937007999999999619 ) ) ;
#260 = APPLICATION_CONTEXT ( 'automotive_design' ) ;
#261 = AXIS2_PLACEMENT_3D ( 'NONE', #20, #204, #236 ) ;
#262 = DIRECTION ( 'NONE',  ( 0.0000000000000000000, 0.0000000000000000000, 1.000000000000000000 ) ) ;
#263 = CARTESIAN_POINT ( 'NONE',  ( 0.0000000000000000000, 0.0000000000000000000, 0.07874000000000000443 ) ) ;
#264 = EDGE_CURVE ( 'NONE', #272, #7, #268, .T. ) ;
#265 = CARTESIAN_POINT ( 'NONE',  ( 0.1031100000000005484, 1.262733314600842673E-17, 3.937007999999999619 ) ) ;
#266 = APPLICATION_CONTEXT ( 'automotive_design' ) ;
#267 = PRESENTATION_LAYER_ASSIGNMENT (  '', '', ( #212 ) ) ;
#268 = LINE ( 'NONE', #265, #329 ) ;
#269 = VERTEX_POINT ( 'NONE', #139 ) ;
#270 = DIRECTION ( 'NONE',  ( -1.224646799147352961E-16, 1.000000000000000000, 0.0000000000000000000 ) ) ;
#271 = ORIENTED_EDGE ( 'NONE', *, *, #52, .T. ) ;
#272 = VERTEX_POINT ( 'NONE', #240 ) ;
#273 = AXIS2_PLACEMENT_3D ( 'NONE', #157, #61, #270 ) ;
#274 = DIRECTION ( 'NONE',  ( -0.0000000000000000000, -0.0000000000000000000, -1.000000000000000000 ) ) ;
#275 = UNCERTAINTY_MEASURE_WITH_UNIT (LENGTH_MEASURE( 1.000000000000000082E-05 ), #49, 'distance_accuracy_value', 'NONE');
#276 = VERTEX_POINT ( 'NONE', #343 ) ;
#277 = VERTEX_POINT ( 'NONE', #81 ) ;
#278 = VERTEX_POINT ( 'NONE', #287 ) ;
#279 = VECTOR ( 'NONE', #181, 39.37007874015748143 ) ;
#280 = FILL_AREA_STYLE ('',( #306 ) ) ;
#281 = EDGE_CURVE ( 'NONE', #277, #56, #36, .T. ) ;
#282 = DIRECTION ( 'NONE',  ( 0.1362183404787285501, 0.0000000000000000000, 0.9906788398452957001 ) ) ;
#283 = CARTESIAN_POINT ( 'NONE',  ( 0.0000000000000000000, 4.821434448243128484E-18, 1.707404996040164512E-17 ) ) ;
#284 = COLOUR_RGB ( '',0.7921568627450980005, 0.8196078431372548767, 0.9333333333333333481 ) ;
#285 = FACE_OUTER_BOUND ( 'NONE', #161, .T. ) ;
#286 = LENGTH_MEASURE_WITH_UNIT ( LENGTH_MEASURE( 0.02539999999999999897 ), #230 );
#287 = CARTESIAN_POINT ( 'NONE',  ( 0.0000000000000000000, 0.05314949999999997454, 0.1368357679160022988 ) ) ;
#288 = CARTESIAN_POINT ( 'NONE',  ( 0.0000000000000000000, 0.0000000000000000000, 0.1368357679160022988 ) ) ;
#289 = DIRECTION ( 'NONE',  ( 1.000000000000000000, 0.0000000000000000000, 0.0000000000000000000 ) ) ;
#290 = ORIENTED_EDGE ( 'NONE', *, *, #182, .F. ) ;
#291 = DIRECTION ( 'NONE',  ( 0.0000000000000000000, 0.0000000000000000000, 1.000000000000000000 ) ) ;
#292 =( GEOMETRIC_REPRESENTATION_CONTEXT ( 3 ) GLOBAL_UNCERTAINTY_ASSIGNED_CONTEXT ( ( #275 ) ) GLOBAL_UNIT_ASSIGNED_CONTEXT ( ( #49, #45, #209 ) ) REPRESENTATION_CONTEXT ( 'NONE', 'WORKASPACE' ) );
#293 = DIRECTION ( 'NONE',  ( -1.000000000000000000, 0.0000000000000000000, 0.0000000000000000000 ) ) ;
#294 = ORIENTED_EDGE ( 'NONE', *, *, #182, .T. ) ;
#295 =( LENGTH_UNIT ( ) NAMED_UNIT ( * ) SI_UNIT ( $, .METRE. ) );
#296 = EDGE_LOOP ( 'NONE', ( #246, #175, #314, #252, #199 ) ) ;
#297 = FILL_AREA_STYLE_COLOUR ( '', #284 ) ;
#298 = VECTOR ( 'NONE', #185, 39.37007874015748143 ) ;
#299 = CYLINDRICAL_SURFACE ( 'NONE', #67, 0.05314949999999991903 ) ;
#300 = ORIENTED_EDGE ( 'NONE', *, *, #155, .T. ) ;
#301 = FACE_OUTER_BOUND ( 'NONE', #296, .T. ) ;
#302 = ADVANCED_FACE ( 'NONE', ( #217 ), #316, .T. ) ;
#303 = EDGE_LOOP ( 'NONE', ( #211, #271, #228, #345 ) ) ;
#304 = CIRCLE ( 'NONE', #1, 0.1031100000000005484 ) ;
#305 = DIRECTION ( 'NONE',  ( 1.000000000000000000, 0.0000000000000000000, 0.0000000000000000000 ) ) ;
#306 = FILL_AREA_STYLE_COLOUR ( '', #115 ) ;
#307 = AXIS2_PLACEMENT_3D ( 'NONE', #150, #123, #172 ) ;
#308 = VECTOR ( 'NONE', #22, 39.37007874015748143 ) ;
#309 = SURFACE_STYLE_USAGE ( .BOTH. , #234 ) ;
#310 = EDGE_CURVE ( 'NONE', #56, #269, #341, .T. ) ;
#311 = DIRECTION ( 'NONE',  ( 1.000000000000000000, 0.0000000000000000000, -0.0000000000000000000 ) ) ;
#312 = CARTESIAN_POINT ( 'NONE',  ( 0.05314949999999991903, 6.508936505128214479E-18, 0.0000000000000000000 ) ) ;
#313 = AXIS2_PLACEMENT_3D ( 'NONE', #141, #262, #133 ) ;
#314 = ORIENTED_EDGE ( 'NONE', *, *, #21, .F. ) ;
#315 = DIRECTION ( 'NONE',  ( 1.000000000000000000, 0.0000000000000000000, 0.0000000000000000000 ) ) ;
#316 = SPHERICAL_SURFACE ( 'NONE', #51, 0.07873999999999999055 ) ;
#317 = AXIS2_PLACEMENT_3D ( 'NONE', #128, #14, #19 ) ;
#318 =( CONVERSION_BASED_UNIT ( 'INCH', #124 ) LENGTH_UNIT ( ) NAMED_UNIT ( #200 ) );
#319 =( CONVERSION_BASED_UNIT ( 'INCH', #222 ) LENGTH_UNIT ( ) NAMED_UNIT ( #168 ) );
#320 = ORIENTED_EDGE ( 'NONE', *, *, #159, .T. ) ;
#321 = ORIENTED_EDGE ( 'NONE', *, *, #241, .T. ) ;
#322 = EDGE_CURVE ( 'NONE', #56, #63, #83, .T. ) ;
#323 = SHAPE_DEFINITION_REPRESENTATION ( #68, #5 ) ;
#324 = AXIS2_PLACEMENT_3D ( 'NONE', #48, #331, #305 ) ;
#325 = ORIENTED_EDGE ( 'NONE', *, *, #25, .T. ) ;
#326 = ORIENTED_EDGE ( 'NONE', *, *, #336, .F. ) ;
#327 = DIRECTION ( 'NONE',  ( 0.0000000000000000000, 0.0000000000000000000, -1.000000000000000000 ) ) ;
#328 = DIRECTION ( 'NONE',  ( 1.000000000000000000, 0.0000000000000000000, 0.0000000000000000000 ) ) ;
#329 = VECTOR ( 'NONE', #31, 39.37007874015748854 ) ;
#330 = MECHANICAL_DESIGN_GEOMETRIC_PRESENTATION_REPRESENTATION (  '', ( #30 ), #220 ) ;
#331 = DIRECTION ( 'NONE',  ( 0.0000000000000000000, 0.0000000000000000000, 1.000000000000000000 ) ) ;
#332 = CARTESIAN_POINT ( 'NONE',  ( -0.1181100000000000344, 0.0000000000000000000, 3.922007999999999939 ) ) ;
#333 = CARTESIAN_POINT ( 'NONE',  ( 6.508936505128221412E-18, -0.05314949999999997454, 0.1368357679160022988 ) ) ;
#334 = CIRCLE ( 'NONE', #245, 0.05314949999999998842 ) ;
#335 = AXIS2_PLACEMENT_3D ( 'NONE', #106, #213, #218 ) ;
#336 = EDGE_CURVE ( 'NONE', #276, #272, #127, .T. ) ;
#337 = CARTESIAN_POINT ( 'NONE',  ( 0.0000000000000000000, 0.0000000000000000000, 3.937007999999999619 ) ) ;
#338 = VERTEX_POINT ( 'NONE', #26 ) ;
#339 = DIRECTION ( 'NONE',  ( -1.000000000000000000, 0.0000000000000000000, 0.0000000000000000000 ) ) ;
#340 = EDGE_LOOP ( 'NONE', ( #145, #197, #320, #134 ) ) ;
#341 = CIRCLE ( 'NONE', #231, 0.05314949999999998842 ) ;
#342 = CARTESIAN_POINT ( 'NONE',  ( 0.0000000000000000000, 0.0000000000000000000, 3.937007999999999619 ) ) ;
#343 = CARTESIAN_POINT ( 'NONE',  ( -0.1031100000000005484, 0.0000000000000000000, 3.937007999999999619 ) ) ;
#344 = DIRECTION ( 'NONE',  ( -0.0000000000000000000, -0.0000000000000000000, -1.000000000000000000 ) ) ;
#345 = ORIENTED_EDGE ( 'NONE', *, *, #159, .F. ) ;
ENDSEC;
END-ISO-10303-21;
