ISO-10303-21;
HEADER;
FILE_DESCRIPTION (( 'STEP AP214' ),
    '1' );
FILE_NAME ('59775.STEP',
    '2023-07-24T15:37:23',
    ( '' ),
    ( '' ),
    'SwSTEP 2.0',
    'SolidWorks 2023',
    '' );
FILE_SCHEMA (( 'AUTOMOTIVE_DESIGN' ));
ENDSEC;

DATA;
#1 = VERTEX_POINT ( 'NONE', #183 ) ;
#2 =( LENGTH_UNIT ( ) NAMED_UNIT ( * ) SI_UNIT ( .MILLI., .METRE. ) );
#3 =( LENGTH_UNIT ( ) NAMED_UNIT ( * ) SI_UNIT ( .MILLI., .METRE. ) );
#4 = COLOUR_RGB ( '',1.000000000000000000, 0.000000000000000000, 0.000000000000000000 ) ;
#5 =( NAMED_UNIT ( * ) SI_UNIT ( $, .STERADIAN. ) SOLID_ANGLE_UNIT ( ) );
#6 = CARTESIAN_POINT ( 'NONE',  ( 0.000000000000000000, 30.00000000000000000, 0.000000000000000000 ) ) ;
#7 = PRESENTATION_STYLE_ASSIGNMENT (( #180 ) ) ;
#8 = AXIS2_PLACEMENT_3D ( 'NONE', #55, #225, #32 ) ;
#9 = EDGE_LOOP ( 'NONE', ( #81, #209, #125, #217 ) ) ;
#10 = AXIS2_PLACEMENT_3D ( 'NONE', #316, #268, #62 ) ;
#11 = VECTOR ( 'NONE', #214, 1000.000000000000000 ) ;
#12 = FACE_OUTER_BOUND ( 'NONE', #238, .T. ) ;
#13 = ORIENTED_EDGE ( 'NONE', *, *, #195, .F. ) ;
#14 = CARTESIAN_POINT ( 'NONE',  ( 6.123233995736762930E-15, 75.00000000000000000, 0.000000000000000000 ) ) ;
#15 = FACE_OUTER_BOUND ( 'NONE', #155, .T. ) ;
#16 = FILL_AREA_STYLE_COLOUR ( '', #30 ) ;
#17 = ORIENTED_EDGE ( 'NONE', *, *, #282, .T. ) ;
#18 = AXIS2_PLACEMENT_3D ( 'NONE', #106, #48, #99 ) ;
#19 = CARTESIAN_POINT ( 'NONE',  ( 0.000000000000000000, 0.5000000000000000000, 0.000000000000000000 ) ) ;
#20 =( GEOMETRIC_REPRESENTATION_CONTEXT ( 3 ) GLOBAL_UNCERTAINTY_ASSIGNED_CONTEXT ( ( #341 ) ) GLOBAL_UNIT_ASSIGNED_CONTEXT ( ( #112, #144, #200 ) ) REPRESENTATION_CONTEXT ( 'NONE', 'WORKASPACE' ) );
#21 = VERTEX_POINT ( 'NONE', #226 ) ;
#22 = LINE ( 'NONE', #72, #313 ) ;
#23 = ORIENTED_EDGE ( 'NONE', *, *, #210, .F. ) ;
#24 = CARTESIAN_POINT ( 'NONE',  ( 0.000000000000000000, 0.000000000000000000, 0.000000000000000000 ) ) ;
#25 = STYLED_ITEM ( 'NONE', ( #255 ), #52 ) ;
#26 = PRODUCT_DEFINITION_SHAPE ( 'NONE', 'NONE',  #111 ) ;
#27 = MECHANICAL_DESIGN_GEOMETRIC_PRESENTATION_REPRESENTATION (  '', ( #96 ), #292 ) ;
#28 = DIRECTION ( 'NONE',  ( 0.000000000000000000, 0.000000000000000000, -1.000000000000000000 ) ) ;
#29 = SURFACE_SIDE_STYLE ('',( #315 ) ) ;
#30 = COLOUR_RGB ( '',1.000000000000000000, 0.000000000000000000, 0.000000000000000000 ) ;
#31 =( GEOMETRIC_REPRESENTATION_CONTEXT ( 3 ) GLOBAL_UNCERTAINTY_ASSIGNED_CONTEXT ( ( #142 ) ) GLOBAL_UNIT_ASSIGNED_CONTEXT ( ( #367, #265, #364 ) ) REPRESENTATION_CONTEXT ( 'NONE', 'WORKASPACE' ) );
#32 = DIRECTION ( 'NONE',  ( 0.000000000000000000, 0.000000000000000000, -1.000000000000000000 ) ) ;
#33 = UNCERTAINTY_MEASURE_WITH_UNIT (LENGTH_MEASURE( 1.000000000000000082E-05 ), #37, 'distance_accuracy_value', 'NONE');
#34 = VECTOR ( 'NONE', #93, 1000.000000000000000 ) ;
#35 = CIRCLE ( 'NONE', #152, 5.999999999999993783 ) ;
#36 = EDGE_CURVE ( 'NONE', #308, #266, #73, .T. ) ;
#37 =( LENGTH_UNIT ( ) NAMED_UNIT ( * ) SI_UNIT ( .MILLI., .METRE. ) );
#38 = PRODUCT_RELATED_PRODUCT_CATEGORY ( 'part', '', ( #279 ) ) ;
#39 = DIRECTION ( 'NONE',  ( -0.000000000000000000, -1.000000000000000000, -0.000000000000000000 ) ) ;
#40 = DIRECTION ( 'NONE',  ( -1.560495851798313744E-17, -1.000000000000000000, 0.000000000000000000 ) ) ;
#41 = DIRECTION ( 'NONE',  ( -1.000000000000000000, 0.000000000000000000, 0.000000000000000000 ) ) ;
#42 =( NAMED_UNIT ( * ) SI_UNIT ( $, .STERADIAN. ) SOLID_ANGLE_UNIT ( ) );
#43 = CARTESIAN_POINT ( 'NONE',  ( -5.999999999999987566, 75.00000000000000000, 0.000000000000000000 ) ) ;
#44 = EDGE_LOOP ( 'NONE', ( #66, #301, #358, #276 ) ) ;
#45 = CARTESIAN_POINT ( 'NONE',  ( 6.123233995736762930E-15, 75.00000000000000000, 0.000000000000000000 ) ) ;
#46 = VERTEX_POINT ( 'NONE', #43 ) ;
#47 = ORIENTED_EDGE ( 'NONE', *, *, #351, .T. ) ;
#48 = DIRECTION ( 'NONE',  ( -0.000000000000000000, -1.000000000000000000, -0.000000000000000000 ) ) ;
#49 = DIRECTION ( 'NONE',  ( 0.000000000000000000, 1.000000000000000000, 0.000000000000000000 ) ) ;
#50 = ADVANCED_FACE ( 'NONE', ( #15 ), #244, .T. ) ;
#51 = DIRECTION ( 'NONE',  ( -0.000000000000000000, -1.000000000000000000, -0.000000000000000000 ) ) ;
#52 = ADVANCED_FACE ( 'NONE', ( #123 ), #151, .T. ) ;
#53 = UNCERTAINTY_MEASURE_WITH_UNIT (LENGTH_MEASURE( 1.000000000000000082E-05 ), #94, 'distance_accuracy_value', 'NONE');
#54 =( NAMED_UNIT ( * ) SI_UNIT ( $, .STERADIAN. ) SOLID_ANGLE_UNIT ( ) );
#55 = CARTESIAN_POINT ( 'NONE',  ( 0.000000000000000000, 30.00000000000000000, 0.000000000000000000 ) ) ;
#56 = CARTESIAN_POINT ( 'NONE',  ( 0.000000000000000000, 0.000000000000000000, 0.000000000000000000 ) ) ;
#57 = MECHANICAL_DESIGN_GEOMETRIC_PRESENTATION_REPRESENTATION (  '', ( #366 ), #31 ) ;
#58 = DIRECTION ( 'NONE',  ( -0.000000000000000000, -1.000000000000000000, -0.000000000000000000 ) ) ;
#59 = MECHANICAL_DESIGN_GEOMETRIC_PRESENTATION_REPRESENTATION (  '', ( #140 ), #250 ) ;
#60 = EDGE_LOOP ( 'NONE', ( #303, #327 ) ) ;
#61 =( NAMED_UNIT ( * ) SI_UNIT ( $, .STERADIAN. ) SOLID_ANGLE_UNIT ( ) );
#62 = DIRECTION ( 'NONE',  ( 0.000000000000000000, 0.000000000000000000, -1.000000000000000000 ) ) ;
#63 = CIRCLE ( 'NONE', #283, 6.000000000000000000 ) ;
#64 = DIRECTION ( 'NONE',  ( 0.000000000000000000, 0.000000000000000000, -1.000000000000000000 ) ) ;
#65 = SURFACE_STYLE_FILL_AREA ( #297 ) ;
#66 = ORIENTED_EDGE ( 'NONE', *, *, #282, .F. ) ;
#67 = MECHANICAL_DESIGN_GEOMETRIC_PRESENTATION_REPRESENTATION (  '', ( #274 ), #138 ) ;
#68 = CYLINDRICAL_SURFACE ( 'NONE', #267, 6.000000000000000000 ) ;
#69 = FILL_AREA_STYLE_COLOUR ( '', #248 ) ;
#70 = DIRECTION ( 'NONE',  ( -1.000000000000000000, 0.000000000000000000, 0.000000000000000000 ) ) ;
#71 = EDGE_LOOP ( 'NONE', ( #278, #47 ) ) ;
#72 = CARTESIAN_POINT ( 'NONE',  ( 6.000000000000000888, 75.00000000000000000, 7.347880794884112834E-16 ) ) ;
#73 = LINE ( 'NONE', #251, #34 ) ;
#74 = LINE ( 'NONE', #131, #11 ) ;
#75 = SURFACE_SIDE_STYLE ('',( #334 ) ) ;
#76 = ADVANCED_FACE ( 'NONE', ( #98 ), #110, .F. ) ;
#77 = CARTESIAN_POINT ( 'NONE',  ( 0.000000000000000000, 0.000000000000000000, -5.500000000000000000 ) ) ;
#78 = ADVANCED_FACE ( 'NONE', ( #239 ), #80, .T. ) ;
#79 =( NAMED_UNIT ( * ) PLANE_ANGLE_UNIT ( ) SI_UNIT ( $, .RADIAN. ) );
#80 = TOROIDAL_SURFACE ( 'NONE', #10, 5.500000000000000000, 0.5000000000000002220 ) ;
#81 = ORIENTED_EDGE ( 'NONE', *, *, #149, .F. ) ;
#82 = DIRECTION ( 'NONE',  ( 0.000000000000000000, 0.000000000000000000, 1.000000000000000000 ) ) ;
#83 = CARTESIAN_POINT ( 'NONE',  ( 7.041719095097280880E-16, 0.000000000000000000, 5.500000000000000000 ) ) ;
#84 = ADVANCED_FACE ( 'NONE', ( #368 ), #145, .T. ) ;
#85 = DIRECTION ( 'NONE',  ( 0.000000000000000000, 0.000000000000000000, 1.000000000000000000 ) ) ;
#86 = CARTESIAN_POINT ( 'NONE',  ( 0.000000000000000000, 0.5000000000000000000, 0.000000000000000000 ) ) ;
#87 = APPLICATION_PROTOCOL_DEFINITION ( 'draft international standard', 'automotive_design', 1998, #257 ) ;
#88 = SURFACE_SIDE_STYLE ('',( #317 ) ) ;
#89 = CARTESIAN_POINT ( 'NONE',  ( 5.421010862427522170E-15, 30.00000000000000000, 0.000000000000000000 ) ) ;
#90 = PRESENTATION_LAYER_ASSIGNMENT (  '', '', ( #346 ) ) ;
#91 = DIRECTION ( 'NONE',  ( -1.000000000000000000, 0.000000000000000000, 0.000000000000000000 ) ) ;
#92 = DIRECTION ( 'NONE',  ( -1.000000000000000000, 0.000000000000000000, 0.000000000000000000 ) ) ;
#93 = DIRECTION ( 'NONE',  ( -0.000000000000000000, -1.000000000000000000, -0.000000000000000000 ) ) ;
#94 =( LENGTH_UNIT ( ) NAMED_UNIT ( * ) SI_UNIT ( .MILLI., .METRE. ) );
#95 = ORIENTED_EDGE ( 'NONE', *, *, #270, .F. ) ;
#96 = STYLED_ITEM ( 'NONE', ( #269 ), #173 ) ;
#97 = AXIS2_PLACEMENT_3D ( 'NONE', #337, #115, #117 ) ;
#98 = FACE_OUTER_BOUND ( 'NONE', #60, .T. ) ;
#99 = DIRECTION ( 'NONE',  ( 0.000000000000000000, 0.000000000000000000, -1.000000000000000000 ) ) ;
#100 = EDGE_LOOP ( 'NONE', ( #194, #211, #23, #240 ) ) ;
#101 = FILL_AREA_STYLE ('',( #165 ) ) ;
#102 = COLOUR_RGB ( '',0.7921568627450980005, 0.8196078431372548767, 0.9333333333333333481 ) ;
#103 =( GEOMETRIC_REPRESENTATION_CONTEXT ( 3 ) GLOBAL_UNCERTAINTY_ASSIGNED_CONTEXT ( ( #199 ) ) GLOBAL_UNIT_ASSIGNED_CONTEXT ( ( #356, #314, #54 ) ) REPRESENTATION_CONTEXT ( 'NONE', 'WORKASPACE' ) );
#104 = PRESENTATION_LAYER_ASSIGNMENT (  '', '', ( #298 ) ) ;
#105 = DIRECTION ( 'NONE',  ( 0.000000000000000000, 0.000000000000000000, -1.000000000000000000 ) ) ;
#106 = CARTESIAN_POINT ( 'NONE',  ( 0.000000000000000000, 0.5000000000000000000, 0.000000000000000000 ) ) ;
#107 = UNCERTAINTY_MEASURE_WITH_UNIT (LENGTH_MEASURE( 1.000000000000000082E-05 ), #2, 'distance_accuracy_value', 'NONE');
#108 = ORIENTED_EDGE ( 'NONE', *, *, #149, .T. ) ;
#109 = COLOUR_RGB ( '',1.000000000000000000, 0.000000000000000000, 0.000000000000000000 ) ;
#110 = PLANE ( 'NONE',  #181 ) ;
#111 = PRODUCT_DEFINITION ( 'UNKNOWN', '', #263, #369 ) ;
#112 =( LENGTH_UNIT ( ) NAMED_UNIT ( * ) SI_UNIT ( .MILLI., .METRE. ) );
#113 =( NAMED_UNIT ( * ) PLANE_ANGLE_UNIT ( ) SI_UNIT ( $, .RADIAN. ) );
#114 = FILL_AREA_STYLE ('',( #261 ) ) ;
#115 = DIRECTION ( 'NONE',  ( 0.000000000000000000, -1.000000000000000000, -0.000000000000000000 ) ) ;
#116 = ORIENTED_EDGE ( 'NONE', *, *, #332, .F. ) ;
#117 = DIRECTION ( 'NONE',  ( 0.000000000000000000, 0.000000000000000000, -1.000000000000000000 ) ) ;
#118 = SURFACE_SIDE_STYLE ('',( #65 ) ) ;
#119 = EDGE_CURVE ( 'NONE', #21, #159, #340, .T. ) ;
#120 = FACE_OUTER_BOUND ( 'NONE', #349, .T. ) ;
#121 = VERTEX_POINT ( 'NONE', #323 ) ;
#122 = FACE_OUTER_BOUND ( 'NONE', #153, .T. ) ;
#123 = FACE_OUTER_BOUND ( 'NONE', #100, .T. ) ;
#124 = AXIS2_PLACEMENT_3D ( 'NONE', #286, #128, #41 ) ;
#125 = ORIENTED_EDGE ( 'NONE', *, *, #36, .T. ) ;
#126 = AXIS2_PLACEMENT_3D ( 'NONE', #243, #40, #273 ) ;
#127 = DIRECTION ( 'NONE',  ( -1.000000000000000000, 0.000000000000000000, 0.000000000000000000 ) ) ;
#128 = DIRECTION ( 'NONE',  ( 1.560495851798313744E-17, 1.000000000000000000, -0.000000000000000000 ) ) ;
#129 = CARTESIAN_POINT ( 'NONE',  ( 0.000000000000000000, 30.00000000000000000, -6.000000000000000000 ) ) ;
#130 = SURFACE_SIDE_STYLE ('',( #253 ) ) ;
#131 = CARTESIAN_POINT ( 'NONE',  ( -5.999999999999988454, 75.00000000000000000, 0.000000000000000000 ) ) ;
#132 = AXIS2_PLACEMENT_3D ( 'NONE', #163, #51, #309 ) ;
#133 = DIRECTION ( 'NONE',  ( 0.000000000000000000, 0.000000000000000000, -1.000000000000000000 ) ) ;
#134 =( NAMED_UNIT ( * ) SI_UNIT ( $, .STERADIAN. ) SOLID_ANGLE_UNIT ( ) );
#135 = DIRECTION ( 'NONE',  ( -1.000000000000000000, 0.000000000000000000, 0.000000000000000000 ) ) ;
#136 = DIRECTION ( 'NONE',  ( 1.560495851798313744E-17, 1.000000000000000000, -0.000000000000000000 ) ) ;
#137 = APPLICATION_PROTOCOL_DEFINITION ( 'draft international standard', 'automotive_design', 1998, #304 ) ;
#138 =( GEOMETRIC_REPRESENTATION_CONTEXT ( 3 ) GLOBAL_UNCERTAINTY_ASSIGNED_CONTEXT ( ( #260 ) ) GLOBAL_UNIT_ASSIGNED_CONTEXT ( ( #230, #113, #143 ) ) REPRESENTATION_CONTEXT ( 'NONE', 'WORKASPACE' ) );
#139 = ADVANCED_FACE ( 'NONE', ( #122 ), #355, .F. ) ;
#140 = STYLED_ITEM ( 'NONE', ( #311 ), #318 ) ;
#141 = SURFACE_STYLE_USAGE ( .BOTH. , #29 ) ;
#142 = UNCERTAINTY_MEASURE_WITH_UNIT (LENGTH_MEASURE( 1.000000000000000082E-05 ), #367, 'distance_accuracy_value', 'NONE');
#143 =( NAMED_UNIT ( * ) SI_UNIT ( $, .STERADIAN. ) SOLID_ANGLE_UNIT ( ) );
#144 =( NAMED_UNIT ( * ) PLANE_ANGLE_UNIT ( ) SI_UNIT ( $, .RADIAN. ) );
#145 = PLANE ( 'NONE',  #97 ) ;
#146 = AXIS2_PLACEMENT_3D ( 'NONE', #6, #49, #256 ) ;
#147 = DIRECTION ( 'NONE',  ( 1.560495851798313744E-17, 1.000000000000000000, -0.000000000000000000 ) ) ;
#148 =( NAMED_UNIT ( * ) PLANE_ANGLE_UNIT ( ) SI_UNIT ( $, .RADIAN. ) );
#149 = EDGE_CURVE ( 'NONE', #1, #121, #241, .T. ) ;
#150 = PRESENTATION_LAYER_ASSIGNMENT (  '', '', ( #366 ) ) ;
#151 = TOROIDAL_SURFACE ( 'NONE', #339, 5.500000000000000000, 0.5000000000000002220 ) ;
#152 = AXIS2_PLACEMENT_3D ( 'NONE', #224, #328, #70 ) ;
#153 = EDGE_LOOP ( 'NONE', ( #281, #295 ) ) ;
#154 = SURFACE_SIDE_STYLE ('',( #348 ) ) ;
#155 = EDGE_LOOP ( 'NONE', ( #271, #17, #360, #325 ) ) ;
#156 = FILL_AREA_STYLE_COLOUR ( '', #164 ) ;
#157 = ADVANCED_BREP_SHAPE_REPRESENTATION ( '59775', ( #319, #318, #229 ), #20 ) ;
#158 = DIRECTION ( 'NONE',  ( 0.000000000000000000, 0.000000000000000000, -1.000000000000000000 ) ) ;
#159 = VERTEX_POINT ( 'NONE', #179 ) ;
#160 = MECHANICAL_DESIGN_GEOMETRIC_PRESENTATION_REPRESENTATION (  '', ( #207 ), #307 ) ;
#161 = FACE_OUTER_BOUND ( 'NONE', #9, .T. ) ;
#162 = FILL_AREA_STYLE ('',( #69 ) ) ;
#163 = CARTESIAN_POINT ( 'NONE',  ( 0.000000000000000000, 0.000000000000000000, 0.000000000000000000 ) ) ;
#164 = COLOUR_RGB ( '',1.000000000000000000, 0.000000000000000000, 0.000000000000000000 ) ;
#165 = FILL_AREA_STYLE_COLOUR ( '', #109 ) ;
#166 = PRESENTATION_STYLE_ASSIGNMENT (( #141 ) ) ;
#167 = EDGE_CURVE ( 'NONE', #159, #21, #336, .T. ) ;
#168 = SURFACE_STYLE_FILL_AREA ( #231 ) ;
#169 = CIRCLE ( 'NONE', #222, 6.000000000000000000 ) ;
#170 = MECHANICAL_DESIGN_GEOMETRIC_PRESENTATION_REPRESENTATION (  '', ( #298 ), #236 ) ;
#171 = DIRECTION ( 'NONE',  ( 1.000000000000000000, 0.000000000000000000, 0.000000000000000000 ) ) ;
#172 = SURFACE_STYLE_USAGE ( .BOTH. , #342 ) ;
#173 = ADVANCED_FACE ( 'NONE', ( #12 ), #68, .T. ) ;
#174 = DIRECTION ( 'NONE',  ( 0.000000000000000000, 0.000000000000000000, -1.000000000000000000 ) ) ;
#175 = DIRECTION ( 'NONE',  ( -1.000000000000000000, 1.560495851798313744E-17, 0.000000000000000000 ) ) ;
#176 =( NAMED_UNIT ( * ) PLANE_ANGLE_UNIT ( ) SI_UNIT ( $, .RADIAN. ) );
#177 = ADVANCED_FACE ( 'NONE', ( #277 ), #324, .T. ) ;
#178 = ADVANCED_FACE ( 'NONE', ( #120 ), #300, .T. ) ;
#179 = CARTESIAN_POINT ( 'NONE',  ( 6.000000000000000000, 30.00000000000000000, 7.347880794884112834E-16 ) ) ;
#180 = SURFACE_STYLE_USAGE ( .BOTH. , #118 ) ;
#181 = AXIS2_PLACEMENT_3D ( 'NONE', #338, #136, #175 ) ;
#182 = VECTOR ( 'NONE', #350, 1000.000000000000000 ) ;
#183 = CARTESIAN_POINT ( 'NONE',  ( 7.347880794884119736E-16, 30.00000000000000000, 6.000000000000000000 ) ) ;
#184 = SURFACE_STYLE_USAGE ( .BOTH. , #130 ) ;
#185 = VERTEX_POINT ( 'NONE', #77 ) ;
#186 = DIRECTION ( 'NONE',  ( -0.000000000000000000, -1.000000000000000000, -0.000000000000000000 ) ) ;
#187 = CIRCLE ( 'NONE', #208, 5.500000000000000000 ) ;
#188 = ORIENTED_EDGE ( 'NONE', *, *, #205, .F. ) ;
#189 = AXIS2_PLACEMENT_3D ( 'NONE', #212, #247, #92 ) ;
#190 = DIRECTION ( 'NONE',  ( 1.000000000000000000, 0.000000000000000000, -1.224646799147353207E-16 ) ) ;
#191 = SURFACE_STYLE_USAGE ( .BOTH. , #75 ) ;
#192 = CARTESIAN_POINT ( 'NONE',  ( 6.000000000000000000, 75.00000000000000000, 7.347880794884112834E-16 ) ) ;
#193 = CIRCLE ( 'NONE', #18, 6.000000000000000000 ) ;
#194 = ORIENTED_EDGE ( 'NONE', *, *, #195, .T. ) ;
#195 = EDGE_CURVE ( 'NONE', #266, #121, #193, .T. ) ;
#196 = SURFACE_STYLE_USAGE ( .BOTH. , #88 ) ;
#197 = EDGE_CURVE ( 'NONE', #46, #284, #35, .T. ) ;
#198 = CARTESIAN_POINT ( 'NONE',  ( 0.000000000000000000, 0.5000000000000000000, -5.500000000000000000 ) ) ;
#199 = UNCERTAINTY_MEASURE_WITH_UNIT (LENGTH_MEASURE( 1.000000000000000082E-05 ), #356, 'distance_accuracy_value', 'NONE');
#200 =( NAMED_UNIT ( * ) SI_UNIT ( $, .STERADIAN. ) SOLID_ANGLE_UNIT ( ) );
#201 = EDGE_CURVE ( 'NONE', #284, #46, #362, .T. ) ;
#202 = PRESENTATION_LAYER_ASSIGNMENT (  '', '', ( #274 ) ) ;
#203 = SHAPE_DEFINITION_REPRESENTATION ( #26, #157 ) ;
#204 = CARTESIAN_POINT ( 'NONE',  ( 7.347880794884119736E-16, 0.000000000000000000, 6.000000000000000000 ) ) ;
#205 = EDGE_CURVE ( 'NONE', #121, #331, #258, .T. ) ;
#206 = SURFACE_STYLE_USAGE ( .BOTH. , #154 ) ;
#207 = STYLED_ITEM ( 'NONE', ( #363 ), #232 ) ;
#208 = AXIS2_PLACEMENT_3D ( 'NONE', #56, #293, #174 ) ;
#209 = ORIENTED_EDGE ( 'NONE', *, *, #270, .T. ) ;
#210 = EDGE_CURVE ( 'NONE', #185, #331, #228, .T. ) ;
#211 = ORIENTED_EDGE ( 'NONE', *, *, #205, .T. ) ;
#212 = CARTESIAN_POINT ( 'NONE',  ( 5.421010862427522170E-15, 30.00000000000000000, 0.000000000000000000 ) ) ;
#213 = ORIENTED_EDGE ( 'NONE', *, *, #335, .T. ) ;
#214 = DIRECTION ( 'NONE',  ( 1.560495851798313744E-17, 1.000000000000000000, -0.000000000000000000 ) ) ;
#215 = EDGE_LOOP ( 'NONE', ( #188, #299, #213, #353 ) ) ;
#216 = SURFACE_SIDE_STYLE ('',( #219 ) ) ;
#217 = ORIENTED_EDGE ( 'NONE', *, *, #218, .F. ) ;
#218 = EDGE_CURVE ( 'NONE', #121, #266, #63, .T. ) ;
#219 = SURFACE_STYLE_FILL_AREA ( #101 ) ;
#220 = AXIS2_PLACEMENT_3D ( 'NONE', #198, #135, #82 ) ;
#221 = PRESENTATION_LAYER_ASSIGNMENT (  '', '', ( #96 ) ) ;
#222 = AXIS2_PLACEMENT_3D ( 'NONE', #361, #285, #158 ) ;
#223 = FILL_AREA_STYLE ('',( #359 ) ) ;
#224 = CARTESIAN_POINT ( 'NONE',  ( 6.123233995736762930E-15, 75.00000000000000000, 0.000000000000000000 ) ) ;
#225 = DIRECTION ( 'NONE',  ( -0.000000000000000000, -1.000000000000000000, -0.000000000000000000 ) ) ;
#226 = CARTESIAN_POINT ( 'NONE',  ( -5.999999999999989342, 30.00000000000000000, 0.000000000000000000 ) ) ;
#227 = CLOSED_SHELL ( 'NONE', ( #50, #76, #177, #139 ) ) ;
#228 = CIRCLE ( 'NONE', #132, 5.500000000000000000 ) ;
#229 = AXIS2_PLACEMENT_3D ( 'NONE', #291, #85, #171 ) ;
#230 =( LENGTH_UNIT ( ) NAMED_UNIT ( * ) SI_UNIT ( .MILLI., .METRE. ) );
#231 = FILL_AREA_STYLE ('',( #294 ) ) ;
#232 = ADVANCED_FACE ( 'NONE', ( #161 ), #289, .T. ) ;
#233 = PRODUCT_CONTEXT ( 'NONE', #304, 'mechanical' ) ;
#234 = PRESENTATION_STYLE_ASSIGNMENT (( #172 ) ) ;
#235 = PRESENTATION_LAYER_ASSIGNMENT (  '', '', ( #25 ) ) ;
#236 =( GEOMETRIC_REPRESENTATION_CONTEXT ( 3 ) GLOBAL_UNCERTAINTY_ASSIGNED_CONTEXT ( ( #53 ) ) GLOBAL_UNIT_ASSIGNED_CONTEXT ( ( #94, #176, #42 ) ) REPRESENTATION_CONTEXT ( 'NONE', 'WORKASPACE' ) );
#237 = PRESENTATION_STYLE_ASSIGNMENT (( #196 ) ) ;
#238 = EDGE_LOOP ( 'NONE', ( #329, #108, #13, #246 ) ) ;
#239 = FACE_OUTER_BOUND ( 'NONE', #215, .T. ) ;
#240 = ORIENTED_EDGE ( 'NONE', *, *, #335, .F. ) ;
#241 = LINE ( 'NONE', #204, #182 ) ;
#242 = MECHANICAL_DESIGN_GEOMETRIC_PRESENTATION_REPRESENTATION (  '', ( #346 ), #354 ) ;
#243 = CARTESIAN_POINT ( 'NONE',  ( 6.000000000000000000, 75.00000000000000000, 0.000000000000000000 ) ) ;
#244 = CYLINDRICAL_SURFACE ( 'NONE', #124, 5.999999999999994671 ) ;
#245 = FILL_AREA_STYLE ('',( #16 ) ) ;
#246 = ORIENTED_EDGE ( 'NONE', *, *, #36, .F. ) ;
#247 = DIRECTION ( 'NONE',  ( 1.560495851798313744E-17, 1.000000000000000000, -0.000000000000000000 ) ) ;
#248 = COLOUR_RGB ( '',1.000000000000000000, 0.000000000000000000, 0.000000000000000000 ) ;
#249 = AXIS2_PLACEMENT_3D ( 'NONE', #310, #190, #302 ) ;
#250 =( GEOMETRIC_REPRESENTATION_CONTEXT ( 3 ) GLOBAL_UNCERTAINTY_ASSIGNED_CONTEXT ( ( #107 ) ) GLOBAL_UNIT_ASSIGNED_CONTEXT ( ( #2, #79, #61 ) ) REPRESENTATION_CONTEXT ( 'NONE', 'WORKASPACE' ) );
#251 = CARTESIAN_POINT ( 'NONE',  ( 0.000000000000000000, 0.000000000000000000, -6.000000000000000000 ) ) ;
#252 = DIRECTION ( 'NONE',  ( 1.560495851798313744E-17, 1.000000000000000000, -0.000000000000000000 ) ) ;
#253 = SURFACE_STYLE_FILL_AREA ( #162 ) ;
#254 = EDGE_CURVE ( 'NONE', #21, #46, #74, .T. ) ;
#255 = PRESENTATION_STYLE_ASSIGNMENT (( #184 ) ) ;
#256 = DIRECTION ( 'NONE',  ( 0.000000000000000000, -0.000000000000000000, 1.000000000000000000 ) ) ;
#257 = APPLICATION_CONTEXT ( 'automotive_design' ) ;
#258 = CIRCLE ( 'NONE', #249, 0.5000000000000004441 ) ;
#259 = CARTESIAN_POINT ( 'NONE',  ( 0.000000000000000000, 0.5000000000000000000, -6.000000000000000000 ) ) ;
#260 = UNCERTAINTY_MEASURE_WITH_UNIT (LENGTH_MEASURE( 1.000000000000000082E-05 ), #230, 'distance_accuracy_value', 'NONE');
#261 = FILL_AREA_STYLE_COLOUR ( '', #102 ) ;
#262 = FILL_AREA_STYLE ('',( #370 ) ) ;
#263 = PRODUCT_DEFINITION_FORMATION_WITH_SPECIFIED_SOURCE ( 'ANY', '', #279, .NOT_KNOWN. ) ;
#264 = AXIS2_PLACEMENT_3D ( 'NONE', #89, #345, #91 ) ;
#265 =( NAMED_UNIT ( * ) PLANE_ANGLE_UNIT ( ) SI_UNIT ( $, .RADIAN. ) );
#266 = VERTEX_POINT ( 'NONE', #259 ) ;
#267 = AXIS2_PLACEMENT_3D ( 'NONE', #280, #39, #64 ) ;
#268 = DIRECTION ( 'NONE',  ( -0.000000000000000000, -1.000000000000000000, -0.000000000000000000 ) ) ;
#269 = PRESENTATION_STYLE_ASSIGNMENT (( #206 ) ) ;
#270 = EDGE_CURVE ( 'NONE', #1, #308, #169, .T. ) ;
#271 = ORIENTED_EDGE ( 'NONE', *, *, #119, .T. ) ;
#272 = AXIS2_PLACEMENT_3D ( 'NONE', #24, #288, #133 ) ;
#273 = DIRECTION ( 'NONE',  ( 1.000000000000000000, -1.560495851798313744E-17, 0.000000000000000000 ) ) ;
#274 = STYLED_ITEM ( 'NONE', ( #237 ), #78 ) ;
#275 = CIRCLE ( 'NONE', #8, 6.000000000000000000 ) ;
#276 = ORIENTED_EDGE ( 'NONE', *, *, #201, .F. ) ;
#277 = FACE_OUTER_BOUND ( 'NONE', #44, .T. ) ;
#278 = ORIENTED_EDGE ( 'NONE', *, *, #210, .T. ) ;
#279 = PRODUCT ( '59775', '59775', '', ( #233 ) ) ;
#280 = CARTESIAN_POINT ( 'NONE',  ( 0.000000000000000000, 0.000000000000000000, 0.000000000000000000 ) ) ;
#281 = ORIENTED_EDGE ( 'NONE', *, *, #197, .T. ) ;
#282 = EDGE_CURVE ( 'NONE', #159, #284, #22, .T. ) ;
#283 = AXIS2_PLACEMENT_3D ( 'NONE', #19, #186, #105 ) ;
#284 = VERTEX_POINT ( 'NONE', #192 ) ;
#285 = DIRECTION ( 'NONE',  ( -0.000000000000000000, -1.000000000000000000, -0.000000000000000000 ) ) ;
#286 = CARTESIAN_POINT ( 'NONE',  ( 6.123233995736762930E-15, 75.00000000000000000, 0.000000000000000000 ) ) ;
#287 =( NAMED_UNIT ( * ) PLANE_ANGLE_UNIT ( ) SI_UNIT ( $, .RADIAN. ) );
#288 = DIRECTION ( 'NONE',  ( -0.000000000000000000, -1.000000000000000000, -0.000000000000000000 ) ) ;
#289 = CYLINDRICAL_SURFACE ( 'NONE', #272, 6.000000000000000000 ) ;
#290 = UNCERTAINTY_MEASURE_WITH_UNIT (LENGTH_MEASURE( 1.000000000000000082E-05 ), #330, 'distance_accuracy_value', 'NONE');
#291 = CARTESIAN_POINT ( 'NONE',  ( 0.000000000000000000, 0.000000000000000000, 0.000000000000000000 ) ) ;
#292 =( GEOMETRIC_REPRESENTATION_CONTEXT ( 3 ) GLOBAL_UNCERTAINTY_ASSIGNED_CONTEXT ( ( #33 ) ) GLOBAL_UNIT_ASSIGNED_CONTEXT ( ( #37, #148, #322 ) ) REPRESENTATION_CONTEXT ( 'NONE', 'WORKASPACE' ) );
#293 = DIRECTION ( 'NONE',  ( -0.000000000000000000, -1.000000000000000000, -0.000000000000000000 ) ) ;
#294 = FILL_AREA_STYLE_COLOUR ( '', #4 ) ;
#295 = ORIENTED_EDGE ( 'NONE', *, *, #201, .T. ) ;
#296 = COLOUR_RGB ( '',1.000000000000000000, 0.000000000000000000, 0.000000000000000000 ) ;
#297 = FILL_AREA_STYLE ('',( #156 ) ) ;
#298 = STYLED_ITEM ( 'NONE', ( #7 ), #178 ) ;
#299 = ORIENTED_EDGE ( 'NONE', *, *, #218, .T. ) ;
#300 = PLANE ( 'NONE',  #146 ) ;
#301 = ORIENTED_EDGE ( 'NONE', *, *, #167, .T. ) ;
#302 = DIRECTION ( 'NONE',  ( -1.224646799147353454E-16, 0.000000000000000000, -1.000000000000000000 ) ) ;
#303 = ORIENTED_EDGE ( 'NONE', *, *, #119, .F. ) ;
#304 = APPLICATION_CONTEXT ( 'automotive_design' ) ;
#305 = SURFACE_STYLE_USAGE ( .BOTH. , #216 ) ;
#306 = AXIS2_PLACEMENT_3D ( 'NONE', #45, #252, #127 ) ;
#307 =( GEOMETRIC_REPRESENTATION_CONTEXT ( 3 ) GLOBAL_UNCERTAINTY_ASSIGNED_CONTEXT ( ( #290 ) ) GLOBAL_UNIT_ASSIGNED_CONTEXT ( ( #330, #287, #134 ) ) REPRESENTATION_CONTEXT ( 'NONE', 'WORKASPACE' ) );
#308 = VERTEX_POINT ( 'NONE', #129 ) ;
#309 = DIRECTION ( 'NONE',  ( 0.000000000000000000, 0.000000000000000000, -1.000000000000000000 ) ) ;
#310 = CARTESIAN_POINT ( 'NONE',  ( 6.735557395310442023E-16, 0.5000000000000000000, 5.500000000000000000 ) ) ;
#311 = PRESENTATION_STYLE_ASSIGNMENT (( #191 ) ) ;
#312 = CLOSED_SHELL ( 'NONE', ( #173, #52, #84, #78, #232, #178 ) ) ;
#313 = VECTOR ( 'NONE', #357, 1000.000000000000000 ) ;
#314 =( NAMED_UNIT ( * ) PLANE_ANGLE_UNIT ( ) SI_UNIT ( $, .RADIAN. ) );
#315 = SURFACE_STYLE_FILL_AREA ( #114 ) ;
#316 = CARTESIAN_POINT ( 'NONE',  ( 0.000000000000000000, 0.5000000000000000000, 0.000000000000000000 ) ) ;
#317 = SURFACE_STYLE_FILL_AREA ( #262 ) ;
#318 = MANIFOLD_SOLID_BREP ( 'Revolve - Tool Body (Straight Shanked)', #227 ) ;
#319 = MANIFOLD_SOLID_BREP ( 'Revolve - Cutting Edge', #312 ) ;
#320 = CIRCLE ( 'NONE', #220, 0.5000000000000004441 ) ;
#321 = PRESENTATION_LAYER_ASSIGNMENT (  '', '', ( #207 ) ) ;
#322 =( NAMED_UNIT ( * ) SI_UNIT ( $, .STERADIAN. ) SOLID_ANGLE_UNIT ( ) );
#323 = CARTESIAN_POINT ( 'NONE',  ( 7.347880794884119736E-16, 0.5000000000000000000, 6.000000000000000000 ) ) ;
#324 = CYLINDRICAL_SURFACE ( 'NONE', #326, 5.999999999999994671 ) ;
#325 = ORIENTED_EDGE ( 'NONE', *, *, #254, .F. ) ;
#326 = AXIS2_PLACEMENT_3D ( 'NONE', #14, #147, #352 ) ;
#327 = ORIENTED_EDGE ( 'NONE', *, *, #167, .F. ) ;
#328 = DIRECTION ( 'NONE',  ( 1.560495851798313744E-17, 1.000000000000000000, -0.000000000000000000 ) ) ;
#329 = ORIENTED_EDGE ( 'NONE', *, *, #332, .T. ) ;
#330 =( LENGTH_UNIT ( ) NAMED_UNIT ( * ) SI_UNIT ( .MILLI., .METRE. ) );
#331 = VERTEX_POINT ( 'NONE', #83 ) ;
#332 = EDGE_CURVE ( 'NONE', #308, #1, #275, .T. ) ;
#333 = MECHANICAL_DESIGN_GEOMETRIC_PRESENTATION_REPRESENTATION (  '', ( #25 ), #103 ) ;
#334 = SURFACE_STYLE_FILL_AREA ( #223 ) ;
#335 = EDGE_CURVE ( 'NONE', #266, #185, #320, .T. ) ;
#336 = CIRCLE ( 'NONE', #189, 5.999999999999994671 ) ;
#337 = CARTESIAN_POINT ( 'NONE',  ( 0.000000000000000000, 0.000000000000000000, 0.000000000000000000 ) ) ;
#338 = CARTESIAN_POINT ( 'NONE',  ( 5.421010862427522170E-15, 30.00000000000000000, 0.000000000000000000 ) ) ;
#339 = AXIS2_PLACEMENT_3D ( 'NONE', #86, #58, #28 ) ;
#340 = CIRCLE ( 'NONE', #264, 5.999999999999994671 ) ;
#341 = UNCERTAINTY_MEASURE_WITH_UNIT (LENGTH_MEASURE( 1.000000000000000082E-05 ), #112, 'distance_accuracy_value', 'NONE');
#342 = SURFACE_SIDE_STYLE ('',( #168 ) ) ;
#343 =( NAMED_UNIT ( * ) PLANE_ANGLE_UNIT ( ) SI_UNIT ( $, .RADIAN. ) );
#344 = UNCERTAINTY_MEASURE_WITH_UNIT (LENGTH_MEASURE( 1.000000000000000082E-05 ), #3, 'distance_accuracy_value', 'NONE');
#345 = DIRECTION ( 'NONE',  ( 1.560495851798313744E-17, 1.000000000000000000, -0.000000000000000000 ) ) ;
#346 = STYLED_ITEM ( 'NONE', ( #234 ), #84 ) ;
#347 = COLOUR_RGB ( '',0.7921568627450980005, 0.8196078431372548767, 0.9333333333333333481 ) ;
#348 = SURFACE_STYLE_FILL_AREA ( #245 ) ;
#349 = EDGE_LOOP ( 'NONE', ( #116, #95 ) ) ;
#350 = DIRECTION ( 'NONE',  ( -0.000000000000000000, -1.000000000000000000, -0.000000000000000000 ) ) ;
#351 = EDGE_CURVE ( 'NONE', #331, #185, #187, .T. ) ;
#352 = DIRECTION ( 'NONE',  ( -1.000000000000000000, 0.000000000000000000, 0.000000000000000000 ) ) ;
#353 = ORIENTED_EDGE ( 'NONE', *, *, #351, .F. ) ;
#354 =( GEOMETRIC_REPRESENTATION_CONTEXT ( 3 ) GLOBAL_UNCERTAINTY_ASSIGNED_CONTEXT ( ( #344 ) ) GLOBAL_UNIT_ASSIGNED_CONTEXT ( ( #3, #343, #5 ) ) REPRESENTATION_CONTEXT ( 'NONE', 'WORKASPACE' ) );
#355 = PLANE ( 'NONE',  #126 ) ;
#356 =( LENGTH_UNIT ( ) NAMED_UNIT ( * ) SI_UNIT ( .MILLI., .METRE. ) );
#357 = DIRECTION ( 'NONE',  ( 1.560495851798313744E-17, 1.000000000000000000, -0.000000000000000000 ) ) ;
#358 = ORIENTED_EDGE ( 'NONE', *, *, #254, .T. ) ;
#359 = FILL_AREA_STYLE_COLOUR ( '', #347 ) ;
#360 = ORIENTED_EDGE ( 'NONE', *, *, #197, .F. ) ;
#361 = CARTESIAN_POINT ( 'NONE',  ( 0.000000000000000000, 30.00000000000000000, 0.000000000000000000 ) ) ;
#362 = CIRCLE ( 'NONE', #306, 5.999999999999993783 ) ;
#363 = PRESENTATION_STYLE_ASSIGNMENT (( #305 ) ) ;
#364 =( NAMED_UNIT ( * ) SI_UNIT ( $, .STERADIAN. ) SOLID_ANGLE_UNIT ( ) );
#365 = PRESENTATION_LAYER_ASSIGNMENT (  '', '', ( #140 ) ) ;
#366 = STYLED_ITEM ( 'NONE', ( #166 ), #319 ) ;
#367 =( LENGTH_UNIT ( ) NAMED_UNIT ( * ) SI_UNIT ( .MILLI., .METRE. ) );
#368 = FACE_OUTER_BOUND ( 'NONE', #71, .T. ) ;
#369 = PRODUCT_DEFINITION_CONTEXT ( 'detailed design', #257, 'design' ) ;
#370 = FILL_AREA_STYLE_COLOUR ( '', #296 ) ;
ENDSEC;
END-ISO-10303-21;
