ISO-10303-21;
HEADER;
FILE_DESCRIPTION (( 'STEP AP214' ),
    '1' );
FILE_NAME ('17167.STEP',
    '2023-06-30T21:52:57',
    ( '' ),
    ( '' ),
    'SwSTEP 2.0',
    'SolidWorks 2023',
    '' );
FILE_SCHEMA (( 'AUTOMOTIVE_DESIGN' ));
ENDSEC;

DATA;
#1 = CARTESIAN_POINT ( 'NONE',  ( 0.000000000000000000, 0.7500000000000001110, 0.000000000000000000 ) ) ;
#2 = DIRECTION ( 'NONE',  ( -0.000000000000000000, -1.000000000000000000, -0.000000000000000000 ) ) ;
#3 = ORIENTED_EDGE ( 'NONE', *, *, #241, .F. ) ;
#4 = EDGE_CURVE ( 'NONE', #118, #10, #98, .T. ) ;
#5 = SURFACE_STYLE_USAGE ( .BOTH. , #291 ) ;
#6 = AXIS2_PLACEMENT_3D ( 'NONE', #233, #349, #292 ) ;
#7 = EDGE_LOOP ( 'NONE', ( #84, #284, #325, #136 ) ) ;
#8 =( NAMED_UNIT ( * ) SI_UNIT ( $, .STERADIAN. ) SOLID_ANGLE_UNIT ( ) );
#9 = UNCERTAINTY_MEASURE_WITH_UNIT (LENGTH_MEASURE( 1.000000000000000082E-05 ), #109, 'distance_accuracy_value', 'NONE');
#10 = VERTEX_POINT ( 'NONE', #297 ) ;
#11 = DIRECTION ( 'NONE',  ( -1.574545884618025482E-16, 1.000000000000000000, -0.000000000000000000 ) ) ;
#12 = SURFACE_STYLE_FILL_AREA ( #66 ) ;
#13 = CIRCLE ( 'NONE', #230, 0.1250000000000000000 ) ;
#14 = DIRECTION ( 'NONE',  ( -1.000000000000000000, 0.000000000000000000, 0.000000000000000000 ) ) ;
#15 = EDGE_LOOP ( 'NONE', ( #104, #337 ) ) ;
#16 = ORIENTED_EDGE ( 'NONE', *, *, #29, .T. ) ;
#17 = DIRECTION ( 'NONE',  ( -0.000000000000000000, -1.000000000000000000, -0.000000000000000000 ) ) ;
#18 = STYLED_ITEM ( 'NONE', ( #304 ), #185 ) ;
#19 = SURFACE_STYLE_FILL_AREA ( #278 ) ;
#20 = EDGE_LOOP ( 'NONE', ( #206, #16, #54, #116 ) ) ;
#21 = DIMENSIONAL_EXPONENTS ( 1.000000000000000000, 0.000000000000000000, 0.000000000000000000, 0.000000000000000000, 0.000000000000000000, 0.000000000000000000, 0.000000000000000000 ) ;
#22 =( NAMED_UNIT ( * ) SI_UNIT ( $, .STERADIAN. ) SOLID_ANGLE_UNIT ( ) );
#23 = CARTESIAN_POINT ( 'NONE',  ( 0.1249999999999999167, 0.7499999999999998890, 1.530808498934190276E-17 ) ) ;
#24 = COLOUR_RGB ( '',1.000000000000000000, 0.000000000000000000, 0.000000000000000000 ) ;
#25 = LENGTH_MEASURE_WITH_UNIT ( LENGTH_MEASURE( 0.02539999999999999897 ), #277 );
#26 = CARTESIAN_POINT ( 'NONE',  ( 0.000000000000000000, 0.1250000000000000278, 0.000000000000000000 ) ) ;
#27 = EDGE_LOOP ( 'NONE', ( #315, #52 ) ) ;
#28 = ORIENTED_EDGE ( 'NONE', *, *, #57, .T. ) ;
#29 = EDGE_CURVE ( 'NONE', #318, #200, #132, .T. ) ;
#30 = SHAPE_DEFINITION_REPRESENTATION ( #302, #106 ) ;
#31 = ADVANCED_FACE ( 'NONE', ( #228 ), #208, .T. ) ;
#32 =( LENGTH_UNIT ( ) NAMED_UNIT ( * ) SI_UNIT ( $, .METRE. ) );
#33 = CIRCLE ( 'NONE', #49, 0.1250000000000000000 ) ;
#34 = DIRECTION ( 'NONE',  ( -1.000000000000000000, 0.000000000000000000, 0.000000000000000000 ) ) ;
#35 = FACE_OUTER_BOUND ( 'NONE', #286, .T. ) ;
#36 =( NAMED_UNIT ( * ) PLANE_ANGLE_UNIT ( ) SI_UNIT ( $, .RADIAN. ) );
#37 = VERTEX_POINT ( 'NONE', #221 ) ;
#38 = AXIS2_PLACEMENT_3D ( 'NONE', #191, #273, #14 ) ;
#39 = DIRECTION ( 'NONE',  ( -1.574545884618025482E-16, 1.000000000000000000, -0.000000000000000000 ) ) ;
#40 = CIRCLE ( 'NONE', #82, 0.1249999999999996947 ) ;
#41 =( LENGTH_UNIT ( ) NAMED_UNIT ( * ) SI_UNIT ( $, .METRE. ) );
#42 = DIRECTION ( 'NONE',  ( 1.000000000000000000, 1.574545884618025482E-16, 0.000000000000000000 ) ) ;
#43 = DIRECTION ( 'NONE',  ( 1.574545884618025482E-16, -1.000000000000000000, 0.000000000000000000 ) ) ;
#44 = DIRECTION ( 'NONE',  ( 0.000000000000000000, 0.000000000000000000, -1.000000000000000000 ) ) ;
#45 = STYLED_ITEM ( 'NONE', ( #371 ), #258 ) ;
#46 = PRODUCT_RELATED_PRODUCT_CATEGORY ( 'part', '', ( #245 ) ) ;
#47 = DIMENSIONAL_EXPONENTS ( 1.000000000000000000, 0.000000000000000000, 0.000000000000000000, 0.000000000000000000, 0.000000000000000000, 0.000000000000000000, 0.000000000000000000 ) ;
#48 = MECHANICAL_DESIGN_GEOMETRIC_PRESENTATION_REPRESENTATION (  '', ( #281 ), #311 ) ;
#49 = AXIS2_PLACEMENT_3D ( 'NONE', #270, #267, #271 ) ;
#50 = ORIENTED_EDGE ( 'NONE', *, *, #219, .T. ) ;
#51 = ADVANCED_FACE ( 'NONE', ( #58 ), #128, .T. ) ;
#52 = ORIENTED_EDGE ( 'NONE', *, *, #124, .T. ) ;
#53 =( LENGTH_UNIT ( ) NAMED_UNIT ( * ) SI_UNIT ( $, .METRE. ) );
#54 = ORIENTED_EDGE ( 'NONE', *, *, #138, .T. ) ;
#55 = CIRCLE ( 'NONE', #157, 0.1250000000000000000 ) ;
#56 = DIRECTION ( 'NONE',  ( -0.000000000000000000, -1.000000000000000000, -0.000000000000000000 ) ) ;
#57 = EDGE_CURVE ( 'NONE', #118, #37, #55, .T. ) ;
#58 = FACE_OUTER_BOUND ( 'NONE', #121, .T. ) ;
#59 =( NAMED_UNIT ( * ) PLANE_ANGLE_UNIT ( ) SI_UNIT ( $, .RADIAN. ) );
#60 =( LENGTH_UNIT ( ) NAMED_UNIT ( * ) SI_UNIT ( $, .METRE. ) );
#61 = MECHANICAL_DESIGN_GEOMETRIC_PRESENTATION_REPRESENTATION (  '', ( #18 ), #158 ) ;
#62 = ORIENTED_EDGE ( 'NONE', *, *, #276, .T. ) ;
#63 = MECHANICAL_DESIGN_GEOMETRIC_PRESENTATION_REPRESENTATION (  '', ( #45 ), #246 ) ;
#64 = MANIFOLD_SOLID_BREP ( 'Revolve - Tool Body (Straight Shanked)', #120 ) ;
#65 = DIRECTION ( 'NONE',  ( -1.574545884618025482E-16, 1.000000000000000000, -0.000000000000000000 ) ) ;
#66 = FILL_AREA_STYLE ('',( #222 ) ) ;
#67 = CARTESIAN_POINT ( 'NONE',  ( 0.1250000000000000000, 0.1250000000000000278, 0.000000000000000000 ) ) ;
#68 = SURFACE_STYLE_FILL_AREA ( #78 ) ;
#69 = DIRECTION ( 'NONE',  ( -1.574545884618025482E-16, 1.000000000000000000, 0.000000000000000000 ) ) ;
#70 = PRODUCT_DEFINITION ( 'UNKNOWN', '', #269, #113 ) ;
#71 = PRESENTATION_STYLE_ASSIGNMENT (( #186 ) ) ;
#72 = DIRECTION ( 'NONE',  ( -1.000000000000000000, -1.574545884618025482E-16, 0.000000000000000000 ) ) ;
#73 = COLOUR_RGB ( '',0.7921568627450980005, 0.8196078431372548767, 0.9333333333333333481 ) ;
#74 = DIRECTION ( 'NONE',  ( -1.000000000000000000, 0.000000000000000000, 0.000000000000000000 ) ) ;
#75 = AXIS2_PLACEMENT_3D ( 'NONE', #89, #205, #44 ) ;
#76 = SURFACE_SIDE_STYLE ('',( #19 ) ) ;
#77 = CYLINDRICAL_SURFACE ( 'NONE', #250, 0.1249999999999999445 ) ;
#78 = FILL_AREA_STYLE ('',( #283 ) ) ;
#79 = CARTESIAN_POINT ( 'NONE',  ( -0.1249999999999999029, 2.500000000000000000, 0.000000000000000000 ) ) ;
#80 = VERTEX_POINT ( 'NONE', #217 ) ;
#81 =( CONVERSION_BASED_UNIT ( 'INCH', #85 ) LENGTH_UNIT ( ) NAMED_UNIT ( #305 ) );
#82 = AXIS2_PLACEMENT_3D ( 'NONE', #139, #65, #358 ) ;
#83 = FILL_AREA_STYLE ('',( #280 ) ) ;
#84 = ORIENTED_EDGE ( 'NONE', *, *, #298, .T. ) ;
#85 = LENGTH_MEASURE_WITH_UNIT ( LENGTH_MEASURE( 0.02539999999999999897 ), #150 );
#86 = DIRECTION ( 'NONE',  ( 0.000000000000000000, 0.000000000000000000, 1.000000000000000000 ) ) ;
#87 = CIRCLE ( 'NONE', #195, 0.1250000000000000000 ) ;
#88 = STYLED_ITEM ( 'NONE', ( #95 ), #193 ) ;
#89 = CARTESIAN_POINT ( 'NONE',  ( 0.000000000000000000, 0.000000000000000000, 0.000000000000000000 ) ) ;
#90 = EDGE_CURVE ( 'NONE', #170, #161, #295, .T. ) ;
#91 = DIRECTION ( 'NONE',  ( -0.000000000000000000, -1.000000000000000000, -0.000000000000000000 ) ) ;
#92 = MECHANICAL_DESIGN_GEOMETRIC_PRESENTATION_REPRESENTATION (  '', ( #260 ), #189 ) ;
#93 = CARTESIAN_POINT ( 'NONE',  ( 0.000000000000000000, 0.7500000000000001110, 0.000000000000000000 ) ) ;
#94 = UNCERTAINTY_MEASURE_WITH_UNIT (LENGTH_MEASURE( 1.000000000000000082E-05 ), #303, 'distance_accuracy_value', 'NONE');
#95 = PRESENTATION_STYLE_ASSIGNMENT (( #236 ) ) ;
#96 = FILL_AREA_STYLE ('',( #239 ) ) ;
#97 = LENGTH_MEASURE_WITH_UNIT ( LENGTH_MEASURE( 0.02539999999999999897 ), #60 );
#98 = CIRCLE ( 'NONE', #331, 0.1250000000000000000 ) ;
#99 = COLOUR_RGB ( '',1.000000000000000000, 0.000000000000000000, 0.000000000000000000 ) ;
#100 = CARTESIAN_POINT ( 'NONE',  ( -6.123233995736766036E-17, 2.500000000000000000, 0.000000000000000000 ) ) ;
#101 =( NAMED_UNIT ( * ) SI_UNIT ( $, .STERADIAN. ) SOLID_ANGLE_UNIT ( ) );
#102 = APPLICATION_CONTEXT ( 'automotive_design' ) ;
#103 = SURFACE_STYLE_USAGE ( .BOTH. , #190 ) ;
#104 = ORIENTED_EDGE ( 'NONE', *, *, #219, .F. ) ;
#105 = FILL_AREA_STYLE ('',( #199 ) ) ;
#106 = ADVANCED_BREP_SHAPE_REPRESENTATION ( '17167', ( #193, #64, #172 ), #326 ) ;
#107 = CARTESIAN_POINT ( 'NONE',  ( 0.1249999999999999306, 2.500000000000000000, 0.000000000000000000 ) ) ;
#108 =( LENGTH_UNIT ( ) NAMED_UNIT ( * ) SI_UNIT ( $, .METRE. ) );
#109 =( CONVERSION_BASED_UNIT ( 'INCH', #25 ) LENGTH_UNIT ( ) NAMED_UNIT ( #196 ) );
#110 =( NAMED_UNIT ( * ) SI_UNIT ( $, .STERADIAN. ) SOLID_ANGLE_UNIT ( ) );
#111 =( LENGTH_UNIT ( ) NAMED_UNIT ( * ) SI_UNIT ( $, .METRE. ) );
#112 = AXIS2_PLACEMENT_3D ( 'NONE', #100, #39, #216 ) ;
#113 = PRODUCT_DEFINITION_CONTEXT ( 'detailed design', #102, 'design' ) ;
#114 = DIMENSIONAL_EXPONENTS ( 1.000000000000000000, 0.000000000000000000, 0.000000000000000000, 0.000000000000000000, 0.000000000000000000, 0.000000000000000000, 0.000000000000000000 ) ;
#115 = FACE_OUTER_BOUND ( 'NONE', #253, .T. ) ;
#116 = ORIENTED_EDGE ( 'NONE', *, *, #124, .F. ) ;
#117 = CARTESIAN_POINT ( 'NONE',  ( -1.530808498934191509E-17, 0.1250000000000000000, 0.000000000000000000 ) ) ;
#118 = VERTEX_POINT ( 'NONE', #67 ) ;
#119 = ADVANCED_FACE ( 'NONE', ( #134 ), #285, .F. ) ;
#120 = CLOSED_SHELL ( 'NONE', ( #51, #232, #149, #119 ) ) ;
#121 = EDGE_LOOP ( 'NONE', ( #50, #314, #355, #203 ) ) ;
#122 = FILL_AREA_STYLE ('',( #156 ) ) ;
#123 = ORIENTED_EDGE ( 'NONE', *, *, #321, .T. ) ;
#124 = EDGE_CURVE ( 'NONE', #80, #178, #340, .T. ) ;
#125 = PRESENTATION_LAYER_ASSIGNMENT (  '', '', ( #162 ) ) ;
#126 = CIRCLE ( 'NONE', #322, 0.1250000000000000000 ) ;
#127 = SURFACE_STYLE_FILL_AREA ( #122 ) ;
#128 = CYLINDRICAL_SURFACE ( 'NONE', #188, 0.1249999999999998335 ) ;
#129 = DIRECTION ( 'NONE',  ( 0.000000000000000000, 0.000000000000000000, -1.000000000000000000 ) ) ;
#130 = DIRECTION ( 'NONE',  ( -1.000000000000000000, 0.000000000000000000, 0.000000000000000000 ) ) ;
#131 = CARTESIAN_POINT ( 'NONE',  ( 0.000000000000000000, 0.1250000000000000278, 0.000000000000000000 ) ) ;
#132 = CIRCLE ( 'NONE', #38, 0.1249999999999996947 ) ;
#133 = PLANE ( 'NONE',  #373 ) ;
#134 = FACE_OUTER_BOUND ( 'NONE', #27, .T. ) ;
#135 = PRESENTATION_STYLE_ASSIGNMENT (( #367 ) ) ;
#136 = ORIENTED_EDGE ( 'NONE', *, *, #4, .T. ) ;
#137 = LENGTH_MEASURE_WITH_UNIT ( LENGTH_MEASURE( 0.02539999999999999897 ), #108 );
#138 = EDGE_CURVE ( 'NONE', #200, #178, #141, .T. ) ;
#139 = CARTESIAN_POINT ( 'NONE',  ( 2.143131898507868297E-16, 0.7499999999999998890, 0.000000000000000000 ) ) ;
#140 = VECTOR ( 'NONE', #165, 39.37007874015748143 ) ;
#141 = LINE ( 'NONE', #79, #179 ) ;
#142 = PRESENTATION_LAYER_ASSIGNMENT (  '', '', ( #88 ) ) ;
#143 = LENGTH_MEASURE_WITH_UNIT ( LENGTH_MEASURE( 0.02539999999999999897 ), #111 );
#144 = EDGE_LOOP ( 'NONE', ( #154, #288 ) ) ;
#145 = ORIENTED_EDGE ( 'NONE', *, *, #4, .F. ) ;
#146 = DIRECTION ( 'NONE',  ( 0.000000000000000000, 1.000000000000000000, 0.000000000000000000 ) ) ;
#147 = DIRECTION ( 'NONE',  ( 1.000000000000000000, 0.000000000000000000, 0.000000000000000000 ) ) ;
#148 = SURFACE_STYLE_FILL_AREA ( #83 ) ;
#149 = ADVANCED_FACE ( 'NONE', ( #227 ), #244, .T. ) ;
#150 =( LENGTH_UNIT ( ) NAMED_UNIT ( * ) SI_UNIT ( $, .METRE. ) );
#151 = COLOUR_RGB ( '',1.000000000000000000, 0.000000000000000000, 0.000000000000000000 ) ;
#152 = SURFACE_SIDE_STYLE ('',( #148 ) ) ;
#153 = DIRECTION ( 'NONE',  ( 1.000000000000000000, 0.000000000000000000, 0.000000000000000000 ) ) ;
#154 = ORIENTED_EDGE ( 'NONE', *, *, #370, .F. ) ;
#155 = CARTESIAN_POINT ( 'NONE',  ( 0.000000000000000000, 0.000000000000000000, 0.000000000000000000 ) ) ;
#156 = FILL_AREA_STYLE_COLOUR ( '', #215 ) ;
#157 = AXIS2_PLACEMENT_3D ( 'NONE', #317, #268, #130 ) ;
#158 =( GEOMETRIC_REPRESENTATION_CONTEXT ( 3 ) GLOBAL_UNCERTAINTY_ASSIGNED_CONTEXT ( ( #9 ) ) GLOBAL_UNIT_ASSIGNED_CONTEXT ( ( #109, #287, #316 ) ) REPRESENTATION_CONTEXT ( 'NONE', 'WORKASPACE' ) );
#159 = ORIENTED_EDGE ( 'NONE', *, *, #90, .F. ) ;
#160 = LENGTH_MEASURE_WITH_UNIT ( LENGTH_MEASURE( 0.02539999999999999897 ), #32 );
#161 = VERTEX_POINT ( 'NONE', #334 ) ;
#162 = STYLED_ITEM ( 'NONE', ( #135 ), #31 ) ;
#163 = CARTESIAN_POINT ( 'NONE',  ( -0.1249999999999994726, 0.7499999999999998890, 0.000000000000000000 ) ) ;
#164 = CARTESIAN_POINT ( 'NONE',  ( 0.000000000000000000, 0.7500000000000001110, -0.1249999999999999029 ) ) ;
#165 = DIRECTION ( 'NONE',  ( -0.000000000000000000, -1.000000000000000000, -0.000000000000000000 ) ) ;
#166 =( GEOMETRIC_REPRESENTATION_CONTEXT ( 3 ) GLOBAL_UNCERTAINTY_ASSIGNED_CONTEXT ( ( #223 ) ) GLOBAL_UNIT_ASSIGNED_CONTEXT ( ( #207, #59, #8 ) ) REPRESENTATION_CONTEXT ( 'NONE', 'WORKASPACE' ) );
#167 = ORIENTED_EDGE ( 'NONE', *, *, #90, .T. ) ;
#168 = DIRECTION ( 'NONE',  ( -1.574545884618025482E-16, 1.000000000000000000, -0.000000000000000000 ) ) ;
#169 =( NAMED_UNIT ( * ) SI_UNIT ( $, .STERADIAN. ) SOLID_ANGLE_UNIT ( ) );
#170 = VERTEX_POINT ( 'NONE', #164 ) ;
#171 = STYLED_ITEM ( 'NONE', ( #71 ), #251 ) ;
#172 = AXIS2_PLACEMENT_3D ( 'NONE', #155, #265, #235 ) ;
#173 = CARTESIAN_POINT ( 'NONE',  ( 0.000000000000000000, 0.1250000000000000278, 0.000000000000000000 ) ) ;
#174 = EDGE_CURVE ( 'NONE', #318, #80, #220, .T. ) ;
#175 =( GEOMETRIC_REPRESENTATION_CONTEXT ( 3 ) GLOBAL_UNCERTAINTY_ASSIGNED_CONTEXT ( ( #94 ) ) GLOBAL_UNIT_ASSIGNED_CONTEXT ( ( #303, #275, #194 ) ) REPRESENTATION_CONTEXT ( 'NONE', 'WORKASPACE' ) );
#176 = EDGE_CURVE ( 'NONE', #178, #80, #87, .T. ) ;
#177 = ORIENTED_EDGE ( 'NONE', *, *, #370, .T. ) ;
#178 = VERTEX_POINT ( 'NONE', #192 ) ;
#179 = VECTOR ( 'NONE', #357, 39.37007874015748143 ) ;
#180 = UNCERTAINTY_MEASURE_WITH_UNIT (LENGTH_MEASURE( 1.000000000000000082E-05 ), #296, 'distance_accuracy_value', 'NONE');
#181 = APPLICATION_PROTOCOL_DEFINITION ( 'draft international standard', 'automotive_design', 1998, #264 ) ;
#182 = SURFACE_STYLE_FILL_AREA ( #96 ) ;
#183 = UNCERTAINTY_MEASURE_WITH_UNIT (LENGTH_MEASURE( 1.000000000000000082E-05 ), #81, 'distance_accuracy_value', 'NONE');
#184 = PRODUCT_CONTEXT ( 'NONE', #264, 'mechanical' ) ;
#185 = ADVANCED_FACE ( 'NONE', ( #35 ), #77, .T. ) ;
#186 = SURFACE_STYLE_USAGE ( .BOTH. , #361 ) ;
#187 = FILL_AREA_STYLE_COLOUR ( '', #24 ) ;
#188 = AXIS2_PLACEMENT_3D ( 'NONE', #242, #352, #34 ) ;
#189 =( GEOMETRIC_REPRESENTATION_CONTEXT ( 3 ) GLOBAL_UNCERTAINTY_ASSIGNED_CONTEXT ( ( #183 ) ) GLOBAL_UNIT_ASSIGNED_CONTEXT ( ( #81, #231, #22 ) ) REPRESENTATION_CONTEXT ( 'NONE', 'WORKASPACE' ) );
#190 = SURFACE_SIDE_STYLE ('',( #12 ) ) ;
#191 = CARTESIAN_POINT ( 'NONE',  ( 2.143131898507868297E-16, 0.7499999999999998890, 0.000000000000000000 ) ) ;
#192 = CARTESIAN_POINT ( 'NONE',  ( -0.1250000000000000555, 2.500000000000000000, 0.000000000000000000 ) ) ;
#193 = MANIFOLD_SOLID_BREP ( 'Revolve - Cutting Edge', #210 ) ;
#194 =( NAMED_UNIT ( * ) SI_UNIT ( $, .STERADIAN. ) SOLID_ANGLE_UNIT ( ) );
#195 = AXIS2_PLACEMENT_3D ( 'NONE', #301, #168, #248 ) ;
#196 = DIMENSIONAL_EXPONENTS ( 1.000000000000000000, 0.000000000000000000, 0.000000000000000000, 0.000000000000000000, 0.000000000000000000, 0.000000000000000000, 0.000000000000000000 ) ;
#197 = DIRECTION ( 'NONE',  ( 0.000000000000000000, 0.000000000000000000, -1.000000000000000000 ) ) ;
#198 = PRESENTATION_STYLE_ASSIGNMENT (( #261 ) ) ;
#199 = FILL_AREA_STYLE_COLOUR ( '', #364 ) ;
#200 = VERTEX_POINT ( 'NONE', #163 ) ;
#201 = AXIS2_PLACEMENT_3D ( 'NONE', #225, #11, #74 ) ;
#202 = PRESENTATION_LAYER_ASSIGNMENT (  '', '', ( #260 ) ) ;
#203 = ORIENTED_EDGE ( 'NONE', *, *, #138, .F. ) ;
#204 = DIRECTION ( 'NONE',  ( 0.000000000000000000, 0.000000000000000000, -1.000000000000000000 ) ) ;
#205 = DIRECTION ( 'NONE',  ( -0.000000000000000000, -1.000000000000000000, -0.000000000000000000 ) ) ;
#206 = ORIENTED_EDGE ( 'NONE', *, *, #174, .F. ) ;
#207 =( CONVERSION_BASED_UNIT ( 'INCH', #160 ) LENGTH_UNIT ( ) NAMED_UNIT ( #309 ) );
#208 = SPHERICAL_SURFACE ( 'NONE', #350, 0.1250000000000000000 ) ;
#209 = EDGE_CURVE ( 'NONE', #161, #118, #126, .T. ) ;
#210 = CLOSED_SHELL ( 'NONE', ( #31, #290, #258, #185, #251 ) ) ;
#211 =( GEOMETRIC_REPRESENTATION_CONTEXT ( 3 ) GLOBAL_UNCERTAINTY_ASSIGNED_CONTEXT ( ( #257 ) ) GLOBAL_UNIT_ASSIGNED_CONTEXT ( ( #333, #306, #169 ) ) REPRESENTATION_CONTEXT ( 'NONE', 'WORKASPACE' ) );
#212 = DIRECTION ( 'NONE',  ( -0.000000000000000000, -1.000000000000000000, -0.000000000000000000 ) ) ;
#213 = PRESENTATION_STYLE_ASSIGNMENT (( #5 ) ) ;
#214 = ORIENTED_EDGE ( 'NONE', *, *, #209, .F. ) ;
#215 = COLOUR_RGB ( '',0.7921568627450980005, 0.8196078431372548767, 0.9333333333333333481 ) ;
#216 = DIRECTION ( 'NONE',  ( -1.000000000000000000, 0.000000000000000000, 0.000000000000000000 ) ) ;
#217 = CARTESIAN_POINT ( 'NONE',  ( 0.1249999999999999306, 2.500000000000000000, 1.530808498934190276E-17 ) ) ;
#218 = UNCERTAINTY_MEASURE_WITH_UNIT (LENGTH_MEASURE( 1.000000000000000082E-05 ), #368, 'distance_accuracy_value', 'NONE');
#219 = EDGE_CURVE ( 'NONE', #200, #318, #40, .T. ) ;
#220 = LINE ( 'NONE', #329, #249 ) ;
#221 = CARTESIAN_POINT ( 'NONE',  ( -7.654042494670957545E-18, 0.000000000000000000, 0.000000000000000000 ) ) ;
#222 = FILL_AREA_STYLE_COLOUR ( '', #293 ) ;
#223 = UNCERTAINTY_MEASURE_WITH_UNIT (LENGTH_MEASURE( 1.000000000000000082E-05 ), #207, 'distance_accuracy_value', 'NONE');
#224 = VECTOR ( 'NONE', #2, 39.37007874015748143 ) ;
#225 = CARTESIAN_POINT ( 'NONE',  ( -6.123233995736766036E-17, 2.500000000000000000, 0.000000000000000000 ) ) ;
#226 = SURFACE_STYLE_FILL_AREA ( #105 ) ;
#227 = FACE_OUTER_BOUND ( 'NONE', #20, .T. ) ;
#228 = FACE_OUTER_BOUND ( 'NONE', #7, .T. ) ;
#229 = DIMENSIONAL_EXPONENTS ( 1.000000000000000000, 0.000000000000000000, 0.000000000000000000, 0.000000000000000000, 0.000000000000000000, 0.000000000000000000, 0.000000000000000000 ) ;
#230 = AXIS2_PLACEMENT_3D ( 'NONE', #262, #310, #197 ) ;
#231 =( NAMED_UNIT ( * ) PLANE_ANGLE_UNIT ( ) SI_UNIT ( $, .RADIAN. ) );
#232 = ADVANCED_FACE ( 'NONE', ( #354 ), #133, .F. ) ;
#233 = CARTESIAN_POINT ( 'NONE',  ( 0.000000000000000000, 0.7500000000000001110, 0.000000000000000000 ) ) ;
#234 = PRESENTATION_LAYER_ASSIGNMENT (  '', '', ( #18 ) ) ;
#235 = DIRECTION ( 'NONE',  ( 1.000000000000000000, 0.000000000000000000, 0.000000000000000000 ) ) ;
#236 = SURFACE_STYLE_USAGE ( .BOTH. , #351 ) ;
#237 = ORIENTED_EDGE ( 'NONE', *, *, #298, .F. ) ;
#238 = CARTESIAN_POINT ( 'NONE',  ( 0.000000000000000000, 0.000000000000000000, 0.000000000000000000 ) ) ;
#239 = FILL_AREA_STYLE_COLOUR ( '', #73 ) ;
#240 = CIRCLE ( 'NONE', #282, 0.1250000000000000000 ) ;
#241 = EDGE_CURVE ( 'NONE', #263, #10, #255, .T. ) ;
#242 = CARTESIAN_POINT ( 'NONE',  ( -6.123233995736766036E-17, 2.500000000000000000, 0.000000000000000000 ) ) ;
#243 = ORIENTED_EDGE ( 'NONE', *, *, #209, .T. ) ;
#244 = CYLINDRICAL_SURFACE ( 'NONE', #112, 0.1249999999999998335 ) ;
#245 = PRODUCT ( '17167', '17167', '', ( #184 ) ) ;
#246 =( GEOMETRIC_REPRESENTATION_CONTEXT ( 3 ) GLOBAL_UNCERTAINTY_ASSIGNED_CONTEXT ( ( #218 ) ) GLOBAL_UNIT_ASSIGNED_CONTEXT ( ( #368, #339, #110 ) ) REPRESENTATION_CONTEXT ( 'NONE', 'WORKASPACE' ) );
#247 = CARTESIAN_POINT ( 'NONE',  ( 2.143131898507868297E-16, 0.7500000000000001110, 0.000000000000000000 ) ) ;
#248 = DIRECTION ( 'NONE',  ( -1.000000000000000000, 0.000000000000000000, 0.000000000000000000 ) ) ;
#249 = VECTOR ( 'NONE', #359, 39.37007874015748143 ) ;
#250 = AXIS2_PLACEMENT_3D ( 'NONE', #238, #91, #204 ) ;
#251 = ADVANCED_FACE ( 'NONE', ( #115 ), #345, .T. ) ;
#252 = DIMENSIONAL_EXPONENTS ( 1.000000000000000000, 0.000000000000000000, 0.000000000000000000, 0.000000000000000000, 0.000000000000000000, 0.000000000000000000, 0.000000000000000000 ) ;
#253 = EDGE_LOOP ( 'NONE', ( #362, #62, #243, #28 ) ) ;
#254 = SURFACE_SIDE_STYLE ('',( #226 ) ) ;
#255 = LINE ( 'NONE', #259, #224 ) ;
#256 = DIRECTION ( 'NONE',  ( -0.000000000000000000, -1.000000000000000000, -0.000000000000000000 ) ) ;
#257 = UNCERTAINTY_MEASURE_WITH_UNIT (LENGTH_MEASURE( 1.000000000000000082E-05 ), #333, 'distance_accuracy_value', 'NONE');
#258 = ADVANCED_FACE ( 'NONE', ( #346 ), #308, .T. ) ;
#259 = CARTESIAN_POINT ( 'NONE',  ( 1.530808498934190893E-17, 0.000000000000000000, 0.1249999999999999445 ) ) ;
#260 = STYLED_ITEM ( 'NONE', ( #198 ), #290 ) ;
#261 = SURFACE_STYLE_USAGE ( .BOTH. , #152 ) ;
#262 = CARTESIAN_POINT ( 'NONE',  ( 0.000000000000000000, 0.1250000000000000278, 0.000000000000000000 ) ) ;
#263 = VERTEX_POINT ( 'NONE', #344 ) ;
#264 = APPLICATION_CONTEXT ( 'automotive_design' ) ;
#265 = DIRECTION ( 'NONE',  ( 0.000000000000000000, 0.000000000000000000, 1.000000000000000000 ) ) ;
#266 = PRESENTATION_LAYER_ASSIGNMENT (  '', '', ( #171 ) ) ;
#267 = DIRECTION ( 'NONE',  ( 1.224646799147353207E-16, -0.000000000000000000, 1.000000000000000000 ) ) ;
#268 = DIRECTION ( 'NONE',  ( 0.000000000000000000, 0.000000000000000000, -1.000000000000000000 ) ) ;
#269 = PRODUCT_DEFINITION_FORMATION_WITH_SPECIFIED_SOURCE ( 'ANY', '', #245, .NOT_KNOWN. ) ;
#270 = CARTESIAN_POINT ( 'NONE',  ( -1.530808498934191509E-17, 0.1250000000000000000, 0.000000000000000000 ) ) ;
#271 = DIRECTION ( 'NONE',  ( 1.000000000000000000, 0.000000000000000000, -1.224646799147353207E-16 ) ) ;
#272 =( NAMED_UNIT ( * ) PLANE_ANGLE_UNIT ( ) SI_UNIT ( $, .RADIAN. ) );
#273 = DIRECTION ( 'NONE',  ( -1.574545884618025482E-16, 1.000000000000000000, -0.000000000000000000 ) ) ;
#274 = MECHANICAL_DESIGN_GEOMETRIC_PRESENTATION_REPRESENTATION (  '', ( #171 ), #211 ) ;
#275 =( NAMED_UNIT ( * ) PLANE_ANGLE_UNIT ( ) SI_UNIT ( $, .RADIAN. ) );
#276 = EDGE_CURVE ( 'NONE', #366, #161, #13, .T. ) ;
#277 =( LENGTH_UNIT ( ) NAMED_UNIT ( * ) SI_UNIT ( $, .METRE. ) );
#278 = FILL_AREA_STYLE ('',( #187 ) ) ;
#279 = EDGE_LOOP ( 'NONE', ( #177, #336, #145, #214, #159 ) ) ;
#280 = FILL_AREA_STYLE_COLOUR ( '', #151 ) ;
#281 = STYLED_ITEM ( 'NONE', ( #213 ), #64 ) ;
#282 = AXIS2_PLACEMENT_3D ( 'NONE', #173, #256, #372 ) ;
#283 = FILL_AREA_STYLE_COLOUR ( '', #99 ) ;
#284 = ORIENTED_EDGE ( 'NONE', *, *, #342, .T. ) ;
#285 = PLANE ( 'NONE',  #347 ) ;
#286 = EDGE_LOOP ( 'NONE', ( #3, #123, #167, #369, #237 ) ) ;
#287 =( NAMED_UNIT ( * ) PLANE_ANGLE_UNIT ( ) SI_UNIT ( $, .RADIAN. ) );
#288 = ORIENTED_EDGE ( 'NONE', *, *, #321, .F. ) ;
#289 = MECHANICAL_DESIGN_GEOMETRIC_PRESENTATION_REPRESENTATION (  '', ( #88 ), #166 ) ;
#290 = ADVANCED_FACE ( 'NONE', ( #307 ), #338, .T. ) ;
#291 = SURFACE_SIDE_STYLE ('',( #182 ) ) ;
#292 = DIRECTION ( 'NONE',  ( 0.000000000000000000, 0.000000000000000000, -1.000000000000000000 ) ) ;
#293 = COLOUR_RGB ( '',1.000000000000000000, 0.000000000000000000, 0.000000000000000000 ) ;
#294 = CIRCLE ( 'NONE', #348, 0.1249999999999999029 ) ;
#295 = LINE ( 'NONE', #360, #140 ) ;
#296 =( CONVERSION_BASED_UNIT ( 'INCH', #97 ) LENGTH_UNIT ( ) NAMED_UNIT ( #47 ) );
#297 = CARTESIAN_POINT ( 'NONE',  ( 1.530808498934191817E-17, 0.1250000000000000278, 0.1250000000000000000 ) ) ;
#298 = EDGE_CURVE ( 'NONE', #10, #366, #240, .T. ) ;
#299 =( NAMED_UNIT ( * ) SI_UNIT ( $, .STERADIAN. ) SOLID_ANGLE_UNIT ( ) );
#300 = UNCERTAINTY_MEASURE_WITH_UNIT (LENGTH_MEASURE( 1.000000000000000082E-05 ), #327, 'distance_accuracy_value', 'NONE');
#301 = CARTESIAN_POINT ( 'NONE',  ( -6.123233995736766036E-17, 2.500000000000000000, 0.000000000000000000 ) ) ;
#302 = PRODUCT_DEFINITION_SHAPE ( 'NONE', 'NONE',  #70 ) ;
#303 =( CONVERSION_BASED_UNIT ( 'INCH', #137 ) LENGTH_UNIT ( ) NAMED_UNIT ( #21 ) );
#304 = PRESENTATION_STYLE_ASSIGNMENT (( #103 ) ) ;
#305 = DIMENSIONAL_EXPONENTS ( 1.000000000000000000, 0.000000000000000000, 0.000000000000000000, 0.000000000000000000, 0.000000000000000000, 0.000000000000000000, 0.000000000000000000 ) ;
#306 =( NAMED_UNIT ( * ) PLANE_ANGLE_UNIT ( ) SI_UNIT ( $, .RADIAN. ) );
#307 = FACE_OUTER_BOUND ( 'NONE', #279, .T. ) ;
#308 = PLANE ( 'NONE',  #341 ) ;
#309 = DIMENSIONAL_EXPONENTS ( 1.000000000000000000, 0.000000000000000000, 0.000000000000000000, 0.000000000000000000, 0.000000000000000000, 0.000000000000000000, 0.000000000000000000 ) ;
#310 = DIRECTION ( 'NONE',  ( -0.000000000000000000, -1.000000000000000000, -0.000000000000000000 ) ) ;
#311 =( GEOMETRIC_REPRESENTATION_CONTEXT ( 3 ) GLOBAL_UNCERTAINTY_ASSIGNED_CONTEXT ( ( #300 ) ) GLOBAL_UNIT_ASSIGNED_CONTEXT ( ( #327, #272, #299 ) ) REPRESENTATION_CONTEXT ( 'NONE', 'WORKASPACE' ) );
#312 = AXIS2_PLACEMENT_3D ( 'NONE', #117, #365, #147 ) ;
#313 = DIRECTION ( 'NONE',  ( 0.000000000000000000, -0.000000000000000000, 1.000000000000000000 ) ) ;
#314 = ORIENTED_EDGE ( 'NONE', *, *, #174, .T. ) ;
#315 = ORIENTED_EDGE ( 'NONE', *, *, #176, .T. ) ;
#316 =( NAMED_UNIT ( * ) SI_UNIT ( $, .STERADIAN. ) SOLID_ANGLE_UNIT ( ) );
#317 = CARTESIAN_POINT ( 'NONE',  ( -1.530808498934191509E-17, 0.1250000000000000000, 0.000000000000000000 ) ) ;
#318 = VERTEX_POINT ( 'NONE', #23 ) ;
#319 = APPLICATION_PROTOCOL_DEFINITION ( 'draft international standard', 'automotive_design', 1998, #102 ) ;
#320 = MECHANICAL_DESIGN_GEOMETRIC_PRESENTATION_REPRESENTATION (  '', ( #162 ), #175 ) ;
#321 = EDGE_CURVE ( 'NONE', #263, #170, #332, .T. ) ;
#322 = AXIS2_PLACEMENT_3D ( 'NONE', #26, #17, #330 ) ;
#323 = DIRECTION ( 'NONE',  ( 0.000000000000000000, 0.000000000000000000, -1.000000000000000000 ) ) ;
#324 = CARTESIAN_POINT ( 'NONE',  ( -0.1250000000000000000, 0.1250000000000000278, 1.530808498934191201E-17 ) ) ;
#325 = ORIENTED_EDGE ( 'NONE', *, *, #57, .F. ) ;
#326 =( GEOMETRIC_REPRESENTATION_CONTEXT ( 3 ) GLOBAL_UNCERTAINTY_ASSIGNED_CONTEXT ( ( #180 ) ) GLOBAL_UNIT_ASSIGNED_CONTEXT ( ( #296, #36, #101 ) ) REPRESENTATION_CONTEXT ( 'NONE', 'WORKASPACE' ) );
#327 =( CONVERSION_BASED_UNIT ( 'INCH', #353 ) LENGTH_UNIT ( ) NAMED_UNIT ( #114 ) );
#328 = PRESENTATION_LAYER_ASSIGNMENT (  '', '', ( #45 ) ) ;
#329 = CARTESIAN_POINT ( 'NONE',  ( 0.1249999999999997641, 2.500000000000000000, 1.530808498934189352E-17 ) ) ;
#330 = DIRECTION ( 'NONE',  ( 0.000000000000000000, 0.000000000000000000, -1.000000000000000000 ) ) ;
#331 = AXIS2_PLACEMENT_3D ( 'NONE', #131, #56, #129 ) ;
#332 = CIRCLE ( 'NONE', #6, 0.1249999999999999029 ) ;
#333 =( CONVERSION_BASED_UNIT ( 'INCH', #363 ) LENGTH_UNIT ( ) NAMED_UNIT ( #229 ) );
#334 = CARTESIAN_POINT ( 'NONE',  ( 0.000000000000000000, 0.1250000000000000278, -0.1250000000000000000 ) ) ;
#335 = SURFACE_STYLE_USAGE ( .BOTH. , #254 ) ;
#336 = ORIENTED_EDGE ( 'NONE', *, *, #241, .T. ) ;
#337 = ORIENTED_EDGE ( 'NONE', *, *, #29, .F. ) ;
#338 = CYLINDRICAL_SURFACE ( 'NONE', #75, 0.1249999999999999445 ) ;
#339 =( NAMED_UNIT ( * ) PLANE_ANGLE_UNIT ( ) SI_UNIT ( $, .RADIAN. ) );
#340 = CIRCLE ( 'NONE', #201, 0.1250000000000000000 ) ;
#341 = AXIS2_PLACEMENT_3D ( 'NONE', #1, #146, #313 ) ;
#342 = EDGE_CURVE ( 'NONE', #366, #37, #33, .T. ) ;
#343 = CARTESIAN_POINT ( 'NONE',  ( -1.530808498934191509E-17, 0.1250000000000000000, 0.000000000000000000 ) ) ;
#344 = CARTESIAN_POINT ( 'NONE',  ( 1.530808498934190585E-17, 0.7500000000000001110, 0.1249999999999999029 ) ) ;
#345 = SPHERICAL_SURFACE ( 'NONE', #312, 0.1250000000000000000 ) ;
#346 = FACE_OUTER_BOUND ( 'NONE', #144, .T. ) ;
#347 = AXIS2_PLACEMENT_3D ( 'NONE', #107, #43, #42 ) ;
#348 = AXIS2_PLACEMENT_3D ( 'NONE', #93, #212, #323 ) ;
#349 = DIRECTION ( 'NONE',  ( -0.000000000000000000, -1.000000000000000000, -0.000000000000000000 ) ) ;
#350 = AXIS2_PLACEMENT_3D ( 'NONE', #343, #86, #153 ) ;
#351 = SURFACE_SIDE_STYLE ('',( #127 ) ) ;
#352 = DIRECTION ( 'NONE',  ( -1.574545884618025482E-16, 1.000000000000000000, -0.000000000000000000 ) ) ;
#353 = LENGTH_MEASURE_WITH_UNIT ( LENGTH_MEASURE( 0.02539999999999999897 ), #53 );
#354 = FACE_OUTER_BOUND ( 'NONE', #15, .T. ) ;
#355 = ORIENTED_EDGE ( 'NONE', *, *, #176, .F. ) ;
#356 = PRESENTATION_LAYER_ASSIGNMENT (  '', '', ( #281 ) ) ;
#357 = DIRECTION ( 'NONE',  ( -1.574545884618025482E-16, 1.000000000000000000, -0.000000000000000000 ) ) ;
#358 = DIRECTION ( 'NONE',  ( -1.000000000000000000, 0.000000000000000000, 0.000000000000000000 ) ) ;
#359 = DIRECTION ( 'NONE',  ( -1.574545884618025482E-16, 1.000000000000000000, -0.000000000000000000 ) ) ;
#360 = CARTESIAN_POINT ( 'NONE',  ( 0.000000000000000000, 0.000000000000000000, -0.1249999999999999445 ) ) ;
#361 = SURFACE_SIDE_STYLE ('',( #68 ) ) ;
#362 = ORIENTED_EDGE ( 'NONE', *, *, #342, .F. ) ;
#363 = LENGTH_MEASURE_WITH_UNIT ( LENGTH_MEASURE( 0.02539999999999999897 ), #41 );
#364 = COLOUR_RGB ( '',1.000000000000000000, 0.000000000000000000, 0.000000000000000000 ) ;
#365 = DIRECTION ( 'NONE',  ( 0.000000000000000000, 0.000000000000000000, 1.000000000000000000 ) ) ;
#366 = VERTEX_POINT ( 'NONE', #324 ) ;
#367 = SURFACE_STYLE_USAGE ( .BOTH. , #76 ) ;
#368 =( CONVERSION_BASED_UNIT ( 'INCH', #143 ) LENGTH_UNIT ( ) NAMED_UNIT ( #252 ) );
#369 = ORIENTED_EDGE ( 'NONE', *, *, #276, .F. ) ;
#370 = EDGE_CURVE ( 'NONE', #170, #263, #294, .T. ) ;
#371 = PRESENTATION_STYLE_ASSIGNMENT (( #335 ) ) ;
#372 = DIRECTION ( 'NONE',  ( 0.000000000000000000, 0.000000000000000000, -1.000000000000000000 ) ) ;
#373 = AXIS2_PLACEMENT_3D ( 'NONE', #247, #69, #72 ) ;
ENDSEC;
END-ISO-10303-21;
