ISO-10303-21;
HEADER;
FILE_DESCRIPTION (( 'STEP AP214' ),
    '1' );
FILE_NAME ('56347.STEP',
    '2023-06-30T22:08:15',
    ( '' ),
    ( '' ),
    'SwSTEP 2.0',
    'SolidWorks 2023',
    '' );
FILE_SCHEMA (( 'AUTOMOTIVE_DESIGN' ));
ENDSEC;

DATA;
#1 = ORIENTED_EDGE ( 'NONE', *, *, #122, .F. ) ;
#2 = PRESENTATION_LAYER_ASSIGNMENT (  '', '', ( #178 ) ) ;
#3 = ORIENTED_EDGE ( 'NONE', *, *, #216, .T. ) ;
#4 = DIRECTION ( 'NONE',  ( 0.000000000000000000, 1.000000000000000000, 0.000000000000000000 ) ) ;
#5 = PRODUCT_DEFINITION_SHAPE ( 'NONE', 'NONE',  #312 ) ;
#6 = EDGE_CURVE ( 'NONE', #105, #157, #137, .T. ) ;
#7 = VERTEX_POINT ( 'NONE', #127 ) ;
#8 = EDGE_CURVE ( 'NONE', #266, #7, #281, .T. ) ;
#9 = ORIENTED_EDGE ( 'NONE', *, *, #122, .T. ) ;
#10 = STYLED_ITEM ( 'NONE', ( #206 ), #272 ) ;
#11 =( GEOMETRIC_REPRESENTATION_CONTEXT ( 3 ) GLOBAL_UNCERTAINTY_ASSIGNED_CONTEXT ( ( #236 ) ) GLOBAL_UNIT_ASSIGNED_CONTEXT ( ( #214, #33, #156 ) ) REPRESENTATION_CONTEXT ( 'NONE', 'WORKASPACE' ) );
#12 = ORIENTED_EDGE ( 'NONE', *, *, #150, .F. ) ;
#13 = CARTESIAN_POINT ( 'NONE',  ( 0.000000000000000000, 0.000000000000000000, 0.000000000000000000 ) ) ;
#14 = CARTESIAN_POINT ( 'NONE',  ( 0.000000000000000000, 0.000000000000000000, 0.000000000000000000 ) ) ;
#15 = DIMENSIONAL_EXPONENTS ( 1.000000000000000000, 0.000000000000000000, 0.000000000000000000, 0.000000000000000000, 0.000000000000000000, 0.000000000000000000, 0.000000000000000000 ) ;
#16 = DIMENSIONAL_EXPONENTS ( 1.000000000000000000, 0.000000000000000000, 0.000000000000000000, 0.000000000000000000, 0.000000000000000000, 0.000000000000000000, 0.000000000000000000 ) ;
#17 = DIRECTION ( 'NONE',  ( -1.000000000000000000, 0.000000000000000000, 0.000000000000000000 ) ) ;
#18 =( NAMED_UNIT ( * ) SI_UNIT ( $, .STERADIAN. ) SOLID_ANGLE_UNIT ( ) );
#19 = DIRECTION ( 'NONE',  ( 0.000000000000000000, 0.000000000000000000, -1.000000000000000000 ) ) ;
#20 =( CONVERSION_BASED_UNIT ( 'INCH', #115 ) LENGTH_UNIT ( ) NAMED_UNIT ( #16 ) );
#21 = ADVANCED_FACE ( 'NONE', ( #331 ), #192, .T. ) ;
#22 = DIRECTION ( 'NONE',  ( 1.000000000000000000, 0.000000000000000000, -1.224646799147353207E-16 ) ) ;
#23 = DIRECTION ( 'NONE',  ( -0.000000000000000000, -1.000000000000000000, -0.000000000000000000 ) ) ;
#24 = CARTESIAN_POINT ( 'NONE',  ( 2.143131898507868297E-16, 1.250000000000000000, 0.000000000000000000 ) ) ;
#25 = FILL_AREA_STYLE ('',( #287 ) ) ;
#26 = UNCERTAINTY_MEASURE_WITH_UNIT (LENGTH_MEASURE( 1.000000000000000082E-05 ), #96, 'distance_accuracy_value', 'NONE');
#27 = AXIS2_PLACEMENT_3D ( 'NONE', #50, #145, #19 ) ;
#28 =( NAMED_UNIT ( * ) PLANE_ANGLE_UNIT ( ) SI_UNIT ( $, .RADIAN. ) );
#29 = LENGTH_MEASURE_WITH_UNIT ( LENGTH_MEASURE( 0.02539999999999999897 ), #278 );
#30 = CIRCLE ( 'NONE', #27, 0.1874999999999999722 ) ;
#31 = EDGE_CURVE ( 'NONE', #7, #266, #347, .T. ) ;
#32 =( CONVERSION_BASED_UNIT ( 'INCH', #213 ) LENGTH_UNIT ( ) NAMED_UNIT ( #311 ) );
#33 =( NAMED_UNIT ( * ) PLANE_ANGLE_UNIT ( ) SI_UNIT ( $, .RADIAN. ) );
#34 = EDGE_LOOP ( 'NONE', ( #239, #351 ) ) ;
#35 = CIRCLE ( 'NONE', #131, 0.1875000000000000555 ) ;
#36 = DIRECTION ( 'NONE',  ( -1.000000000000000000, 0.000000000000000000, 0.000000000000000000 ) ) ;
#37 = ORIENTED_EDGE ( 'NONE', *, *, #335, .T. ) ;
#38 = CARTESIAN_POINT ( 'NONE',  ( -1.224646799147353700E-16, 3.000000000000000444, 0.000000000000000000 ) ) ;
#39 = FILL_AREA_STYLE ('',( #220 ) ) ;
#40 = FILL_AREA_STYLE_COLOUR ( '', #139 ) ;
#41 = DIMENSIONAL_EXPONENTS ( 1.000000000000000000, 0.000000000000000000, 0.000000000000000000, 0.000000000000000000, 0.000000000000000000, 0.000000000000000000, 0.000000000000000000 ) ;
#42 = AXIS2_PLACEMENT_3D ( 'NONE', #170, #338, #82 ) ;
#43 = STYLED_ITEM ( 'NONE', ( #162 ), #354 ) ;
#44 = ORIENTED_EDGE ( 'NONE', *, *, #150, .T. ) ;
#45 = DIRECTION ( 'NONE',  ( 1.000000000000000000, 0.000000000000000000, 0.000000000000000000 ) ) ;
#46 = DIRECTION ( 'NONE',  ( 0.000000000000000000, 0.000000000000000000, 1.000000000000000000 ) ) ;
#47 = DIMENSIONAL_EXPONENTS ( 1.000000000000000000, 0.000000000000000000, 0.000000000000000000, 0.000000000000000000, 0.000000000000000000, 0.000000000000000000, 0.000000000000000000 ) ;
#48 =( NAMED_UNIT ( * ) PLANE_ANGLE_UNIT ( ) SI_UNIT ( $, .RADIAN. ) );
#49 = AXIS2_PLACEMENT_3D ( 'NONE', #136, #198, #22 ) ;
#50 = CARTESIAN_POINT ( 'NONE',  ( 0.000000000000000000, 0.1875000000000000555, 0.000000000000000000 ) ) ;
#51 = FACE_OUTER_BOUND ( 'NONE', #218, .T. ) ;
#52 =( GEOMETRIC_REPRESENTATION_CONTEXT ( 3 ) GLOBAL_UNCERTAINTY_ASSIGNED_CONTEXT ( ( #209 ) ) GLOBAL_UNIT_ASSIGNED_CONTEXT ( ( #57, #207, #263 ) ) REPRESENTATION_CONTEXT ( 'NONE', 'WORKASPACE' ) );
#53 = PLANE ( 'NONE',  #138 ) ;
#54 = DIRECTION ( 'NONE',  ( -0.000000000000000000, -1.000000000000000000, -0.000000000000000000 ) ) ;
#55 = EDGE_CURVE ( 'NONE', #352, #157, #341, .T. ) ;
#56 = DIRECTION ( 'NONE',  ( -0.000000000000000000, -1.000000000000000000, -0.000000000000000000 ) ) ;
#57 =( CONVERSION_BASED_UNIT ( 'INCH', #29 ) LENGTH_UNIT ( ) NAMED_UNIT ( #41 ) );
#58 = LENGTH_MEASURE_WITH_UNIT ( LENGTH_MEASURE( 0.02539999999999999897 ), #261 );
#59 = PRESENTATION_LAYER_ASSIGNMENT (  '', '', ( #43 ) ) ;
#60 = SURFACE_STYLE_USAGE ( .BOTH. , #90 ) ;
#61 = CYLINDRICAL_SURFACE ( 'NONE', #315, 0.1874999999999999167 ) ;
#62 = FILL_AREA_STYLE ('',( #289 ) ) ;
#63 = MECHANICAL_DESIGN_GEOMETRIC_PRESENTATION_REPRESENTATION (  '', ( #204 ), #101 ) ;
#64 =( GEOMETRIC_REPRESENTATION_CONTEXT ( 3 ) GLOBAL_UNCERTAINTY_ASSIGNED_CONTEXT ( ( #26 ) ) GLOBAL_UNIT_ASSIGNED_CONTEXT ( ( #96, #70, #186 ) ) REPRESENTATION_CONTEXT ( 'NONE', 'WORKASPACE' ) );
#65 = DIRECTION ( 'NONE',  ( 0.000000000000000000, 0.000000000000000000, 1.000000000000000000 ) ) ;
#66 = ORIENTED_EDGE ( 'NONE', *, *, #179, .T. ) ;
#67 = ORIENTED_EDGE ( 'NONE', *, *, #144, .T. ) ;
#68 = CIRCLE ( 'NONE', #86, 0.1875000000000000555 ) ;
#69 = ORIENTED_EDGE ( 'NONE', *, *, #103, .T. ) ;
#70 =( NAMED_UNIT ( * ) PLANE_ANGLE_UNIT ( ) SI_UNIT ( $, .RADIAN. ) );
#71 = EDGE_LOOP ( 'NONE', ( #9, #67 ) ) ;
#72 = ADVANCED_FACE ( 'NONE', ( #314 ), #286, .T. ) ;
#73 = EDGE_LOOP ( 'NONE', ( #359, #243, #274, #328 ) ) ;
#74 = DIRECTION ( 'NONE',  ( 0.000000000000000000, 0.000000000000000000, -1.000000000000000000 ) ) ;
#75 = DIRECTION ( 'NONE',  ( 0.000000000000000000, 0.000000000000000000, 1.000000000000000000 ) ) ;
#76 = SURFACE_SIDE_STYLE ('',( #79 ) ) ;
#77 = ADVANCED_FACE ( 'NONE', ( #51 ), #230, .T. ) ;
#78 = CARTESIAN_POINT ( 'NONE',  ( -2.296212748401287726E-17, 0.1875000000000000278, 0.000000000000000000 ) ) ;
#79 = SURFACE_STYLE_FILL_AREA ( #339 ) ;
#80 = CARTESIAN_POINT ( 'NONE',  ( 0.000000000000000000, 0.1875000000000000555, 0.000000000000000000 ) ) ;
#81 = FILL_AREA_STYLE ('',( #142 ) ) ;
#82 = DIRECTION ( 'NONE',  ( 0.000000000000000000, 0.000000000000000000, -1.000000000000000000 ) ) ;
#83 = CARTESIAN_POINT ( 'NONE',  ( 0.1874999999999999722, 0.1875000000000000555, 0.000000000000000000 ) ) ;
#84 = DIRECTION ( 'NONE',  ( -0.000000000000000000, -1.000000000000000000, -0.000000000000000000 ) ) ;
#85 = DIRECTION ( 'NONE',  ( 0.000000000000000000, 0.000000000000000000, -1.000000000000000000 ) ) ;
#86 = AXIS2_PLACEMENT_3D ( 'NONE', #277, #253, #106 ) ;
#87 = CLOSED_SHELL ( 'NONE', ( #72, #93, #21, #107 ) ) ;
#88 =( NAMED_UNIT ( * ) SI_UNIT ( $, .STERADIAN. ) SOLID_ANGLE_UNIT ( ) );
#89 = UNCERTAINTY_MEASURE_WITH_UNIT (LENGTH_MEASURE( 1.000000000000000082E-05 ), #32, 'distance_accuracy_value', 'NONE');
#90 = SURFACE_SIDE_STYLE ('',( #295 ) ) ;
#91 =( NAMED_UNIT ( * ) SI_UNIT ( $, .STERADIAN. ) SOLID_ANGLE_UNIT ( ) );
#92 = AXIS2_PLACEMENT_3D ( 'NONE', #146, #232, #254 ) ;
#93 = ADVANCED_FACE ( 'NONE', ( #361 ), #53, .F. ) ;
#94 = EDGE_LOOP ( 'NONE', ( #12, #245, #66, #297, #269 ) ) ;
#95 = FILL_AREA_STYLE ('',( #201 ) ) ;
#96 =( CONVERSION_BASED_UNIT ( 'INCH', #241 ) LENGTH_UNIT ( ) NAMED_UNIT ( #229 ) );
#97 = ORIENTED_EDGE ( 'NONE', *, *, #211, .F. ) ;
#98 = FILL_AREA_STYLE ('',( #40 ) ) ;
#99 = ORIENTED_EDGE ( 'NONE', *, *, #31, .T. ) ;
#100 = CARTESIAN_POINT ( 'NONE',  ( 0.1874999999999998335, 1.250000000000000000, 2.296212748401286493E-17 ) ) ;
#101 =( GEOMETRIC_REPRESENTATION_CONTEXT ( 3 ) GLOBAL_UNCERTAINTY_ASSIGNED_CONTEXT ( ( #346 ) ) GLOBAL_UNIT_ASSIGNED_CONTEXT ( ( #233, #284, #195 ) ) REPRESENTATION_CONTEXT ( 'NONE', 'WORKASPACE' ) );
#102 = CARTESIAN_POINT ( 'NONE',  ( -2.296212748401287726E-17, 0.1875000000000000278, 0.000000000000000000 ) ) ;
#103 = EDGE_CURVE ( 'NONE', #357, #352, #30, .T. ) ;
#104 = SURFACE_STYLE_FILL_AREA ( #39 ) ;
#105 = VERTEX_POINT ( 'NONE', #83 ) ;
#106 = DIRECTION ( 'NONE',  ( -1.000000000000000000, 0.000000000000000000, 0.000000000000000000 ) ) ;
#107 = ADVANCED_FACE ( 'NONE', ( #140 ), #134, .F. ) ;
#108 =( GEOMETRIC_REPRESENTATION_CONTEXT ( 3 ) GLOBAL_UNCERTAINTY_ASSIGNED_CONTEXT ( ( #372 ) ) GLOBAL_UNIT_ASSIGNED_CONTEXT ( ( #235, #48, #88 ) ) REPRESENTATION_CONTEXT ( 'NONE', 'WORKASPACE' ) );
#109 = DIMENSIONAL_EXPONENTS ( 1.000000000000000000, 0.000000000000000000, 0.000000000000000000, 0.000000000000000000, 0.000000000000000000, 0.000000000000000000, 0.000000000000000000 ) ;
#110 = STYLED_ITEM ( 'NONE', ( #176 ), #135 ) ;
#111 = LENGTH_MEASURE_WITH_UNIT ( LENGTH_MEASURE( 0.02539999999999999897 ), #251 );
#112 = DIRECTION ( 'NONE',  ( -1.000000000000000000, 0.000000000000000000, 0.000000000000000000 ) ) ;
#113 = PRODUCT_RELATED_PRODUCT_CATEGORY ( 'part', '', ( #242 ) ) ;
#114 = FILL_AREA_STYLE_COLOUR ( '', #337 ) ;
#115 = LENGTH_MEASURE_WITH_UNIT ( LENGTH_MEASURE( 0.02539999999999999897 ), #259 );
#116 = SURFACE_STYLE_FILL_AREA ( #81 ) ;
#117 = PRESENTATION_LAYER_ASSIGNMENT (  '', '', ( #10 ) ) ;
#118 = CARTESIAN_POINT ( 'NONE',  ( -1.224646799147353700E-16, 3.000000000000000444, 0.000000000000000000 ) ) ;
#119 = CARTESIAN_POINT ( 'NONE',  ( 2.143131898507867804E-16, 1.250000000000000000, 0.000000000000000000 ) ) ;
#120 =( CONVERSION_BASED_UNIT ( 'INCH', #58 ) LENGTH_UNIT ( ) NAMED_UNIT ( #109 ) );
#121 = MECHANICAL_DESIGN_GEOMETRIC_PRESENTATION_REPRESENTATION (  '', ( #356 ), #153 ) ;
#122 = EDGE_CURVE ( 'NONE', #303, #132, #68, .T. ) ;
#123 = FACE_OUTER_BOUND ( 'NONE', #185, .T. ) ;
#124 = ORIENTED_EDGE ( 'NONE', *, *, #208, .T. ) ;
#125 = DIRECTION ( 'NONE',  ( -1.924444970088698003E-16, 1.000000000000000000, -0.000000000000000000 ) ) ;
#126 = ORIENTED_EDGE ( 'NONE', *, *, #55, .T. ) ;
#127 = CARTESIAN_POINT ( 'NONE',  ( 0.000000000000000000, 1.250000000000000000, -0.1874999999999998335 ) ) ;
#128 = COLOUR_RGB ( '',1.000000000000000000, 0.000000000000000000, 0.000000000000000000 ) ;
#129 = ORIENTED_EDGE ( 'NONE', *, *, #179, .F. ) ;
#130 = APPLICATION_CONTEXT ( 'automotive_design' ) ;
#131 = AXIS2_PLACEMENT_3D ( 'NONE', #118, #285, #197 ) ;
#132 = VERTEX_POINT ( 'NONE', #226 ) ;
#133 = SURFACE_SIDE_STYLE ('',( #104 ) ) ;
#134 = PLANE ( 'NONE',  #227 ) ;
#135 = ADVANCED_FACE ( 'NONE', ( #336 ), #366, .T. ) ;
#136 = CARTESIAN_POINT ( 'NONE',  ( -2.296212748401287726E-17, 0.1875000000000000278, 0.000000000000000000 ) ) ;
#137 = CIRCLE ( 'NONE', #187, 0.1875000000000000278 ) ;
#138 = AXIS2_PLACEMENT_3D ( 'NONE', #24, #310, #167 ) ;
#139 = COLOUR_RGB ( '',1.000000000000000000, 0.000000000000000000, 0.000000000000000000 ) ;
#140 = FACE_OUTER_BOUND ( 'NONE', #71, .T. ) ;
#141 =( NAMED_UNIT ( * ) PLANE_ANGLE_UNIT ( ) SI_UNIT ( $, .RADIAN. ) );
#142 = FILL_AREA_STYLE_COLOUR ( '', #128 ) ;
#143 = DIRECTION ( 'NONE',  ( -1.924444970088698003E-16, 1.000000000000000000, -0.000000000000000000 ) ) ;
#144 = EDGE_CURVE ( 'NONE', #132, #303, #35, .T. ) ;
#145 = DIRECTION ( 'NONE',  ( -0.000000000000000000, -1.000000000000000000, -0.000000000000000000 ) ) ;
#146 = CARTESIAN_POINT ( 'NONE',  ( 0.000000000000000000, 0.1875000000000000555, 0.000000000000000000 ) ) ;
#147 = SURFACE_STYLE_USAGE ( .BOTH. , #76 ) ;
#148 = CIRCLE ( 'NONE', #212, 0.1874999999999999722 ) ;
#149 = SURFACE_SIDE_STYLE ('',( #237 ) ) ;
#150 = EDGE_CURVE ( 'NONE', #266, #357, #313, .T. ) ;
#151 = UNCERTAINTY_MEASURE_WITH_UNIT (LENGTH_MEASURE( 1.000000000000000082E-05 ), #120, 'distance_accuracy_value', 'NONE');
#152 = COLOUR_RGB ( '',1.000000000000000000, 0.000000000000000000, 0.000000000000000000 ) ;
#153 =( GEOMETRIC_REPRESENTATION_CONTEXT ( 3 ) GLOBAL_UNCERTAINTY_ASSIGNED_CONTEXT ( ( #151 ) ) GLOBAL_UNIT_ASSIGNED_CONTEXT ( ( #120, #28, #91 ) ) REPRESENTATION_CONTEXT ( 'NONE', 'WORKASPACE' ) );
#154 = CLOSED_SHELL ( 'NONE', ( #77, #273, #291, #135, #354 ) ) ;
#155 = EDGE_CURVE ( 'NONE', #105, #357, #257, .T. ) ;
#156 =( NAMED_UNIT ( * ) SI_UNIT ( $, .STERADIAN. ) SOLID_ANGLE_UNIT ( ) );
#157 = VERTEX_POINT ( 'NONE', #203 ) ;
#158 = ORIENTED_EDGE ( 'NONE', *, *, #155, .F. ) ;
#159 = APPLICATION_CONTEXT ( 'automotive_design' ) ;
#160 =( NAMED_UNIT ( * ) PLANE_ANGLE_UNIT ( ) SI_UNIT ( $, .RADIAN. ) );
#161 = ORIENTED_EDGE ( 'NONE', *, *, #55, .F. ) ;
#162 = PRESENTATION_STYLE_ASSIGNMENT (( #238 ) ) ;
#163 = EDGE_LOOP ( 'NONE', ( #326, #97 ) ) ;
#164 = APPLICATION_PROTOCOL_DEFINITION ( 'draft international standard', 'automotive_design', 1998, #159 ) ;
#165 = VECTOR ( 'NONE', #143, 39.37007874015748143 ) ;
#166 = DIRECTION ( 'NONE',  ( 1.000000000000000000, 1.924444970088698003E-16, 0.000000000000000000 ) ) ;
#167 = DIRECTION ( 'NONE',  ( -1.000000000000000000, -1.924444970088698003E-16, 0.000000000000000000 ) ) ;
#168 = LINE ( 'NONE', #175, #165 ) ;
#169 = DIRECTION ( 'NONE',  ( -1.924444970088698003E-16, 1.000000000000000000, -0.000000000000000000 ) ) ;
#170 = CARTESIAN_POINT ( 'NONE',  ( 0.000000000000000000, 0.000000000000000000, 0.000000000000000000 ) ) ;
#171 = VECTOR ( 'NONE', #56, 39.37007874015748143 ) ;
#172 = SURFACE_SIDE_STYLE ('',( #116 ) ) ;
#173 = ADVANCED_BREP_SHAPE_REPRESENTATION ( '56347', ( #276, #272, #210 ), #64 ) ;
#174 = DIRECTION ( 'NONE',  ( 0.000000000000000000, 0.000000000000000000, -1.000000000000000000 ) ) ;
#175 = CARTESIAN_POINT ( 'NONE',  ( 0.1874999999999996947, 3.000000000000000444, 2.296212748401285260E-17 ) ) ;
#176 = PRESENTATION_STYLE_ASSIGNMENT (( #147 ) ) ;
#177 = CARTESIAN_POINT ( 'NONE',  ( 2.296212748401286185E-17, 0.000000000000000000, 0.1874999999999999167 ) ) ;
#178 = STYLED_ITEM ( 'NONE', ( #334 ), #276 ) ;
#179 = EDGE_CURVE ( 'NONE', #7, #249, #345, .T. ) ;
#180 = PRESENTATION_STYLE_ASSIGNMENT (( #60 ) ) ;
#181 = MECHANICAL_DESIGN_GEOMETRIC_PRESENTATION_REPRESENTATION (  '', ( #43 ), #11 ) ;
#182 = SURFACE_STYLE_USAGE ( .BOTH. , #149 ) ;
#183 = PRESENTATION_LAYER_ASSIGNMENT (  '', '', ( #204 ) ) ;
#184 = CARTESIAN_POINT ( 'NONE',  ( 0.000000000000000000, 1.250000000000000000, 0.000000000000000000 ) ) ;
#185 = EDGE_LOOP ( 'NONE', ( #161, #3, #217, #215 ) ) ;
#186 =( NAMED_UNIT ( * ) SI_UNIT ( $, .STERADIAN. ) SOLID_ANGLE_UNIT ( ) );
#187 = AXIS2_PLACEMENT_3D ( 'NONE', #102, #300, #36 ) ;
#188 = STYLED_ITEM ( 'NONE', ( #180 ), #273 ) ;
#189 = ORIENTED_EDGE ( 'NONE', *, *, #155, .T. ) ;
#190 =( NAMED_UNIT ( * ) SI_UNIT ( $, .STERADIAN. ) SOLID_ANGLE_UNIT ( ) );
#191 = CARTESIAN_POINT ( 'NONE',  ( -2.296212748401287726E-17, 0.1875000000000000278, 0.000000000000000000 ) ) ;
#192 = CYLINDRICAL_SURFACE ( 'NONE', #305, 0.1874999999999998335 ) ;
#193 = EDGE_LOOP ( 'NONE', ( #37, #124, #1, #246 ) ) ;
#194 = CIRCLE ( 'NONE', #370, 0.1874999999999999722 ) ;
#195 =( NAMED_UNIT ( * ) SI_UNIT ( $, .STERADIAN. ) SOLID_ANGLE_UNIT ( ) );
#196 = DIMENSIONAL_EXPONENTS ( 1.000000000000000000, 0.000000000000000000, 0.000000000000000000, 0.000000000000000000, 0.000000000000000000, 0.000000000000000000, 0.000000000000000000 ) ;
#197 = DIRECTION ( 'NONE',  ( -1.000000000000000000, 0.000000000000000000, 0.000000000000000000 ) ) ;
#198 = DIRECTION ( 'NONE',  ( 1.224646799147353207E-16, -0.000000000000000000, 1.000000000000000000 ) ) ;
#199 = AXIS2_PLACEMENT_3D ( 'NONE', #222, #302, #270 ) ;
#200 = EDGE_CURVE ( 'NONE', #333, #303, #283, .T. ) ;
#201 = FILL_AREA_STYLE_COLOUR ( '', #329 ) ;
#202 = AXIS2_PLACEMENT_3D ( 'NONE', #78, #46, #344 ) ;
#203 = CARTESIAN_POINT ( 'NONE',  ( -1.148106374200643863E-17, 0.000000000000000000, 0.000000000000000000 ) ) ;
#204 = STYLED_ITEM ( 'NONE', ( #362 ), #77 ) ;
#205 = CARTESIAN_POINT ( 'NONE',  ( 0.1874999999999999167, 3.000000000000000444, 0.000000000000000000 ) ) ;
#206 = PRESENTATION_STYLE_ASSIGNMENT (( #316 ) ) ;
#207 =( NAMED_UNIT ( * ) PLANE_ANGLE_UNIT ( ) SI_UNIT ( $, .RADIAN. ) );
#208 = EDGE_CURVE ( 'NONE', #306, #132, #168, .T. ) ;
#209 = UNCERTAINTY_MEASURE_WITH_UNIT (LENGTH_MEASURE( 1.000000000000000082E-05 ), #57, 'distance_accuracy_value', 'NONE');
#210 = AXIS2_PLACEMENT_3D ( 'NONE', #14, #75, #45 ) ;
#211 = EDGE_CURVE ( 'NONE', #306, #333, #363, .T. ) ;
#212 = AXIS2_PLACEMENT_3D ( 'NONE', #80, #23, #85 ) ;
#213 = LENGTH_MEASURE_WITH_UNIT ( LENGTH_MEASURE( 0.02539999999999999897 ), #294 );
#214 =( CONVERSION_BASED_UNIT ( 'INCH', #296 ) LENGTH_UNIT ( ) NAMED_UNIT ( #196 ) );
#215 = ORIENTED_EDGE ( 'NONE', *, *, #6, .T. ) ;
#216 = EDGE_CURVE ( 'NONE', #352, #249, #148, .T. ) ;
#217 = ORIENTED_EDGE ( 'NONE', *, *, #252, .T. ) ;
#218 = EDGE_LOOP ( 'NONE', ( #69, #126, #268, #189 ) ) ;
#219 = MECHANICAL_DESIGN_GEOMETRIC_PRESENTATION_REPRESENTATION (  '', ( #178 ), #52 ) ;
#220 = FILL_AREA_STYLE_COLOUR ( '', #322 ) ;
#221 = CARTESIAN_POINT ( 'NONE',  ( -0.1874999999999994449, 1.250000000000000000, 0.000000000000000000 ) ) ;
#222 = CARTESIAN_POINT ( 'NONE',  ( 0.000000000000000000, 1.250000000000000000, 0.000000000000000000 ) ) ;
#223 = CARTESIAN_POINT ( 'NONE',  ( 2.296212748401287109E-17, 0.1875000000000000555, 0.1874999999999999722 ) ) ;
#224 = DIRECTION ( 'NONE',  ( -1.924444970088698003E-16, 1.000000000000000000, -0.000000000000000000 ) ) ;
#225 = SURFACE_STYLE_USAGE ( .BOTH. , #133 ) ;
#226 = CARTESIAN_POINT ( 'NONE',  ( 0.1874999999999998890, 3.000000000000000444, 2.296212748401286493E-17 ) ) ;
#227 = AXIS2_PLACEMENT_3D ( 'NONE', #205, #319, #166 ) ;
#228 = AXIS2_PLACEMENT_3D ( 'NONE', #244, #125, #301 ) ;
#229 = DIMENSIONAL_EXPONENTS ( 1.000000000000000000, 0.000000000000000000, 0.000000000000000000, 0.000000000000000000, 0.000000000000000000, 0.000000000000000000, 0.000000000000000000 ) ;
#230 = SPHERICAL_SURFACE ( 'NONE', #202, 0.1875000000000000278 ) ;
#231 = DIRECTION ( 'NONE',  ( -1.924444970088698003E-16, 1.000000000000000000, -0.000000000000000000 ) ) ;
#232 = DIRECTION ( 'NONE',  ( -0.000000000000000000, -1.000000000000000000, -0.000000000000000000 ) ) ;
#233 =( CONVERSION_BASED_UNIT ( 'INCH', #111 ) LENGTH_UNIT ( ) NAMED_UNIT ( #15 ) );
#234 = DIRECTION ( 'NONE',  ( -1.924444970088698003E-16, 1.000000000000000000, -0.000000000000000000 ) ) ;
#235 =( CONVERSION_BASED_UNIT ( 'INCH', #260 ) LENGTH_UNIT ( ) NAMED_UNIT ( #47 ) );
#236 = UNCERTAINTY_MEASURE_WITH_UNIT (LENGTH_MEASURE( 1.000000000000000082E-05 ), #214, 'distance_accuracy_value', 'NONE');
#237 = SURFACE_STYLE_FILL_AREA ( #62 ) ;
#238 = SURFACE_STYLE_USAGE ( .BOTH. , #298 ) ;
#239 = ORIENTED_EDGE ( 'NONE', *, *, #31, .F. ) ;
#240 = AXIS2_PLACEMENT_3D ( 'NONE', #191, #65, #248 ) ;
#241 = LENGTH_MEASURE_WITH_UNIT ( LENGTH_MEASURE( 0.02539999999999999897 ), #327 );
#242 = PRODUCT ( '56347', '56347', '', ( #308 ) ) ;
#243 = ORIENTED_EDGE ( 'NONE', *, *, #211, .T. ) ;
#244 = CARTESIAN_POINT ( 'NONE',  ( 2.143131898507867804E-16, 1.250000000000000000, 0.000000000000000000 ) ) ;
#245 = ORIENTED_EDGE ( 'NONE', *, *, #8, .T. ) ;
#246 = ORIENTED_EDGE ( 'NONE', *, *, #200, .F. ) ;
#247 = MECHANICAL_DESIGN_GEOMETRIC_PRESENTATION_REPRESENTATION (  '', ( #110 ), #299 ) ;
#248 = DIRECTION ( 'NONE',  ( 1.000000000000000000, 0.000000000000000000, 0.000000000000000000 ) ) ;
#249 = VERTEX_POINT ( 'NONE', #280 ) ;
#250 = SHAPE_DEFINITION_REPRESENTATION ( #5, #173 ) ;
#251 =( LENGTH_UNIT ( ) NAMED_UNIT ( * ) SI_UNIT ( $, .METRE. ) );
#252 = EDGE_CURVE ( 'NONE', #249, #105, #194, .T. ) ;
#253 = DIRECTION ( 'NONE',  ( -1.924444970088698003E-16, 1.000000000000000000, -0.000000000000000000 ) ) ;
#254 = DIRECTION ( 'NONE',  ( 0.000000000000000000, 0.000000000000000000, -1.000000000000000000 ) ) ;
#255 = CARTESIAN_POINT ( 'NONE',  ( 0.000000000000000000, 1.250000000000000000, 0.000000000000000000 ) ) ;
#256 = CARTESIAN_POINT ( 'NONE',  ( 2.296212748401285877E-17, 1.250000000000000000, 0.1874999999999998335 ) ) ;
#257 = CIRCLE ( 'NONE', #92, 0.1874999999999999722 ) ;
#258 = AXIS2_PLACEMENT_3D ( 'NONE', #184, #4, #304 ) ;
#259 =( LENGTH_UNIT ( ) NAMED_UNIT ( * ) SI_UNIT ( $, .METRE. ) );
#260 = LENGTH_MEASURE_WITH_UNIT ( LENGTH_MEASURE( 0.02539999999999999897 ), #320 );
#261 =( LENGTH_UNIT ( ) NAMED_UNIT ( * ) SI_UNIT ( $, .METRE. ) );
#262 = PRODUCT_DEFINITION_CONTEXT ( 'detailed design', #159, 'design' ) ;
#263 =( NAMED_UNIT ( * ) SI_UNIT ( $, .STERADIAN. ) SOLID_ANGLE_UNIT ( ) );
#264 = MECHANICAL_DESIGN_GEOMETRIC_PRESENTATION_REPRESENTATION (  '', ( #10 ), #108 ) ;
#265 =( LENGTH_UNIT ( ) NAMED_UNIT ( * ) SI_UNIT ( $, .METRE. ) );
#266 = VERTEX_POINT ( 'NONE', #256 ) ;
#267 = MECHANICAL_DESIGN_GEOMETRIC_PRESENTATION_REPRESENTATION (  '', ( #188 ), #290 ) ;
#268 = ORIENTED_EDGE ( 'NONE', *, *, #6, .F. ) ;
#269 = ORIENTED_EDGE ( 'NONE', *, *, #103, .F. ) ;
#270 = DIRECTION ( 'NONE',  ( 0.000000000000000000, 0.000000000000000000, -1.000000000000000000 ) ) ;
#271 = APPLICATION_PROTOCOL_DEFINITION ( 'draft international standard', 'automotive_design', 1998, #130 ) ;
#272 = MANIFOLD_SOLID_BREP ( 'Revolve - Tool Body (Straight Shanked)', #87 ) ;
#273 = ADVANCED_FACE ( 'NONE', ( #348 ), #61, .T. ) ;
#274 = ORIENTED_EDGE ( 'NONE', *, *, #200, .T. ) ;
#275 = VECTOR ( 'NONE', #234, 39.37007874015748143 ) ;
#276 = MANIFOLD_SOLID_BREP ( 'Revolve - Cutting Edge', #154 ) ;
#277 = CARTESIAN_POINT ( 'NONE',  ( -1.224646799147353700E-16, 3.000000000000000444, 0.000000000000000000 ) ) ;
#278 =( LENGTH_UNIT ( ) NAMED_UNIT ( * ) SI_UNIT ( $, .METRE. ) );
#279 = DIRECTION ( 'NONE',  ( -0.000000000000000000, -1.000000000000000000, -0.000000000000000000 ) ) ;
#280 = CARTESIAN_POINT ( 'NONE',  ( 0.000000000000000000, 0.1875000000000000555, -0.1874999999999999722 ) ) ;
#281 = CIRCLE ( 'NONE', #199, 0.1874999999999998335 ) ;
#282 = COLOUR_RGB ( '',0.7921568627450980005, 0.8196078431372548767, 0.9333333333333333481 ) ;
#283 = LINE ( 'NONE', #367, #275 ) ;
#284 =( NAMED_UNIT ( * ) PLANE_ANGLE_UNIT ( ) SI_UNIT ( $, .RADIAN. ) );
#285 = DIRECTION ( 'NONE',  ( -1.924444970088698003E-16, 1.000000000000000000, -0.000000000000000000 ) ) ;
#286 = CYLINDRICAL_SURFACE ( 'NONE', #340, 0.1874999999999998335 ) ;
#287 = FILL_AREA_STYLE_COLOUR ( '', #282 ) ;
#288 = SURFACE_STYLE_FILL_AREA ( #25 ) ;
#289 = FILL_AREA_STYLE_COLOUR ( '', #152 ) ;
#290 =( GEOMETRIC_REPRESENTATION_CONTEXT ( 3 ) GLOBAL_UNCERTAINTY_ASSIGNED_CONTEXT ( ( #89 ) ) GLOBAL_UNIT_ASSIGNED_CONTEXT ( ( #32, #160, #190 ) ) REPRESENTATION_CONTEXT ( 'NONE', 'WORKASPACE' ) );
#291 = ADVANCED_FACE ( 'NONE', ( #323 ), #321, .T. ) ;
#292 = UNCERTAINTY_MEASURE_WITH_UNIT (LENGTH_MEASURE( 1.000000000000000082E-05 ), #20, 'distance_accuracy_value', 'NONE');
#293 = AXIS2_PLACEMENT_3D ( 'NONE', #255, #279, #174 ) ;
#294 =( LENGTH_UNIT ( ) NAMED_UNIT ( * ) SI_UNIT ( $, .METRE. ) );
#295 = SURFACE_STYLE_FILL_AREA ( #95 ) ;
#296 = LENGTH_MEASURE_WITH_UNIT ( LENGTH_MEASURE( 0.02539999999999999897 ), #265 );
#297 = ORIENTED_EDGE ( 'NONE', *, *, #216, .F. ) ;
#298 = SURFACE_SIDE_STYLE ('',( #332 ) ) ;
#299 =( GEOMETRIC_REPRESENTATION_CONTEXT ( 3 ) GLOBAL_UNCERTAINTY_ASSIGNED_CONTEXT ( ( #292 ) ) GLOBAL_UNIT_ASSIGNED_CONTEXT ( ( #20, #141, #18 ) ) REPRESENTATION_CONTEXT ( 'NONE', 'WORKASPACE' ) );
#300 = DIRECTION ( 'NONE',  ( 0.000000000000000000, 0.000000000000000000, -1.000000000000000000 ) ) ;
#301 = DIRECTION ( 'NONE',  ( -1.000000000000000000, 0.000000000000000000, 0.000000000000000000 ) ) ;
#302 = DIRECTION ( 'NONE',  ( -0.000000000000000000, -1.000000000000000000, -0.000000000000000000 ) ) ;
#303 = VERTEX_POINT ( 'NONE', #325 ) ;
#304 = DIRECTION ( 'NONE',  ( 0.000000000000000000, -0.000000000000000000, 1.000000000000000000 ) ) ;
#305 = AXIS2_PLACEMENT_3D ( 'NONE', #38, #224, #17 ) ;
#306 = VERTEX_POINT ( 'NONE', #100 ) ;
#307 = AXIS2_PLACEMENT_3D ( 'NONE', #119, #231, #112 ) ;
#308 = PRODUCT_CONTEXT ( 'NONE', #130, 'mechanical' ) ;
#309 = CARTESIAN_POINT ( 'NONE',  ( -1.224646799147353700E-16, 3.000000000000000444, 0.000000000000000000 ) ) ;
#310 = DIRECTION ( 'NONE',  ( -1.924444970088698003E-16, 1.000000000000000000, 0.000000000000000000 ) ) ;
#311 = DIMENSIONAL_EXPONENTS ( 1.000000000000000000, 0.000000000000000000, 0.000000000000000000, 0.000000000000000000, 0.000000000000000000, 0.000000000000000000, 0.000000000000000000 ) ;
#312 = PRODUCT_DEFINITION ( 'UNKNOWN', '', #364, #262 ) ;
#313 = LINE ( 'NONE', #177, #171 ) ;
#314 = FACE_OUTER_BOUND ( 'NONE', #193, .T. ) ;
#315 = AXIS2_PLACEMENT_3D ( 'NONE', #13, #360, #74 ) ;
#316 = SURFACE_STYLE_USAGE ( .BOTH. , #365 ) ;
#317 = CIRCLE ( 'NONE', #228, 0.1874999999999996392 ) ;
#318 = CARTESIAN_POINT ( 'NONE',  ( 0.000000000000000000, 0.000000000000000000, -0.1874999999999999167 ) ) ;
#319 = DIRECTION ( 'NONE',  ( 1.924444970088698003E-16, -1.000000000000000000, 0.000000000000000000 ) ) ;
#320 =( LENGTH_UNIT ( ) NAMED_UNIT ( * ) SI_UNIT ( $, .METRE. ) );
#321 = PLANE ( 'NONE',  #258 ) ;
#322 = COLOUR_RGB ( '',0.7921568627450980005, 0.8196078431372548767, 0.9333333333333333481 ) ;
#323 = FACE_OUTER_BOUND ( 'NONE', #34, .T. ) ;
#324 = PRESENTATION_LAYER_ASSIGNMENT (  '', '', ( #110 ) ) ;
#325 = CARTESIAN_POINT ( 'NONE',  ( -0.1875000000000001943, 3.000000000000000444, 0.000000000000000000 ) ) ;
#326 = ORIENTED_EDGE ( 'NONE', *, *, #335, .F. ) ;
#327 =( LENGTH_UNIT ( ) NAMED_UNIT ( * ) SI_UNIT ( $, .METRE. ) );
#328 = ORIENTED_EDGE ( 'NONE', *, *, #144, .F. ) ;
#329 = COLOUR_RGB ( '',1.000000000000000000, 0.000000000000000000, 0.000000000000000000 ) ;
#330 = ORIENTED_EDGE ( 'NONE', *, *, #252, .F. ) ;
#331 = FACE_OUTER_BOUND ( 'NONE', #73, .T. ) ;
#332 = SURFACE_STYLE_FILL_AREA ( #98 ) ;
#333 = VERTEX_POINT ( 'NONE', #221 ) ;
#334 = PRESENTATION_STYLE_ASSIGNMENT (( #225 ) ) ;
#335 = EDGE_CURVE ( 'NONE', #333, #306, #317, .T. ) ;
#336 = FACE_OUTER_BOUND ( 'NONE', #94, .T. ) ;
#337 = COLOUR_RGB ( '',1.000000000000000000, 0.000000000000000000, 0.000000000000000000 ) ;
#338 = DIRECTION ( 'NONE',  ( -0.000000000000000000, -1.000000000000000000, -0.000000000000000000 ) ) ;
#339 = FILL_AREA_STYLE ('',( #114 ) ) ;
#340 = AXIS2_PLACEMENT_3D ( 'NONE', #309, #169, #342 ) ;
#341 = CIRCLE ( 'NONE', #49, 0.1875000000000000278 ) ;
#342 = DIRECTION ( 'NONE',  ( -1.000000000000000000, 0.000000000000000000, 0.000000000000000000 ) ) ;
#343 = VECTOR ( 'NONE', #54, 39.37007874015748143 ) ;
#344 = DIRECTION ( 'NONE',  ( 1.000000000000000000, 0.000000000000000000, 0.000000000000000000 ) ) ;
#345 = LINE ( 'NONE', #318, #343 ) ;
#346 = UNCERTAINTY_MEASURE_WITH_UNIT (LENGTH_MEASURE( 1.000000000000000082E-05 ), #233, 'distance_accuracy_value', 'NONE');
#347 = CIRCLE ( 'NONE', #293, 0.1874999999999998335 ) ;
#348 = FACE_OUTER_BOUND ( 'NONE', #355, .T. ) ;
#349 = PRESENTATION_LAYER_ASSIGNMENT (  '', '', ( #188 ) ) ;
#350 = PRESENTATION_LAYER_ASSIGNMENT (  '', '', ( #356 ) ) ;
#351 = ORIENTED_EDGE ( 'NONE', *, *, #8, .F. ) ;
#352 = VERTEX_POINT ( 'NONE', #353 ) ;
#353 = CARTESIAN_POINT ( 'NONE',  ( -0.1875000000000000278, 0.1875000000000000555, 2.296212748401287109E-17 ) ) ;
#354 = ADVANCED_FACE ( 'NONE', ( #123 ), #358, .T. ) ;
#355 = EDGE_LOOP ( 'NONE', ( #99, #44, #158, #330, #129 ) ) ;
#356 = STYLED_ITEM ( 'NONE', ( #373 ), #291 ) ;
#357 = VERTEX_POINT ( 'NONE', #223 ) ;
#358 = SPHERICAL_SURFACE ( 'NONE', #240, 0.1875000000000000278 ) ;
#359 = ORIENTED_EDGE ( 'NONE', *, *, #208, .F. ) ;
#360 = DIRECTION ( 'NONE',  ( -0.000000000000000000, -1.000000000000000000, -0.000000000000000000 ) ) ;
#361 = FACE_OUTER_BOUND ( 'NONE', #163, .T. ) ;
#362 = PRESENTATION_STYLE_ASSIGNMENT (( #369 ) ) ;
#363 = CIRCLE ( 'NONE', #307, 0.1874999999999996392 ) ;
#364 = PRODUCT_DEFINITION_FORMATION_WITH_SPECIFIED_SOURCE ( 'ANY', '', #242, .NOT_KNOWN. ) ;
#365 = SURFACE_SIDE_STYLE ('',( #288 ) ) ;
#366 = CYLINDRICAL_SURFACE ( 'NONE', #42, 0.1874999999999999167 ) ;
#367 = CARTESIAN_POINT ( 'NONE',  ( -0.1874999999999999722, 3.000000000000000444, 0.000000000000000000 ) ) ;
#368 = DIRECTION ( 'NONE',  ( 0.000000000000000000, 0.000000000000000000, -1.000000000000000000 ) ) ;
#369 = SURFACE_STYLE_USAGE ( .BOTH. , #172 ) ;
#370 = AXIS2_PLACEMENT_3D ( 'NONE', #371, #84, #368 ) ;
#371 = CARTESIAN_POINT ( 'NONE',  ( 0.000000000000000000, 0.1875000000000000555, 0.000000000000000000 ) ) ;
#372 = UNCERTAINTY_MEASURE_WITH_UNIT (LENGTH_MEASURE( 1.000000000000000082E-05 ), #235, 'distance_accuracy_value', 'NONE');
#373 = PRESENTATION_STYLE_ASSIGNMENT (( #182 ) ) ;
ENDSEC;
END-ISO-10303-21;
