ISO-10303-21;
HEADER;
FILE_DESCRIPTION (( 'STEP AP214' ),
    '1' );
FILE_NAME ('17165.STEP',
    '2023-06-30T21:52:52',
    ( '' ),
    ( '' ),
    'SwSTEP 2.0',
    'SolidWorks 2023',
    '' );
FILE_SCHEMA (( 'AUTOMOTIVE_DESIGN' ));
ENDSEC;

DATA;
#1 = ADVANCED_FACE ( 'NONE', ( #220 ), #189, .T. ) ;
#2 =( GEOMETRIC_REPRESENTATION_CONTEXT ( 3 ) GLOBAL_UNCERTAINTY_ASSIGNED_CONTEXT ( ( #265 ) ) GLOBAL_UNIT_ASSIGNED_CONTEXT ( ( #200, #290, #353 ) ) REPRESENTATION_CONTEXT ( 'NONE', 'WORKASPACE' ) );
#3 = DIRECTION ( 'NONE',  ( 0.000000000000000000, 0.000000000000000000, -1.000000000000000000 ) ) ;
#4 = PRESENTATION_STYLE_ASSIGNMENT (( #342 ) ) ;
#5 = CARTESIAN_POINT ( 'NONE',  ( 0.000000000000000000, 0.000000000000000000, 0.000000000000000000 ) ) ;
#6 = FACE_OUTER_BOUND ( 'NONE', #61, .T. ) ;
#7 = PLANE ( 'NONE',  #81 ) ;
#8 = FILL_AREA_STYLE ('',( #141 ) ) ;
#9 =( NAMED_UNIT ( * ) SI_UNIT ( $, .STERADIAN. ) SOLID_ANGLE_UNIT ( ) );
#10 = COLOUR_RGB ( '',0.7921568627450980005, 0.8196078431372548767, 0.9333333333333333481 ) ;
#11 = CARTESIAN_POINT ( 'NONE',  ( 0.1249999999999999306, 2.500000000000000000, 0.000000000000000000 ) ) ;
#12 = EDGE_CURVE ( 'NONE', #241, #257, #260, .T. ) ;
#13 = FACE_OUTER_BOUND ( 'NONE', #233, .T. ) ;
#14 = AXIS2_PLACEMENT_3D ( 'NONE', #156, #133, #243 ) ;
#15 = FACE_OUTER_BOUND ( 'NONE', #144, .T. ) ;
#16 = CARTESIAN_POINT ( 'NONE',  ( 0.1249999999999997641, 2.500000000000000000, 1.530808498934189352E-17 ) ) ;
#17 = EDGE_CURVE ( 'NONE', #293, #42, #185, .T. ) ;
#18 = VERTEX_POINT ( 'NONE', #339 ) ;
#19 = CIRCLE ( 'NONE', #277, 0.1250000000000000000 ) ;
#20 = AXIS2_PLACEMENT_3D ( 'NONE', #190, #72, #345 ) ;
#21 = COLOUR_RGB ( '',1.000000000000000000, 0.000000000000000000, 0.000000000000000000 ) ;
#22 = EDGE_LOOP ( 'NONE', ( #324, #302, #207, #99, #297 ) ) ;
#23 = DIRECTION ( 'NONE',  ( -1.574545884618025482E-16, 1.000000000000000000, -0.000000000000000000 ) ) ;
#24 = CIRCLE ( 'NONE', #30, 0.1250000000000000000 ) ;
#25 = AXIS2_PLACEMENT_3D ( 'NONE', #229, #261, #304 ) ;
#26 = LENGTH_MEASURE_WITH_UNIT ( LENGTH_MEASURE( 0.02539999999999999897 ), #282 );
#27 = DIRECTION ( 'NONE',  ( -1.000000000000000000, 0.000000000000000000, 0.000000000000000000 ) ) ;
#28 = EDGE_CURVE ( 'NONE', #149, #269, #70, .T. ) ;
#29 = SURFACE_SIDE_STYLE ('',( #115 ) ) ;
#30 = AXIS2_PLACEMENT_3D ( 'NONE', #85, #288, #357 ) ;
#31 = FACE_OUTER_BOUND ( 'NONE', #64, .T. ) ;
#32 =( LENGTH_UNIT ( ) NAMED_UNIT ( * ) SI_UNIT ( $, .METRE. ) );
#33 = ORIENTED_EDGE ( 'NONE', *, *, #199, .T. ) ;
#34 = AXIS2_PLACEMENT_3D ( 'NONE', #138, #253, #27 ) ;
#35 = VECTOR ( 'NONE', #369, 39.37007874015748143 ) ;
#36 = FILL_AREA_STYLE_COLOUR ( '', #358 ) ;
#37 = VERTEX_POINT ( 'NONE', #201 ) ;
#38 = FILL_AREA_STYLE ('',( #367 ) ) ;
#39 = EDGE_CURVE ( 'NONE', #245, #269, #196, .T. ) ;
#40 = ORIENTED_EDGE ( 'NONE', *, *, #160, .T. ) ;
#41 = CARTESIAN_POINT ( 'NONE',  ( 0.000000000000000000, 0.000000000000000000, -0.1249999999999999445 ) ) ;
#42 = VERTEX_POINT ( 'NONE', #132 ) ;
#43 =( NAMED_UNIT ( * ) PLANE_ANGLE_UNIT ( ) SI_UNIT ( $, .RADIAN. ) );
#44 = EDGE_CURVE ( 'NONE', #289, #149, #332, .T. ) ;
#45 = FILL_AREA_STYLE ('',( #71 ) ) ;
#46 = CIRCLE ( 'NONE', #34, 0.1249999999999996947 ) ;
#47 = SURFACE_SIDE_STYLE ('',( #315 ) ) ;
#48 = PRODUCT_DEFINITION_SHAPE ( 'NONE', 'NONE',  #188 ) ;
#49 = DIRECTION ( 'NONE',  ( -1.000000000000000000, 0.000000000000000000, 0.000000000000000000 ) ) ;
#50 = AXIS2_PLACEMENT_3D ( 'NONE', #327, #208, #362 ) ;
#51 = MANIFOLD_SOLID_BREP ( 'Revolve - Tool Body (Straight Shanked)', #331 ) ;
#52 =( CONVERSION_BASED_UNIT ( 'INCH', #143 ) LENGTH_UNIT ( ) NAMED_UNIT ( #291 ) );
#53 = SURFACE_SIDE_STYLE ('',( #206 ) ) ;
#54 = PRESENTATION_LAYER_ASSIGNMENT (  '', '', ( #223 ) ) ;
#55 = ADVANCED_FACE ( 'NONE', ( #192 ), #166, .T. ) ;
#56 = UNCERTAINTY_MEASURE_WITH_UNIT (LENGTH_MEASURE( 1.000000000000000082E-05 ), #275, 'distance_accuracy_value', 'NONE');
#57 = ORIENTED_EDGE ( 'NONE', *, *, #39, .F. ) ;
#58 = FILL_AREA_STYLE ('',( #36 ) ) ;
#59 = SURFACE_STYLE_USAGE ( .BOTH. , #348 ) ;
#60 = SURFACE_STYLE_USAGE ( .BOTH. , #175 ) ;
#61 = EDGE_LOOP ( 'NONE', ( #68, #237 ) ) ;
#62 = CARTESIAN_POINT ( 'NONE',  ( 0.000000000000000000, 0.7500000000000001110, 0.000000000000000000 ) ) ;
#63 = AXIS2_PLACEMENT_3D ( 'NONE', #170, #142, #89 ) ;
#64 = EDGE_LOOP ( 'NONE', ( #119, #272, #336, #134, #298 ) ) ;
#65 = PRESENTATION_STYLE_ASSIGNMENT (( #334 ) ) ;
#66 =( NAMED_UNIT ( * ) PLANE_ANGLE_UNIT ( ) SI_UNIT ( $, .RADIAN. ) );
#67 = LINE ( 'NONE', #191, #157 ) ;
#68 = ORIENTED_EDGE ( 'NONE', *, *, #91, .F. ) ;
#69 = PRESENTATION_STYLE_ASSIGNMENT (( #294 ) ) ;
#70 = LINE ( 'NONE', #187, #373 ) ;
#71 = FILL_AREA_STYLE_COLOUR ( '', #21 ) ;
#72 = DIRECTION ( 'NONE',  ( 0.000000000000000000, 0.000000000000000000, 1.000000000000000000 ) ) ;
#73 = SPHERICAL_SURFACE ( 'NONE', #14, 0.1250000000000000000 ) ;
#74 = SHAPE_DEFINITION_REPRESENTATION ( #48, #372 ) ;
#75 = DIRECTION ( 'NONE',  ( -1.000000000000000000, 0.000000000000000000, 0.000000000000000000 ) ) ;
#76 =( NAMED_UNIT ( * ) SI_UNIT ( $, .STERADIAN. ) SOLID_ANGLE_UNIT ( ) );
#77 = EDGE_CURVE ( 'NONE', #269, #245, #150, .T. ) ;
#78 = VECTOR ( 'NONE', #259, 39.37007874015748143 ) ;
#79 = ORIENTED_EDGE ( 'NONE', *, *, #226, .F. ) ;
#80 = DIRECTION ( 'NONE',  ( -1.000000000000000000, 0.000000000000000000, 0.000000000000000000 ) ) ;
#81 = AXIS2_PLACEMENT_3D ( 'NONE', #11, #325, #322 ) ;
#82 = CLOSED_SHELL ( 'NONE', ( #1, #252, #228, #131, #338 ) ) ;
#83 = AXIS2_PLACEMENT_3D ( 'NONE', #274, #152, #75 ) ;
#84 = CARTESIAN_POINT ( 'NONE',  ( -1.530808498934191509E-17, 0.1250000000000000000, 0.000000000000000000 ) ) ;
#85 = CARTESIAN_POINT ( 'NONE',  ( 0.000000000000000000, 0.1250000000000000278, 0.000000000000000000 ) ) ;
#86 = CYLINDRICAL_SURFACE ( 'NONE', #63, 0.1249999999999999445 ) ;
#87 =( GEOMETRIC_REPRESENTATION_CONTEXT ( 3 ) GLOBAL_UNCERTAINTY_ASSIGNED_CONTEXT ( ( #292 ) ) GLOBAL_UNIT_ASSIGNED_CONTEXT ( ( #264, #303, #371 ) ) REPRESENTATION_CONTEXT ( 'NONE', 'WORKASPACE' ) );
#88 = ORIENTED_EDGE ( 'NONE', *, *, #160, .F. ) ;
#89 = DIRECTION ( 'NONE',  ( 0.000000000000000000, 0.000000000000000000, -1.000000000000000000 ) ) ;
#90 = FACE_OUTER_BOUND ( 'NONE', #22, .T. ) ;
#91 = EDGE_CURVE ( 'NONE', #149, #289, #46, .T. ) ;
#92 = EDGE_LOOP ( 'NONE', ( #123, #177, #129, #165 ) ) ;
#93 =( NAMED_UNIT ( * ) SI_UNIT ( $, .STERADIAN. ) SOLID_ANGLE_UNIT ( ) );
#94 = EDGE_LOOP ( 'NONE', ( #215, #172 ) ) ;
#95 = AXIS2_PLACEMENT_3D ( 'NONE', #306, #120, #216 ) ;
#96 = DIRECTION ( 'NONE',  ( 0.000000000000000000, 0.000000000000000000, -1.000000000000000000 ) ) ;
#97 = MECHANICAL_DESIGN_GEOMETRIC_PRESENTATION_REPRESENTATION (  '', ( #352 ), #87 ) ;
#98 = CARTESIAN_POINT ( 'NONE',  ( 0.000000000000000000, 0.7500000000000001110, 0.000000000000000000 ) ) ;
#99 = ORIENTED_EDGE ( 'NONE', *, *, #199, .F. ) ;
#100 = APPLICATION_PROTOCOL_DEFINITION ( 'draft international standard', 'automotive_design', 1998, #107 ) ;
#101 = ADVANCED_FACE ( 'NONE', ( #6 ), #224, .F. ) ;
#102 = CIRCLE ( 'NONE', #262, 0.1250000000000000000 ) ;
#103 = AXIS2_PLACEMENT_3D ( 'NONE', #62, #340, #96 ) ;
#104 = CARTESIAN_POINT ( 'NONE',  ( 0.000000000000000000, 0.7500000000000001110, -0.1249999999999999029 ) ) ;
#105 =( NAMED_UNIT ( * ) PLANE_ANGLE_UNIT ( ) SI_UNIT ( $, .RADIAN. ) );
#106 = FACE_OUTER_BOUND ( 'NONE', #364, .T. ) ;
#107 = APPLICATION_CONTEXT ( 'automotive_design' ) ;
#108 = PRODUCT ( '17165', '17165', '', ( #307 ) ) ;
#109 =( GEOMETRIC_REPRESENTATION_CONTEXT ( 3 ) GLOBAL_UNCERTAINTY_ASSIGNED_CONTEXT ( ( #56 ) ) GLOBAL_UNIT_ASSIGNED_CONTEXT ( ( #275, #43, #128 ) ) REPRESENTATION_CONTEXT ( 'NONE', 'WORKASPACE' ) );
#110 = PRESENTATION_STYLE_ASSIGNMENT (( #255 ) ) ;
#111 = SURFACE_STYLE_USAGE ( .BOTH. , #53 ) ;
#112 = DIMENSIONAL_EXPONENTS ( 1.000000000000000000, 0.000000000000000000, 0.000000000000000000, 0.000000000000000000, 0.000000000000000000, 0.000000000000000000, 0.000000000000000000 ) ;
#113 =( GEOMETRIC_REPRESENTATION_CONTEXT ( 3 ) GLOBAL_UNCERTAINTY_ASSIGNED_CONTEXT ( ( #146 ) ) GLOBAL_UNIT_ASSIGNED_CONTEXT ( ( #330, #105, #76 ) ) REPRESENTATION_CONTEXT ( 'NONE', 'WORKASPACE' ) );
#114 = MECHANICAL_DESIGN_GEOMETRIC_PRESENTATION_REPRESENTATION (  '', ( #227 ), #2 ) ;
#115 = SURFACE_STYLE_FILL_AREA ( #195 ) ;
#116 = ADVANCED_FACE ( 'NONE', ( #285 ), #7, .F. ) ;
#117 = PRESENTATION_STYLE_ASSIGNMENT (( #111 ) ) ;
#118 = AXIS2_PLACEMENT_3D ( 'NONE', #366, #268, #204 ) ;
#119 = ORIENTED_EDGE ( 'NONE', *, *, #344, .F. ) ;
#120 = DIRECTION ( 'NONE',  ( 0.000000000000000000, 0.000000000000000000, 1.000000000000000000 ) ) ;
#121 = DIRECTION ( 'NONE',  ( 0.000000000000000000, 0.000000000000000000, -1.000000000000000000 ) ) ;
#122 = EDGE_CURVE ( 'NONE', #241, #18, #354, .T. ) ;
#123 = ORIENTED_EDGE ( 'NONE', *, *, #91, .T. ) ;
#124 = PLANE ( 'NONE',  #50 ) ;
#125 = PRESENTATION_LAYER_ASSIGNMENT (  '', '', ( #162 ) ) ;
#126 =( LENGTH_UNIT ( ) NAMED_UNIT ( * ) SI_UNIT ( $, .METRE. ) );
#127 = LENGTH_MEASURE_WITH_UNIT ( LENGTH_MEASURE( 0.02539999999999999897 ), #346 );
#128 =( NAMED_UNIT ( * ) SI_UNIT ( $, .STERADIAN. ) SOLID_ANGLE_UNIT ( ) );
#129 = ORIENTED_EDGE ( 'NONE', *, *, #77, .F. ) ;
#130 = DIRECTION ( 'NONE',  ( -0.000000000000000000, -1.000000000000000000, -0.000000000000000000 ) ) ;
#131 = ADVANCED_FACE ( 'NONE', ( #31 ), #86, .T. ) ;
#132 = CARTESIAN_POINT ( 'NONE',  ( 0.000000000000000000, 0.1250000000000000278, -0.1250000000000000000 ) ) ;
#133 = DIRECTION ( 'NONE',  ( 0.000000000000000000, 0.000000000000000000, 1.000000000000000000 ) ) ;
#134 = ORIENTED_EDGE ( 'NONE', *, *, #305, .F. ) ;
#135 = MECHANICAL_DESIGN_GEOMETRIC_PRESENTATION_REPRESENTATION (  '', ( #147 ), #181 ) ;
#136 =( GEOMETRIC_REPRESENTATION_CONTEXT ( 3 ) GLOBAL_UNCERTAINTY_ASSIGNED_CONTEXT ( ( #171 ) ) GLOBAL_UNIT_ASSIGNED_CONTEXT ( ( #329, #365, #93 ) ) REPRESENTATION_CONTEXT ( 'NONE', 'WORKASPACE' ) );
#137 = DIRECTION ( 'NONE',  ( -1.574545884618025482E-16, 1.000000000000000000, -0.000000000000000000 ) ) ;
#138 = CARTESIAN_POINT ( 'NONE',  ( 2.143131898507868297E-16, 0.7499999999999998890, 0.000000000000000000 ) ) ;
#139 = CIRCLE ( 'NONE', #249, 0.1250000000000000000 ) ;
#140 = FILL_AREA_STYLE_COLOUR ( '', #248 ) ;
#141 = FILL_AREA_STYLE_COLOUR ( '', #316 ) ;
#142 = DIRECTION ( 'NONE',  ( -0.000000000000000000, -1.000000000000000000, -0.000000000000000000 ) ) ;
#143 = LENGTH_MEASURE_WITH_UNIT ( LENGTH_MEASURE( 0.02539999999999999897 ), #32 );
#144 = EDGE_LOOP ( 'NONE', ( #79, #326, #240, #57 ) ) ;
#145 = FILL_AREA_STYLE ('',( #184 ) ) ;
#146 = UNCERTAINTY_MEASURE_WITH_UNIT (LENGTH_MEASURE( 1.000000000000000082E-05 ), #330, 'distance_accuracy_value', 'NONE');
#147 = STYLED_ITEM ( 'NONE', ( #117 ), #176 ) ;
#148 = PRESENTATION_LAYER_ASSIGNMENT (  '', '', ( #317 ) ) ;
#149 = VERTEX_POINT ( 'NONE', #320 ) ;
#150 = CIRCLE ( 'NONE', #311, 0.1250000000000000000 ) ;
#151 = LENGTH_MEASURE_WITH_UNIT ( LENGTH_MEASURE( 0.02539999999999999897 ), #126 );
#152 = DIRECTION ( 'NONE',  ( -1.574545884618025482E-16, 1.000000000000000000, -0.000000000000000000 ) ) ;
#153 = CARTESIAN_POINT ( 'NONE',  ( -0.1250000000000000000, 0.1250000000000000278, 1.530808498934191201E-17 ) ) ;
#154 = ORIENTED_EDGE ( 'NONE', *, *, #242, .F. ) ;
#155 = ORIENTED_EDGE ( 'NONE', *, *, #283, .F. ) ;
#156 = CARTESIAN_POINT ( 'NONE',  ( -1.530808498934191509E-17, 0.1250000000000000000, 0.000000000000000000 ) ) ;
#157 = VECTOR ( 'NONE', #276, 39.37007874015748143 ) ;
#158 = SURFACE_SIDE_STYLE ('',( #267 ) ) ;
#159 =( LENGTH_UNIT ( ) NAMED_UNIT ( * ) SI_UNIT ( $, .METRE. ) );
#160 = EDGE_CURVE ( 'NONE', #263, #18, #102, .T. ) ;
#161 = FILL_AREA_STYLE_COLOUR ( '', #10 ) ;
#162 = STYLED_ITEM ( 'NONE', ( #69 ), #228 ) ;
#163 = PRODUCT_DEFINITION_FORMATION_WITH_SPECIFIED_SOURCE ( 'ANY', '', #108, .NOT_KNOWN. ) ;
#164 = STYLED_ITEM ( 'NONE', ( #4 ), #51 ) ;
#165 = ORIENTED_EDGE ( 'NONE', *, *, #28, .F. ) ;
#166 = CYLINDRICAL_SURFACE ( 'NONE', #296, 0.1249999999999998335 ) ;
#167 =( NAMED_UNIT ( * ) SI_UNIT ( $, .STERADIAN. ) SOLID_ANGLE_UNIT ( ) );
#168 = DIRECTION ( 'NONE',  ( 1.000000000000000000, 0.000000000000000000, -1.224646799147353207E-16 ) ) ;
#169 = DIMENSIONAL_EXPONENTS ( 1.000000000000000000, 0.000000000000000000, 0.000000000000000000, 0.000000000000000000, 0.000000000000000000, 0.000000000000000000, 0.000000000000000000 ) ;
#170 = CARTESIAN_POINT ( 'NONE',  ( 0.000000000000000000, 0.000000000000000000, 0.000000000000000000 ) ) ;
#171 = UNCERTAINTY_MEASURE_WITH_UNIT (LENGTH_MEASURE( 1.000000000000000082E-05 ), #329, 'distance_accuracy_value', 'NONE');
#172 = ORIENTED_EDGE ( 'NONE', *, *, #39, .T. ) ;
#173 = DIMENSIONAL_EXPONENTS ( 1.000000000000000000, 0.000000000000000000, 0.000000000000000000, 0.000000000000000000, 0.000000000000000000, 0.000000000000000000, 0.000000000000000000 ) ;
#174 = DIRECTION ( 'NONE',  ( 0.000000000000000000, 0.000000000000000000, -1.000000000000000000 ) ) ;
#175 = SURFACE_SIDE_STYLE ('',( #363 ) ) ;
#176 = MANIFOLD_SOLID_BREP ( 'Revolve - Cutting Edge', #82 ) ;
#177 = ORIENTED_EDGE ( 'NONE', *, *, #226, .T. ) ;
#178 = SURFACE_SIDE_STYLE ('',( #212 ) ) ;
#179 = PRODUCT_DEFINITION_CONTEXT ( 'detailed design', #281, 'design' ) ;
#180 = PRESENTATION_STYLE_ASSIGNMENT (( #60 ) ) ;
#181 =( GEOMETRIC_REPRESENTATION_CONTEXT ( 3 ) GLOBAL_UNCERTAINTY_ASSIGNED_CONTEXT ( ( #209 ) ) GLOBAL_UNIT_ASSIGNED_CONTEXT ( ( #52, #202, #9 ) ) REPRESENTATION_CONTEXT ( 'NONE', 'WORKASPACE' ) );
#182 = EDGE_LOOP ( 'NONE', ( #333, #40, #328, #186 ) ) ;
#183 = MECHANICAL_DESIGN_GEOMETRIC_PRESENTATION_REPRESENTATION (  '', ( #164 ), #250 ) ;
#184 = FILL_AREA_STYLE_COLOUR ( '', #319 ) ;
#185 = LINE ( 'NONE', #41, #35 ) ;
#186 = ORIENTED_EDGE ( 'NONE', *, *, #12, .T. ) ;
#187 = CARTESIAN_POINT ( 'NONE',  ( -0.1249999999999999029, 2.500000000000000000, 0.000000000000000000 ) ) ;
#188 = PRODUCT_DEFINITION ( 'UNKNOWN', '', #163, #179 ) ;
#189 = SPHERICAL_SURFACE ( 'NONE', #95, 0.1250000000000000000 ) ;
#190 = CARTESIAN_POINT ( 'NONE',  ( 0.000000000000000000, 0.000000000000000000, 0.000000000000000000 ) ) ;
#191 = CARTESIAN_POINT ( 'NONE',  ( 1.530808498934190893E-17, 0.000000000000000000, 0.1249999999999999445 ) ) ;
#192 = FACE_OUTER_BOUND ( 'NONE', #92, .T. ) ;
#193 = DIRECTION ( 'NONE',  ( -1.000000000000000000, 0.000000000000000000, 0.000000000000000000 ) ) ;
#194 = CARTESIAN_POINT ( 'NONE',  ( 2.143131898507868297E-16, 0.7500000000000001110, 0.000000000000000000 ) ) ;
#195 = FILL_AREA_STYLE ('',( #140 ) ) ;
#196 = CIRCLE ( 'NONE', #25, 0.1250000000000000000 ) ;
#197 = UNCERTAINTY_MEASURE_WITH_UNIT (LENGTH_MEASURE( 1.000000000000000082E-05 ), #213, 'distance_accuracy_value', 'NONE');
#198 = CIRCLE ( 'NONE', #103, 0.1249999999999999029 ) ;
#199 = EDGE_CURVE ( 'NONE', #42, #241, #24, .T. ) ;
#200 =( CONVERSION_BASED_UNIT ( 'INCH', #356 ) LENGTH_UNIT ( ) NAMED_UNIT ( #355 ) );
#201 = CARTESIAN_POINT ( 'NONE',  ( 1.530808498934190585E-17, 0.7500000000000001110, 0.1249999999999999029 ) ) ;
#202 =( NAMED_UNIT ( * ) PLANE_ANGLE_UNIT ( ) SI_UNIT ( $, .RADIAN. ) );
#203 = CARTESIAN_POINT ( 'NONE',  ( -1.530808498934191509E-17, 0.1250000000000000000, 0.000000000000000000 ) ) ;
#204 = DIRECTION ( 'NONE',  ( -1.000000000000000000, 0.000000000000000000, 0.000000000000000000 ) ) ;
#205 = ORIENTED_EDGE ( 'NONE', *, *, #305, .T. ) ;
#206 = SURFACE_STYLE_FILL_AREA ( #8 ) ;
#207 = ORIENTED_EDGE ( 'NONE', *, *, #12, .F. ) ;
#208 = DIRECTION ( 'NONE',  ( 0.000000000000000000, 1.000000000000000000, 0.000000000000000000 ) ) ;
#209 = UNCERTAINTY_MEASURE_WITH_UNIT (LENGTH_MEASURE( 1.000000000000000082E-05 ), #52, 'distance_accuracy_value', 'NONE');
#210 = LENGTH_MEASURE_WITH_UNIT ( LENGTH_MEASURE( 0.02539999999999999897 ), #235 );
#211 = PRESENTATION_LAYER_ASSIGNMENT (  '', '', ( #164 ) ) ;
#212 = SURFACE_STYLE_FILL_AREA ( #145 ) ;
#213 =( CONVERSION_BASED_UNIT ( 'INCH', #127 ) LENGTH_UNIT ( ) NAMED_UNIT ( #173 ) );
#214 = CARTESIAN_POINT ( 'NONE',  ( 1.530808498934191817E-17, 0.1250000000000000278, 0.1250000000000000000 ) ) ;
#215 = ORIENTED_EDGE ( 'NONE', *, *, #77, .T. ) ;
#216 = DIRECTION ( 'NONE',  ( 1.000000000000000000, 0.000000000000000000, 0.000000000000000000 ) ) ;
#217 = AXIS2_PLACEMENT_3D ( 'NONE', #203, #174, #80 ) ;
#218 = CIRCLE ( 'NONE', #312, 0.1249999999999999029 ) ;
#219 = DIRECTION ( 'NONE',  ( -1.000000000000000000, -1.574545884618025482E-16, 0.000000000000000000 ) ) ;
#220 = FACE_OUTER_BOUND ( 'NONE', #182, .T. ) ;
#221 = AXIS2_PLACEMENT_3D ( 'NONE', #5, #225, #254 ) ;
#222 = EDGE_CURVE ( 'NONE', #257, #263, #19, .T. ) ;
#223 = STYLED_ITEM ( 'NONE', ( #308 ), #1 ) ;
#224 = PLANE ( 'NONE',  #368 ) ;
#225 = DIRECTION ( 'NONE',  ( -0.000000000000000000, -1.000000000000000000, -0.000000000000000000 ) ) ;
#226 = EDGE_CURVE ( 'NONE', #289, #245, #337, .T. ) ;
#227 = STYLED_ITEM ( 'NONE', ( #110 ), #131 ) ;
#228 = ADVANCED_FACE ( 'NONE', ( #13 ), #124, .T. ) ;
#229 = CARTESIAN_POINT ( 'NONE',  ( -6.123233995736766036E-17, 2.500000000000000000, 0.000000000000000000 ) ) ;
#230 =( GEOMETRIC_REPRESENTATION_CONTEXT ( 3 ) GLOBAL_UNCERTAINTY_ASSIGNED_CONTEXT ( ( #197 ) ) GLOBAL_UNIT_ASSIGNED_CONTEXT ( ( #213, #66, #301 ) ) REPRESENTATION_CONTEXT ( 'NONE', 'WORKASPACE' ) );
#231 = CARTESIAN_POINT ( 'NONE',  ( 0.000000000000000000, 0.1250000000000000278, 0.000000000000000000 ) ) ;
#232 = LENGTH_MEASURE_WITH_UNIT ( LENGTH_MEASURE( 0.02539999999999999897 ), #234 );
#233 = EDGE_LOOP ( 'NONE', ( #155, #154 ) ) ;
#234 =( LENGTH_UNIT ( ) NAMED_UNIT ( * ) SI_UNIT ( $, .METRE. ) );
#235 =( LENGTH_UNIT ( ) NAMED_UNIT ( * ) SI_UNIT ( $, .METRE. ) );
#236 = CYLINDRICAL_SURFACE ( 'NONE', #118, 0.1249999999999998335 ) ;
#237 = ORIENTED_EDGE ( 'NONE', *, *, #44, .F. ) ;
#238 = CARTESIAN_POINT ( 'NONE',  ( 0.1250000000000000000, 0.1250000000000000278, 0.000000000000000000 ) ) ;
#239 = AXIS2_PLACEMENT_3D ( 'NONE', #231, #361, #335 ) ;
#240 = ORIENTED_EDGE ( 'NONE', *, *, #28, .T. ) ;
#241 = VERTEX_POINT ( 'NONE', #238 ) ;
#242 = EDGE_CURVE ( 'NONE', #37, #293, #198, .T. ) ;
#243 = DIRECTION ( 'NONE',  ( 1.000000000000000000, 0.000000000000000000, 0.000000000000000000 ) ) ;
#244 = CARTESIAN_POINT ( 'NONE',  ( 0.000000000000000000, 0.1250000000000000278, 0.000000000000000000 ) ) ;
#245 = VERTEX_POINT ( 'NONE', #300 ) ;
#246 = DIRECTION ( 'NONE',  ( -1.574545884618025482E-16, 1.000000000000000000, 0.000000000000000000 ) ) ;
#247 = DIRECTION ( 'NONE',  ( -0.000000000000000000, -1.000000000000000000, -0.000000000000000000 ) ) ;
#248 = COLOUR_RGB ( '',1.000000000000000000, 0.000000000000000000, 0.000000000000000000 ) ;
#249 = AXIS2_PLACEMENT_3D ( 'NONE', #244, #279, #347 ) ;
#250 =( GEOMETRIC_REPRESENTATION_CONTEXT ( 3 ) GLOBAL_UNCERTAINTY_ASSIGNED_CONTEXT ( ( #341 ) ) GLOBAL_UNIT_ASSIGNED_CONTEXT ( ( #310, #313, #167 ) ) REPRESENTATION_CONTEXT ( 'NONE', 'WORKASPACE' ) );
#251 = FILL_AREA_STYLE ('',( #161 ) ) ;
#252 = ADVANCED_FACE ( 'NONE', ( #90 ), #284, .T. ) ;
#253 = DIRECTION ( 'NONE',  ( -1.574545884618025482E-16, 1.000000000000000000, -0.000000000000000000 ) ) ;
#254 = DIRECTION ( 'NONE',  ( 0.000000000000000000, 0.000000000000000000, -1.000000000000000000 ) ) ;
#255 = SURFACE_STYLE_USAGE ( .BOTH. , #29 ) ;
#256 = PRESENTATION_LAYER_ASSIGNMENT (  '', '', ( #147 ) ) ;
#257 = VERTEX_POINT ( 'NONE', #214 ) ;
#258 = DIMENSIONAL_EXPONENTS ( 1.000000000000000000, 0.000000000000000000, 0.000000000000000000, 0.000000000000000000, 0.000000000000000000, 0.000000000000000000, 0.000000000000000000 ) ;
#259 = DIRECTION ( 'NONE',  ( -1.574545884618025482E-16, 1.000000000000000000, -0.000000000000000000 ) ) ;
#260 = CIRCLE ( 'NONE', #239, 0.1250000000000000000 ) ;
#261 = DIRECTION ( 'NONE',  ( -1.574545884618025482E-16, 1.000000000000000000, -0.000000000000000000 ) ) ;
#262 = AXIS2_PLACEMENT_3D ( 'NONE', #84, #318, #168 ) ;
#263 = VERTEX_POINT ( 'NONE', #153 ) ;
#264 =( CONVERSION_BASED_UNIT ( 'INCH', #151 ) LENGTH_UNIT ( ) NAMED_UNIT ( #169 ) );
#265 = UNCERTAINTY_MEASURE_WITH_UNIT (LENGTH_MEASURE( 1.000000000000000082E-05 ), #200, 'distance_accuracy_value', 'NONE');
#266 = ADVANCED_FACE ( 'NONE', ( #15 ), #236, .T. ) ;
#267 = SURFACE_STYLE_FILL_AREA ( #38 ) ;
#268 = DIRECTION ( 'NONE',  ( -1.574545884618025482E-16, 1.000000000000000000, -0.000000000000000000 ) ) ;
#269 = VERTEX_POINT ( 'NONE', #323 ) ;
#270 = CARTESIAN_POINT ( 'NONE',  ( 0.000000000000000000, 0.1250000000000000278, 0.000000000000000000 ) ) ;
#271 = MECHANICAL_DESIGN_GEOMETRIC_PRESENTATION_REPRESENTATION (  '', ( #317 ), #113 ) ;
#272 = ORIENTED_EDGE ( 'NONE', *, *, #242, .T. ) ;
#273 = CARTESIAN_POINT ( 'NONE',  ( 0.1249999999999999167, 0.7499999999999998890, 1.530808498934190276E-17 ) ) ;
#274 = CARTESIAN_POINT ( 'NONE',  ( 2.143131898507868297E-16, 0.7499999999999998890, 0.000000000000000000 ) ) ;
#275 =( CONVERSION_BASED_UNIT ( 'INCH', #343 ) LENGTH_UNIT ( ) NAMED_UNIT ( #112 ) );
#276 = DIRECTION ( 'NONE',  ( -0.000000000000000000, -1.000000000000000000, -0.000000000000000000 ) ) ;
#277 = AXIS2_PLACEMENT_3D ( 'NONE', #270, #130, #121 ) ;
#278 = PRESENTATION_LAYER_ASSIGNMENT (  '', '', ( #352 ) ) ;
#279 = DIRECTION ( 'NONE',  ( -0.000000000000000000, -1.000000000000000000, -0.000000000000000000 ) ) ;
#280 = CARTESIAN_POINT ( 'NONE',  ( -6.123233995736766036E-17, 2.500000000000000000, 0.000000000000000000 ) ) ;
#281 = APPLICATION_CONTEXT ( 'automotive_design' ) ;
#282 =( LENGTH_UNIT ( ) NAMED_UNIT ( * ) SI_UNIT ( $, .METRE. ) );
#283 = EDGE_CURVE ( 'NONE', #293, #37, #218, .T. ) ;
#284 = CYLINDRICAL_SURFACE ( 'NONE', #221, 0.1249999999999999445 ) ;
#285 = FACE_OUTER_BOUND ( 'NONE', #94, .T. ) ;
#286 = COLOUR_RGB ( '',1.000000000000000000, 0.000000000000000000, 0.000000000000000000 ) ;
#287 = DIMENSIONAL_EXPONENTS ( 1.000000000000000000, 0.000000000000000000, 0.000000000000000000, 0.000000000000000000, 0.000000000000000000, 0.000000000000000000, 0.000000000000000000 ) ;
#288 = DIRECTION ( 'NONE',  ( -0.000000000000000000, -1.000000000000000000, -0.000000000000000000 ) ) ;
#289 = VERTEX_POINT ( 'NONE', #273 ) ;
#290 =( NAMED_UNIT ( * ) PLANE_ANGLE_UNIT ( ) SI_UNIT ( $, .RADIAN. ) );
#291 = DIMENSIONAL_EXPONENTS ( 1.000000000000000000, 0.000000000000000000, 0.000000000000000000, 0.000000000000000000, 0.000000000000000000, 0.000000000000000000, 0.000000000000000000 ) ;
#292 = UNCERTAINTY_MEASURE_WITH_UNIT (LENGTH_MEASURE( 1.000000000000000082E-05 ), #264, 'distance_accuracy_value', 'NONE');
#293 = VERTEX_POINT ( 'NONE', #104 ) ;
#294 = SURFACE_STYLE_USAGE ( .BOTH. , #158 ) ;
#295 = PRESENTATION_LAYER_ASSIGNMENT (  '', '', ( #227 ) ) ;
#296 = AXIS2_PLACEMENT_3D ( 'NONE', #280, #137, #193 ) ;
#297 = ORIENTED_EDGE ( 'NONE', *, *, #17, .F. ) ;
#298 = ORIENTED_EDGE ( 'NONE', *, *, #222, .F. ) ;
#299 = DIMENSIONAL_EXPONENTS ( 1.000000000000000000, 0.000000000000000000, 0.000000000000000000, 0.000000000000000000, 0.000000000000000000, 0.000000000000000000, 0.000000000000000000 ) ;
#300 = CARTESIAN_POINT ( 'NONE',  ( 0.1249999999999999306, 2.500000000000000000, 1.530808498934190276E-17 ) ) ;
#301 =( NAMED_UNIT ( * ) SI_UNIT ( $, .STERADIAN. ) SOLID_ANGLE_UNIT ( ) );
#302 = ORIENTED_EDGE ( 'NONE', *, *, #344, .T. ) ;
#303 =( NAMED_UNIT ( * ) PLANE_ANGLE_UNIT ( ) SI_UNIT ( $, .RADIAN. ) );
#304 = DIRECTION ( 'NONE',  ( -1.000000000000000000, 0.000000000000000000, 0.000000000000000000 ) ) ;
#305 = EDGE_CURVE ( 'NONE', #263, #42, #139, .T. ) ;
#306 = CARTESIAN_POINT ( 'NONE',  ( -1.530808498934191509E-17, 0.1250000000000000000, 0.000000000000000000 ) ) ;
#307 = PRODUCT_CONTEXT ( 'NONE', #107, 'mechanical' ) ;
#308 = PRESENTATION_STYLE_ASSIGNMENT (( #59 ) ) ;
#309 = APPLICATION_PROTOCOL_DEFINITION ( 'draft international standard', 'automotive_design', 1998, #281 ) ;
#310 =( CONVERSION_BASED_UNIT ( 'INCH', #26 ) LENGTH_UNIT ( ) NAMED_UNIT ( #258 ) );
#311 = AXIS2_PLACEMENT_3D ( 'NONE', #350, #314, #49 ) ;
#312 = AXIS2_PLACEMENT_3D ( 'NONE', #98, #247, #3 ) ;
#313 =( NAMED_UNIT ( * ) PLANE_ANGLE_UNIT ( ) SI_UNIT ( $, .RADIAN. ) );
#314 = DIRECTION ( 'NONE',  ( -1.574545884618025482E-16, 1.000000000000000000, -0.000000000000000000 ) ) ;
#315 = SURFACE_STYLE_FILL_AREA ( #251 ) ;
#316 = COLOUR_RGB ( '',0.7921568627450980005, 0.8196078431372548767, 0.9333333333333333481 ) ;
#317 = STYLED_ITEM ( 'NONE', ( #180 ), #338 ) ;
#318 = DIRECTION ( 'NONE',  ( 1.224646799147353207E-16, -0.000000000000000000, 1.000000000000000000 ) ) ;
#319 = COLOUR_RGB ( '',1.000000000000000000, 0.000000000000000000, 0.000000000000000000 ) ;
#320 = CARTESIAN_POINT ( 'NONE',  ( -0.1249999999999994726, 0.7499999999999998890, 0.000000000000000000 ) ) ;
#321 = PRODUCT_RELATED_PRODUCT_CATEGORY ( 'part', '', ( #108 ) ) ;
#322 = DIRECTION ( 'NONE',  ( 1.000000000000000000, 1.574545884618025482E-16, 0.000000000000000000 ) ) ;
#323 = CARTESIAN_POINT ( 'NONE',  ( -0.1250000000000000555, 2.500000000000000000, 0.000000000000000000 ) ) ;
#324 = ORIENTED_EDGE ( 'NONE', *, *, #283, .T. ) ;
#325 = DIRECTION ( 'NONE',  ( 1.574545884618025482E-16, -1.000000000000000000, 0.000000000000000000 ) ) ;
#326 = ORIENTED_EDGE ( 'NONE', *, *, #44, .T. ) ;
#327 = CARTESIAN_POINT ( 'NONE',  ( 0.000000000000000000, 0.7500000000000001110, 0.000000000000000000 ) ) ;
#328 = ORIENTED_EDGE ( 'NONE', *, *, #122, .F. ) ;
#329 =( CONVERSION_BASED_UNIT ( 'INCH', #232 ) LENGTH_UNIT ( ) NAMED_UNIT ( #299 ) );
#330 =( CONVERSION_BASED_UNIT ( 'INCH', #210 ) LENGTH_UNIT ( ) NAMED_UNIT ( #287 ) );
#331 = CLOSED_SHELL ( 'NONE', ( #55, #101, #266, #116 ) ) ;
#332 = CIRCLE ( 'NONE', #83, 0.1249999999999996947 ) ;
#333 = ORIENTED_EDGE ( 'NONE', *, *, #222, .T. ) ;
#334 = SURFACE_STYLE_USAGE ( .BOTH. , #178 ) ;
#335 = DIRECTION ( 'NONE',  ( 0.000000000000000000, 0.000000000000000000, -1.000000000000000000 ) ) ;
#336 = ORIENTED_EDGE ( 'NONE', *, *, #17, .T. ) ;
#337 = LINE ( 'NONE', #16, #78 ) ;
#338 = ADVANCED_FACE ( 'NONE', ( #106 ), #73, .T. ) ;
#339 = CARTESIAN_POINT ( 'NONE',  ( -7.654042494670957545E-18, 0.000000000000000000, 0.000000000000000000 ) ) ;
#340 = DIRECTION ( 'NONE',  ( -0.000000000000000000, -1.000000000000000000, -0.000000000000000000 ) ) ;
#341 = UNCERTAINTY_MEASURE_WITH_UNIT (LENGTH_MEASURE( 1.000000000000000082E-05 ), #310, 'distance_accuracy_value', 'NONE');
#342 = SURFACE_STYLE_USAGE ( .BOTH. , #47 ) ;
#343 = LENGTH_MEASURE_WITH_UNIT ( LENGTH_MEASURE( 0.02539999999999999897 ), #159 );
#344 = EDGE_CURVE ( 'NONE', #37, #257, #67, .T. ) ;
#345 = DIRECTION ( 'NONE',  ( 1.000000000000000000, 0.000000000000000000, 0.000000000000000000 ) ) ;
#346 =( LENGTH_UNIT ( ) NAMED_UNIT ( * ) SI_UNIT ( $, .METRE. ) );
#347 = DIRECTION ( 'NONE',  ( 0.000000000000000000, 0.000000000000000000, -1.000000000000000000 ) ) ;
#348 = SURFACE_SIDE_STYLE ('',( #370 ) ) ;
#349 = MECHANICAL_DESIGN_GEOMETRIC_PRESENTATION_REPRESENTATION (  '', ( #162 ), #136 ) ;
#350 = CARTESIAN_POINT ( 'NONE',  ( -6.123233995736766036E-17, 2.500000000000000000, 0.000000000000000000 ) ) ;
#351 =( LENGTH_UNIT ( ) NAMED_UNIT ( * ) SI_UNIT ( $, .METRE. ) );
#352 = STYLED_ITEM ( 'NONE', ( #65 ), #252 ) ;
#353 =( NAMED_UNIT ( * ) SI_UNIT ( $, .STERADIAN. ) SOLID_ANGLE_UNIT ( ) );
#354 = CIRCLE ( 'NONE', #217, 0.1250000000000000000 ) ;
#355 = DIMENSIONAL_EXPONENTS ( 1.000000000000000000, 0.000000000000000000, 0.000000000000000000, 0.000000000000000000, 0.000000000000000000, 0.000000000000000000, 0.000000000000000000 ) ;
#356 = LENGTH_MEASURE_WITH_UNIT ( LENGTH_MEASURE( 0.02539999999999999897 ), #351 );
#357 = DIRECTION ( 'NONE',  ( 0.000000000000000000, 0.000000000000000000, -1.000000000000000000 ) ) ;
#358 = COLOUR_RGB ( '',1.000000000000000000, 0.000000000000000000, 0.000000000000000000 ) ;
#359 = MECHANICAL_DESIGN_GEOMETRIC_PRESENTATION_REPRESENTATION (  '', ( #223 ), #109 ) ;
#360 = ORIENTED_EDGE ( 'NONE', *, *, #122, .T. ) ;
#361 = DIRECTION ( 'NONE',  ( -0.000000000000000000, -1.000000000000000000, -0.000000000000000000 ) ) ;
#362 = DIRECTION ( 'NONE',  ( 0.000000000000000000, -0.000000000000000000, 1.000000000000000000 ) ) ;
#363 = SURFACE_STYLE_FILL_AREA ( #58 ) ;
#364 = EDGE_LOOP ( 'NONE', ( #88, #205, #33, #360 ) ) ;
#365 =( NAMED_UNIT ( * ) PLANE_ANGLE_UNIT ( ) SI_UNIT ( $, .RADIAN. ) );
#366 = CARTESIAN_POINT ( 'NONE',  ( -6.123233995736766036E-17, 2.500000000000000000, 0.000000000000000000 ) ) ;
#367 = FILL_AREA_STYLE_COLOUR ( '', #286 ) ;
#368 = AXIS2_PLACEMENT_3D ( 'NONE', #194, #246, #219 ) ;
#369 = DIRECTION ( 'NONE',  ( -0.000000000000000000, -1.000000000000000000, -0.000000000000000000 ) ) ;
#370 = SURFACE_STYLE_FILL_AREA ( #45 ) ;
#371 =( NAMED_UNIT ( * ) SI_UNIT ( $, .STERADIAN. ) SOLID_ANGLE_UNIT ( ) );
#372 = ADVANCED_BREP_SHAPE_REPRESENTATION ( '17165', ( #176, #51, #20 ), #230 ) ;
#373 = VECTOR ( 'NONE', #23, 39.37007874015748143 ) ;
ENDSEC;
END-ISO-10303-21;
