ISO-10303-21;
HEADER;
FILE_DESCRIPTION (( 'STEP AP214' ),
    '1' );
FILE_NAME ('Micro_SD-250.STEP',
    '2021-09-02T13:23:28',
    ( '' ),
    ( '' ),
    'SwSTEP 2.0',
    'SolidWorks 2020',
    '' );
FILE_SCHEMA (( 'AUTOMOTIVE_DESIGN' ));
ENDSEC;

DATA;
#1 = ORIENTED_EDGE ( 'NONE', *, *, #252, .T. ) ;
#2 = EDGE_CURVE ( 'NONE', #294, #58, #251, .T. ) ;
#3 = PRODUCT ( 'Micro_SD-250', 'Micro_SD-250', '', ( #82 ) ) ;
#4 = CIRCLE ( 'NONE', #192, 0.1099999999999996397 ) ;
#5 = ORIENTED_EDGE ( 'NONE', *, *, #52, .F. ) ;
#6 = ORIENTED_EDGE ( 'NONE', *, *, #306, .F. ) ;
#7 = DIRECTION ( 'NONE',  ( 0.0000000000000000000, 0.0000000000000000000, 1.000000000000000000 ) ) ;
#8 = ORIENTED_EDGE ( 'NONE', *, *, #2, .T. ) ;
#9 = AXIS2_PLACEMENT_3D ( 'NONE', #62, #171, #139 ) ;
#10 = ORIENTED_EDGE ( 'NONE', *, *, #201, .F. ) ;
#11 = CONICAL_SURFACE ( 'NONE', #236, 0.1249500000000000888, 0.7853981633974482790 ) ;
#12 = PLANE ( 'NONE',  #114 ) ;
#13 = EDGE_CURVE ( 'NONE', #227, #294, #274, .T. ) ;
#14 = DIRECTION ( 'NONE',  ( -0.0000000000000000000, -0.0000000000000000000, -1.000000000000000000 ) ) ;
#15 = VECTOR ( 'NONE', #226, 39.37007874015748143 ) ;
#16 = DIRECTION ( 'NONE',  ( -0.0000000000000000000, -0.0000000000000000000, -1.000000000000000000 ) ) ;
#17 = CARTESIAN_POINT ( 'NONE',  ( 0.0000000000000000000, 0.0000000000000000000, 2.000000000000000000 ) ) ;
#18 = DIRECTION ( 'NONE',  ( 0.0000000000000000000, 0.0000000000000000000, 1.000000000000000000 ) ) ;
#19 = CARTESIAN_POINT ( 'NONE',  ( 0.0000000000000000000, 0.0000000000000000000, 2.000000000000000000 ) ) ;
#20 = ADVANCED_FACE ( 'NONE', ( #275 ), #206, .T. ) ;
#21 = DIRECTION ( 'NONE',  ( 0.0000000000000000000, 0.0000000000000000000, -1.000000000000000000 ) ) ;
#22 = CARTESIAN_POINT ( 'NONE',  ( 0.0000000000000000000, 0.0000000000000000000, 0.07507753434749320220 ) ) ;
#23 = ORIENTED_EDGE ( 'NONE', *, *, #25, .F. ) ;
#24 = DIRECTION ( 'NONE',  ( -0.0000000000000000000, -0.0000000000000000000, -1.000000000000000000 ) ) ;
#25 = EDGE_CURVE ( 'NONE', #83, #102, #31, .T. ) ;
#26 = AXIS2_PLACEMENT_3D ( 'NONE', #174, #266, #49 ) ;
#27 = VERTEX_POINT ( 'NONE', #299 ) ;
#28 = DIRECTION ( 'NONE',  ( 0.7071067811865434649, 8.659560562354883554E-17, -0.7071067811865515695 ) ) ;
#29 = DIRECTION ( 'NONE',  ( 1.000000000000000000, 0.0000000000000000000, 0.0000000000000000000 ) ) ;
#30 = ORIENTED_EDGE ( 'NONE', *, *, #52, .T. ) ;
#31 = LINE ( 'NONE', #53, #85 ) ;
#32 = ADVANCED_FACE ( 'NONE', ( #256 ), #211, .T. ) ;
#33 = FACE_OUTER_BOUND ( 'NONE', #166, .T. ) ;
#34 = VERTEX_POINT ( 'NONE', #303 ) ;
#35 = ORIENTED_EDGE ( 'NONE', *, *, #151, .F. ) ;
#36 = SURFACE_SIDE_STYLE ('',( #67 ) ) ;
#37 = CIRCLE ( 'NONE', #113, 0.1099999999999996397 ) ;
#38 = DIRECTION ( 'NONE',  ( 1.000000000000000000, 0.0000000000000000000, 0.0000000000000000000 ) ) ;
#39 = CIRCLE ( 'NONE', #302, 0.1249500000000000055 ) ;
#40 = AXIS2_PLACEMENT_3D ( 'NONE', #212, #165, #301 ) ;
#41 = FACE_OUTER_BOUND ( 'NONE', #48, .T. ) ;
#42 = DIRECTION ( 'NONE',  ( -0.7071067811865474617, 8.659560562354932858E-17, 0.7071067811865474617 ) ) ;
#43 = VERTEX_POINT ( 'NONE', #233 ) ;
#44 = DIRECTION ( 'NONE',  ( -0.0000000000000000000, -0.0000000000000000000, -1.000000000000000000 ) ) ;
#45 = VERTEX_POINT ( 'NONE', #305 ) ;
#46 = APPLICATION_CONTEXT ( 'automotive_design' ) ;
#47 = CARTESIAN_POINT ( 'NONE',  ( -0.1249500000000000888, 1.530196175534618943E-17, 0.7029999999999999583 ) ) ;
#48 = EDGE_LOOP ( 'NONE', ( #160, #246, #125 ) ) ;
#49 = DIRECTION ( 'NONE',  ( -1.000000000000000000, 0.0000000000000000000, 0.0000000000000000000 ) ) ;
#50 = ORIENTED_EDGE ( 'NONE', *, *, #59, .F. ) ;
#51 =( CONVERSION_BASED_UNIT ( 'INCH', #232 ) LENGTH_UNIT ( ) NAMED_UNIT ( #156 ) );
#52 = EDGE_CURVE ( 'NONE', #34, #227, #4, .T. ) ;
#53 = CARTESIAN_POINT ( 'NONE',  ( -0.1249500000000000610, 0.0000000000000000000, 0.0000000000000000000 ) ) ;
#54 = AXIS2_PLACEMENT_3D ( 'NONE', #142, #119, #38 ) ;
#55 = DIRECTION ( 'NONE',  ( 1.000000000000000000, 0.0000000000000000000, 0.0000000000000000000 ) ) ;
#56 = ADVANCED_FACE ( 'NONE', ( #33 ), #135, .T. ) ;
#57 = DIRECTION ( 'NONE',  ( 0.0000000000000000000, 0.0000000000000000000, 1.000000000000000000 ) ) ;
#58 = VERTEX_POINT ( 'NONE', #238 ) ;
#59 = EDGE_CURVE ( 'NONE', #249, #294, #310, .T. ) ;
#60 = SURFACE_STYLE_USAGE ( .BOTH. , #103 ) ;
#61 = ORIENTED_EDGE ( 'NONE', *, *, #243, .T. ) ;
#62 = CARTESIAN_POINT ( 'NONE',  ( 0.0000000000000000000, 0.0000000000000000000, 1.984999999999999432 ) ) ;
#63 = DIRECTION ( 'NONE',  ( -0.0000000000000000000, -0.0000000000000000000, -1.000000000000000000 ) ) ;
#64 =( NAMED_UNIT ( * ) PLANE_ANGLE_UNIT ( ) SI_UNIT ( $, .RADIAN. ) );
#65 = CARTESIAN_POINT ( 'NONE',  ( 0.0000000000000000000, 0.0000000000000000000, 39.37007874015748143 ) ) ;
#66 = AXIS2_PLACEMENT_3D ( 'NONE', #94, #21, #268 ) ;
#67 = SURFACE_STYLE_FILL_AREA ( #169 ) ;
#68 = CARTESIAN_POINT ( 'NONE',  ( 0.0000000000000000000, 0.0000000000000000000, 0.0000000000000000000 ) ) ;
#69 = DIRECTION ( 'NONE',  ( -1.000000000000000000, 0.0000000000000000000, 0.0000000000000000000 ) ) ;
#70 = EDGE_CURVE ( 'NONE', #58, #27, #225, .T. ) ;
#71 = ORIENTED_EDGE ( 'NONE', *, *, #70, .F. ) ;
#72 = DIRECTION ( 'NONE',  ( -0.0000000000000000000, -0.0000000000000000000, -1.000000000000000000 ) ) ;
#73 = LINE ( 'NONE', #47, #129 ) ;
#74 = PRODUCT_RELATED_PRODUCT_CATEGORY ( 'part', '', ( #3 ) ) ;
#75 = FACE_OUTER_BOUND ( 'NONE', #209, .T. ) ;
#76 = CONICAL_SURFACE ( 'NONE', #117, 0.1099999999999996397, 0.7853981633974426169 ) ;
#77 = AXIS2_PLACEMENT_3D ( 'NONE', #133, #7, #29 ) ;
#78 = ORIENTED_EDGE ( 'NONE', *, *, #215, .T. ) ;
#79 = CARTESIAN_POINT ( 'NONE',  ( -0.1099999999999996397, 0.0000000000000000000, 2.000000000000000000 ) ) ;
#80 = ORIENTED_EDGE ( 'NONE', *, *, #13, .F. ) ;
#81 = ADVANCED_FACE ( 'NONE', ( #145 ), #244, .T. ) ;
#82 = PRODUCT_CONTEXT ( 'NONE', #46, 'mechanical' ) ;
#83 = VERTEX_POINT ( 'NONE', #312 ) ;
#84 =( NAMED_UNIT ( * ) SI_UNIT ( $, .STERADIAN. ) SOLID_ANGLE_UNIT ( ) );
#85 = VECTOR ( 'NONE', #254, 39.37007874015748143 ) ;
#86 = ORIENTED_EDGE ( 'NONE', *, *, #91, .T. ) ;
#87 = ORIENTED_EDGE ( 'NONE', *, *, #252, .F. ) ;
#88 = CARTESIAN_POINT ( 'NONE',  ( 0.0000000000000000000, 0.0000000000000000000, 0.7029999999999999583 ) ) ;
#89 = STYLED_ITEM ( 'NONE', ( #137 ), #237 ) ;
#90 = DIRECTION ( 'NONE',  ( 0.8571673007021137769, 0.0000000000000000000, 0.5150380749100518241 ) ) ;
#91 = EDGE_CURVE ( 'NONE', #257, #43, #288, .T. ) ;
#92 = SURFACE_STYLE_USAGE ( .BOTH. , #36 ) ;
#93 = EDGE_CURVE ( 'NONE', #227, #34, #37, .T. ) ;
#94 = CARTESIAN_POINT ( 'NONE',  ( 0.0000000000000000000, 0.0000000000000000000, 1.984999999999999432 ) ) ;
#95 = MANIFOLD_SOLID_BREP ( 'Cut-Revolve2', #277 ) ;
#96 = CONICAL_SURFACE ( 'NONE', #173, 65.52281426576882950, 1.029744258676657198 ) ;
#97 = DIRECTION ( 'NONE',  ( -1.000000000000000000, 0.0000000000000000000, 0.0000000000000000000 ) ) ;
#98 = CARTESIAN_POINT ( 'NONE',  ( 0.1250000000000000000, 1.530808498934191509E-17, 2.000000000000000000 ) ) ;
#99 = LINE ( 'NONE', #98, #196 ) ;
#100 = EDGE_LOOP ( 'NONE', ( #10, #35, #108, #185 ) ) ;
#101 = DIRECTION ( 'NONE',  ( -1.000000000000000000, 0.0000000000000000000, 0.0000000000000000000 ) ) ;
#102 = VERTEX_POINT ( 'NONE', #194 ) ;
#103 = SURFACE_SIDE_STYLE ('',( #273 ) ) ;
#104 = AXIS2_PLACEMENT_3D ( 'NONE', #180, #44, #289 ) ;
#105 = ORIENTED_EDGE ( 'NONE', *, *, #13, .T. ) ;
#106 = AXIS2_PLACEMENT_3D ( 'NONE', #17, #16, #285 ) ;
#107 = DIRECTION ( 'NONE',  ( 1.000000000000000000, 0.0000000000000000000, 0.0000000000000000000 ) ) ;
#108 = ORIENTED_EDGE ( 'NONE', *, *, #210, .T. ) ;
#109 = ORIENTED_EDGE ( 'NONE', *, *, #70, .T. ) ;
#110 =( GEOMETRIC_REPRESENTATION_CONTEXT ( 3 ) GLOBAL_UNCERTAINTY_ASSIGNED_CONTEXT ( ( #234 ) ) GLOBAL_UNIT_ASSIGNED_CONTEXT ( ( #264, #127, #84 ) ) REPRESENTATION_CONTEXT ( 'NONE', 'WORKASPACE' ) );
#111 = PRODUCT_DEFINITION_CONTEXT ( 'detailed design', #262, 'design' ) ;
#112 = ORIENTED_EDGE ( 'NONE', *, *, #151, .T. ) ;
#113 = AXIS2_PLACEMENT_3D ( 'NONE', #260, #263, #259 ) ;
#114 = AXIS2_PLACEMENT_3D ( 'NONE', #190, #214, #280 ) ;
#115 = CARTESIAN_POINT ( 'NONE',  ( 0.0000000000000000000, 0.0000000000000000000, 0.7030499999999998417 ) ) ;
#116 = ADVANCED_FACE ( 'NONE', ( #282 ), #11, .T. ) ;
#117 = AXIS2_PLACEMENT_3D ( 'NONE', #319, #175, #293 ) ;
#118 = CIRCLE ( 'NONE', #66, 0.1250000000000000000 ) ;
#119 = DIRECTION ( 'NONE',  ( 0.0000000000000000000, 0.0000000000000000000, 1.000000000000000000 ) ) ;
#120 =( CONVERSION_BASED_UNIT ( 'INCH', #239 ) LENGTH_UNIT ( ) NAMED_UNIT ( #269 ) );
#121 = DIRECTION ( 'NONE',  ( 1.000000000000000000, 0.0000000000000000000, 0.0000000000000000000 ) ) ;
#122 = FACE_OUTER_BOUND ( 'NONE', #203, .T. ) ;
#123 = VECTOR ( 'NONE', #146, 39.37007874015748854 ) ;
#124 = DIRECTION ( 'NONE',  ( -0.0000000000000000000, -0.0000000000000000000, -1.000000000000000000 ) ) ;
#125 = ORIENTED_EDGE ( 'NONE', *, *, #228, .T. ) ;
#126 = MECHANICAL_DESIGN_GEOMETRIC_PRESENTATION_REPRESENTATION (  '', ( #89 ), #202 ) ;
#127 =( NAMED_UNIT ( * ) PLANE_ANGLE_UNIT ( ) SI_UNIT ( $, .RADIAN. ) );
#128 = ORIENTED_EDGE ( 'NONE', *, *, #265, .F. ) ;
#129 = VECTOR ( 'NONE', #42, 39.37007874015748854 ) ;
#130 = CARTESIAN_POINT ( 'NONE',  ( 0.1249500000000000610, 1.530196175534618635E-17, 0.0000000000000000000 ) ) ;
#131 = EDGE_LOOP ( 'NONE', ( #148, #86, #321 ) ) ;
#132 = EDGE_CURVE ( 'NONE', #257, #102, #240, .T. ) ;
#133 = CARTESIAN_POINT ( 'NONE',  ( 0.0000000000000000000, 0.0000000000000000000, 0.0000000000000000000 ) ) ;
#134 = CARTESIAN_POINT ( 'NONE',  ( -0.1250000000000000000, 0.0000000000000000000, 2.000000000000000000 ) ) ;
#135 = CYLINDRICAL_SURFACE ( 'NONE', #106, 0.1250000000000000000 ) ;
#136 = ORIENTED_EDGE ( 'NONE', *, *, #265, .T. ) ;
#137 = PRESENTATION_STYLE_ASSIGNMENT (( #60 ) ) ;
#138 = EDGE_LOOP ( 'NONE', ( #242, #30 ) ) ;
#139 = DIRECTION ( 'NONE',  ( 1.000000000000000000, 0.0000000000000000000, 0.0000000000000000000 ) ) ;
#140 = AXIS2_PLACEMENT_3D ( 'NONE', #88, #63, #157 ) ;
#141 = ADVANCED_FACE ( 'NONE', ( #41 ), #96, .T. ) ;
#142 = CARTESIAN_POINT ( 'NONE',  ( 0.0000000000000000000, 0.0000000000000000000, 0.7029999999999999583 ) ) ;
#143 = ADVANCED_FACE ( 'NONE', ( #217 ), #12, .T. ) ;
#144 = CARTESIAN_POINT ( 'NONE',  ( 0.0000000000000000000, 0.0000000000000000000, 0.7029999999999999583 ) ) ;
#145 = FACE_OUTER_BOUND ( 'NONE', #100, .T. ) ;
#146 = DIRECTION ( 'NONE',  ( -0.8571673007021137769, 1.049727191138620298E-16, 0.5150380749100518241 ) ) ;
#147 = CARTESIAN_POINT ( 'NONE',  ( 0.1249500000000000888, 0.0000000000000000000, 0.7029999999999999583 ) ) ;
#148 = ORIENTED_EDGE ( 'NONE', *, *, #132, .F. ) ;
#149 = COLOUR_RGB ( '',0.7921568627450980005, 0.8196078431372548767, 0.9333333333333333481 ) ;
#150 = CARTESIAN_POINT ( 'NONE',  ( 0.0000000000000000000, 0.0000000000000000000, 0.7030499999999998417 ) ) ;
#151 = EDGE_CURVE ( 'NONE', #45, #83, #159, .T. ) ;
#152 = MECHANICAL_DESIGN_GEOMETRIC_PRESENTATION_REPRESENTATION (  '', ( #158 ), #220 ) ;
#153 = CARTESIAN_POINT ( 'NONE',  ( -0.1099999999999996397, 0.0000000000000000000, 2.000000000000000000 ) ) ;
#154 = FACE_OUTER_BOUND ( 'NONE', #235, .T. ) ;
#155 = AXIS2_PLACEMENT_3D ( 'NONE', #150, #72, #221 ) ;
#156 = DIMENSIONAL_EXPONENTS ( 1.000000000000000000, 0.0000000000000000000, 0.0000000000000000000, 0.0000000000000000000, 0.0000000000000000000, 0.0000000000000000000, 0.0000000000000000000 ) ;
#157 = DIRECTION ( 'NONE',  ( -1.000000000000000000, 0.0000000000000000000, 0.0000000000000000000 ) ) ;
#158 = STYLED_ITEM ( 'NONE', ( #193 ), #95 ) ;
#159 = CIRCLE ( 'NONE', #140, 0.1249500000000000888 ) ;
#160 = ORIENTED_EDGE ( 'NONE', *, *, #91, .F. ) ;
#161 = PRODUCT_DEFINITION ( 'UNKNOWN', '', #281, #111 ) ;
#162 = VECTOR ( 'NONE', #28, 39.37007874015748143 ) ;
#163 = EDGE_LOOP ( 'NONE', ( #87, #112, #181, #6 ) ) ;
#164 = APPLICATION_PROTOCOL_DEFINITION ( 'draft international standard', 'automotive_design', 1998, #262 ) ;
#165 = DIRECTION ( 'NONE',  ( -0.0000000000000000000, -0.0000000000000000000, -1.000000000000000000 ) ) ;
#166 = EDGE_LOOP ( 'NONE', ( #136, #184, #71, #231 ) ) ;
#167 = CIRCLE ( 'NONE', #155, 0.1250000000000000000 ) ;
#168 = AXIS2_PLACEMENT_3D ( 'NONE', #229, #189, #55 ) ;
#169 = FILL_AREA_STYLE ('',( #309 ) ) ;
#170 =( NAMED_UNIT ( * ) SI_UNIT ( $, .STERADIAN. ) SOLID_ANGLE_UNIT ( ) );
#171 = DIRECTION ( 'NONE',  ( 0.0000000000000000000, 0.0000000000000000000, -1.000000000000000000 ) ) ;
#172 = CARTESIAN_POINT ( 'NONE',  ( 0.0000000000000000000, 0.0000000000000000000, 0.0000000000000000000 ) ) ;
#173 = AXIS2_PLACEMENT_3D ( 'NONE', #65, #18, #121 ) ;
#174 = CARTESIAN_POINT ( 'NONE',  ( 0.0000000000000000000, 0.0000000000000000000, 0.0000000000000000000 ) ) ;
#175 = DIRECTION ( 'NONE',  ( 0.0000000000000000000, 0.0000000000000000000, -1.000000000000000000 ) ) ;
#176 = ADVANCED_FACE ( 'NONE', ( #75 ), #76, .T. ) ;
#177 = CARTESIAN_POINT ( 'NONE',  ( 0.0000000000000000000, 0.0000000000000000000, 0.07507753434749320220 ) ) ;
#178 = ORIENTED_EDGE ( 'NONE', *, *, #215, .F. ) ;
#179 = CYLINDRICAL_SURFACE ( 'NONE', #26, 0.1249500000000000610 ) ;
#180 = CARTESIAN_POINT ( 'NONE',  ( 0.0000000000000000000, 0.0000000000000000000, 0.7029999999999999583 ) ) ;
#181 = ORIENTED_EDGE ( 'NONE', *, *, #25, .T. ) ;
#182 = VECTOR ( 'NONE', #272, 39.37007874015748143 ) ;
#183 = FILL_AREA_STYLE ('',( #300 ) ) ;
#184 = ORIENTED_EDGE ( 'NONE', *, *, #323, .T. ) ;
#185 = ORIENTED_EDGE ( 'NONE', *, *, #250, .T. ) ;
#186 = CONICAL_SURFACE ( 'NONE', #253, 0.1099999999999996397, 0.7853981633974426169 ) ;
#187 = EDGE_LOOP ( 'NONE', ( #207, #297, #109, #223 ) ) ;
#188 = VECTOR ( 'NONE', #208, 39.37007874015748143 ) ;
#189 = DIRECTION ( 'NONE',  ( 0.0000000000000000000, 0.0000000000000000000, 1.000000000000000000 ) ) ;
#190 = CARTESIAN_POINT ( 'NONE',  ( 0.0000000000000000000, 0.0000000000000000000, 2.000000000000000000 ) ) ;
#191 = DIRECTION ( 'NONE',  ( 1.000000000000000000, 0.0000000000000000000, 0.0000000000000000000 ) ) ;
#192 = AXIS2_PLACEMENT_3D ( 'NONE', #279, #57, #107 ) ;
#193 = PRESENTATION_STYLE_ASSIGNMENT (( #92 ) ) ;
#194 = CARTESIAN_POINT ( 'NONE',  ( -0.1249500000000000055, 0.0000000000000000000, 0.07507753434749320220 ) ) ;
#195 = DIRECTION ( 'NONE',  ( 1.000000000000000000, 0.0000000000000000000, 0.0000000000000000000 ) ) ;
#196 = VECTOR ( 'NONE', #198, 39.37007874015748143 ) ;
#197 = CARTESIAN_POINT ( 'NONE',  ( -0.1250000000000000000, 0.0000000000000000000, 1.984999999999999432 ) ) ;
#198 = DIRECTION ( 'NONE',  ( -0.0000000000000000000, -0.0000000000000000000, -1.000000000000000000 ) ) ;
#199 = ORIENTED_EDGE ( 'NONE', *, *, #228, .F. ) ;
#200 = DIRECTION ( 'NONE',  ( 0.0000000000000000000, 0.0000000000000000000, -1.000000000000000000 ) ) ;
#201 = EDGE_CURVE ( 'NONE', #83, #58, #73, .T. ) ;
#202 =( GEOMETRIC_REPRESENTATION_CONTEXT ( 3 ) GLOBAL_UNCERTAINTY_ASSIGNED_CONTEXT ( ( #307 ) ) GLOBAL_UNIT_ASSIGNED_CONTEXT ( ( #51, #230, #271 ) ) REPRESENTATION_CONTEXT ( 'NONE', 'WORKASPACE' ) );
#203 = EDGE_LOOP ( 'NONE', ( #61, #1, #199, #23 ) ) ;
#204 = LINE ( 'NONE', #245, #162 ) ;
#205 = APPLICATION_PROTOCOL_DEFINITION ( 'draft international standard', 'automotive_design', 1998, #46 ) ;
#206 = CYLINDRICAL_SURFACE ( 'NONE', #40, 0.1249500000000000610 ) ;
#207 = ORIENTED_EDGE ( 'NONE', *, *, #243, .F. ) ;
#208 = DIRECTION ( 'NONE',  ( -0.7071067811865434649, 0.0000000000000000000, -0.7071067811865515695 ) ) ;
#209 = EDGE_LOOP ( 'NONE', ( #178, #219, #105, #50 ) ) ;
#210 = EDGE_CURVE ( 'NONE', #45, #27, #318, .T. ) ;
#211 = CONICAL_SURFACE ( 'NONE', #168, 65.52281426576882950, 1.029744258676657198 ) ;
#212 = CARTESIAN_POINT ( 'NONE',  ( 0.0000000000000000000, 0.0000000000000000000, 0.0000000000000000000 ) ) ;
#213 = ADVANCED_FACE ( 'NONE', ( #248 ), #186, .T. ) ;
#214 = DIRECTION ( 'NONE',  ( 0.0000000000000000000, 0.0000000000000000000, 1.000000000000000000 ) ) ;
#215 = EDGE_CURVE ( 'NONE', #34, #249, #204, .T. ) ;
#216 =( LENGTH_UNIT ( ) NAMED_UNIT ( * ) SI_UNIT ( $, .METRE. ) );
#217 = FACE_OUTER_BOUND ( 'NONE', #138, .T. ) ;
#218 = DIRECTION ( 'NONE',  ( -0.0000000000000000000, -0.0000000000000000000, -1.000000000000000000 ) ) ;
#219 = ORIENTED_EDGE ( 'NONE', *, *, #93, .F. ) ;
#220 =( GEOMETRIC_REPRESENTATION_CONTEXT ( 3 ) GLOBAL_UNCERTAINTY_ASSIGNED_CONTEXT ( ( #261 ) ) GLOBAL_UNIT_ASSIGNED_CONTEXT ( ( #120, #64, #170 ) ) REPRESENTATION_CONTEXT ( 'NONE', 'WORKASPACE' ) );
#221 = DIRECTION ( 'NONE',  ( 1.000000000000000000, 0.0000000000000000000, 0.0000000000000000000 ) ) ;
#222 = LENGTH_MEASURE_WITH_UNIT ( LENGTH_MEASURE( 0.02539999999999999897 ), #224 );
#223 = ORIENTED_EDGE ( 'NONE', *, *, #210, .F. ) ;
#224 =( LENGTH_UNIT ( ) NAMED_UNIT ( * ) SI_UNIT ( $, .METRE. ) );
#225 = CIRCLE ( 'NONE', #304, 0.1250000000000000000 ) ;
#226 = DIRECTION ( 'NONE',  ( -0.0000000000000000000, -0.0000000000000000000, -1.000000000000000000 ) ) ;
#227 = VERTEX_POINT ( 'NONE', #153 ) ;
#228 = EDGE_CURVE ( 'NONE', #102, #43, #39, .T. ) ;
#229 = CARTESIAN_POINT ( 'NONE',  ( 0.0000000000000000000, 0.0000000000000000000, 39.37007874015748143 ) ) ;
#230 =( NAMED_UNIT ( * ) PLANE_ANGLE_UNIT ( ) SI_UNIT ( $, .RADIAN. ) );
#231 = ORIENTED_EDGE ( 'NONE', *, *, #2, .F. ) ;
#232 = LENGTH_MEASURE_WITH_UNIT ( LENGTH_MEASURE( 0.02539999999999999897 ), #255 );
#233 = CARTESIAN_POINT ( 'NONE',  ( 0.1249500000000000055, 1.530196175534618327E-17, 0.07507753434749320220 ) ) ;
#234 = UNCERTAINTY_MEASURE_WITH_UNIT (LENGTH_MEASURE( 1.000000000000000082E-05 ), #264, 'distance_accuracy_value', 'NONE');
#235 = EDGE_LOOP ( 'NONE', ( #317, #267, #8, #292 ) ) ;
#236 = AXIS2_PLACEMENT_3D ( 'NONE', #144, #286, #191 ) ;
#237 = ADVANCED_BREP_SHAPE_REPRESENTATION ( 'Micro_SD-250', ( #95, #77 ), #110 ) ;
#238 = CARTESIAN_POINT ( 'NONE',  ( -0.1250000000000000000, 0.0000000000000000000, 0.7030499999999998417 ) ) ;
#239 = LENGTH_MEASURE_WITH_UNIT ( LENGTH_MEASURE( 0.02539999999999999897 ), #216 );
#240 = LINE ( 'NONE', #311, #123 ) ;
#241 = CYLINDRICAL_SURFACE ( 'NONE', #258, 0.1250000000000000000 ) ;
#242 = ORIENTED_EDGE ( 'NONE', *, *, #93, .T. ) ;
#243 = EDGE_CURVE ( 'NONE', #83, #45, #298, .T. ) ;
#244 = CONICAL_SURFACE ( 'NONE', #54, 0.1249500000000000888, 0.7853981633974482790 ) ;
#245 = CARTESIAN_POINT ( 'NONE',  ( 0.1099999999999996397, 1.347111479062084158E-17, 2.000000000000000000 ) ) ;
#246 = ORIENTED_EDGE ( 'NONE', *, *, #132, .T. ) ;
#247 = CIRCLE ( 'NONE', #308, 0.1249500000000000055 ) ;
#248 = FACE_OUTER_BOUND ( 'NONE', #276, .T. ) ;
#249 = VERTEX_POINT ( 'NONE', #316 ) ;
#250 = EDGE_CURVE ( 'NONE', #27, #58, #167, .T. ) ;
#251 = LINE ( 'NONE', #134, #182 ) ;
#252 = EDGE_CURVE ( 'NONE', #45, #43, #270, .T. ) ;
#253 = AXIS2_PLACEMENT_3D ( 'NONE', #296, #200, #101 ) ;
#254 = DIRECTION ( 'NONE',  ( -0.0000000000000000000, -0.0000000000000000000, -1.000000000000000000 ) ) ;
#255 =( LENGTH_UNIT ( ) NAMED_UNIT ( * ) SI_UNIT ( $, .METRE. ) );
#256 = FACE_OUTER_BOUND ( 'NONE', #131, .T. ) ;
#257 = VERTEX_POINT ( 'NONE', #68 ) ;
#258 = AXIS2_PLACEMENT_3D ( 'NONE', #19, #24, #313 ) ;
#259 = DIRECTION ( 'NONE',  ( 1.000000000000000000, 0.0000000000000000000, 0.0000000000000000000 ) ) ;
#260 = CARTESIAN_POINT ( 'NONE',  ( 0.0000000000000000000, 0.0000000000000000000, 2.000000000000000000 ) ) ;
#261 = UNCERTAINTY_MEASURE_WITH_UNIT (LENGTH_MEASURE( 1.000000000000000082E-05 ), #120, 'distance_accuracy_value', 'NONE');
#262 = APPLICATION_CONTEXT ( 'automotive_design' ) ;
#263 = DIRECTION ( 'NONE',  ( 0.0000000000000000000, 0.0000000000000000000, 1.000000000000000000 ) ) ;
#264 =( CONVERSION_BASED_UNIT ( 'INCH', #222 ) LENGTH_UNIT ( ) NAMED_UNIT ( #322 ) );
#265 = EDGE_CURVE ( 'NONE', #294, #249, #118, .T. ) ;
#266 = DIRECTION ( 'NONE',  ( -0.0000000000000000000, -0.0000000000000000000, -1.000000000000000000 ) ) ;
#267 = ORIENTED_EDGE ( 'NONE', *, *, #59, .T. ) ;
#268 = DIRECTION ( 'NONE',  ( 1.000000000000000000, 0.0000000000000000000, 0.0000000000000000000 ) ) ;
#269 = DIMENSIONAL_EXPONENTS ( 1.000000000000000000, 0.0000000000000000000, 0.0000000000000000000, 0.0000000000000000000, 0.0000000000000000000, 0.0000000000000000000, 0.0000000000000000000 ) ;
#270 = LINE ( 'NONE', #130, #15 ) ;
#271 =( NAMED_UNIT ( * ) SI_UNIT ( $, .STERADIAN. ) SOLID_ANGLE_UNIT ( ) );
#272 = DIRECTION ( 'NONE',  ( -0.0000000000000000000, -0.0000000000000000000, -1.000000000000000000 ) ) ;
#273 = SURFACE_STYLE_FILL_AREA ( #183 ) ;
#274 = LINE ( 'NONE', #79, #188 ) ;
#275 = FACE_OUTER_BOUND ( 'NONE', #163, .T. ) ;
#276 = EDGE_LOOP ( 'NONE', ( #5, #78, #128, #80 ) ) ;
#277 = CLOSED_SHELL ( 'NONE', ( #141, #320, #116, #213, #56, #295, #143, #176, #81, #20, #32 ) ) ;
#278 = SHAPE_DEFINITION_REPRESENTATION ( #283, #237 ) ;
#279 = CARTESIAN_POINT ( 'NONE',  ( 0.0000000000000000000, 0.0000000000000000000, 2.000000000000000000 ) ) ;
#280 = DIRECTION ( 'NONE',  ( 1.000000000000000000, 0.0000000000000000000, -0.0000000000000000000 ) ) ;
#281 = PRODUCT_DEFINITION_FORMATION_WITH_SPECIFIED_SOURCE ( 'ANY', '', #3, .NOT_KNOWN. ) ;
#282 = FACE_OUTER_BOUND ( 'NONE', #187, .T. ) ;
#283 = PRODUCT_DEFINITION_SHAPE ( 'NONE', 'NONE',  #161 ) ;
#284 = VECTOR ( 'NONE', #90, 39.37007874015748854 ) ;
#285 = DIRECTION ( 'NONE',  ( -1.000000000000000000, 0.0000000000000000000, 0.0000000000000000000 ) ) ;
#286 = DIRECTION ( 'NONE',  ( 0.0000000000000000000, 0.0000000000000000000, 1.000000000000000000 ) ) ;
#287 = PRESENTATION_LAYER_ASSIGNMENT (  '', '', ( #89 ) ) ;
#288 = LINE ( 'NONE', #172, #284 ) ;
#289 = DIRECTION ( 'NONE',  ( -1.000000000000000000, 0.0000000000000000000, 0.0000000000000000000 ) ) ;
#290 = COLOUR_RGB ( '',0.7921568627450980005, 0.8196078431372548767, 0.9333333333333333481 ) ;
#291 = DIRECTION ( 'NONE',  ( 0.7071067811865474617, 0.0000000000000000000, 0.7071067811865474617 ) ) ;
#292 = ORIENTED_EDGE ( 'NONE', *, *, #250, .F. ) ;
#293 = DIRECTION ( 'NONE',  ( -1.000000000000000000, 0.0000000000000000000, 0.0000000000000000000 ) ) ;
#294 = VERTEX_POINT ( 'NONE', #197 ) ;
#295 = ADVANCED_FACE ( 'NONE', ( #154 ), #241, .T. ) ;
#296 = CARTESIAN_POINT ( 'NONE',  ( 0.0000000000000000000, 0.0000000000000000000, 2.000000000000000000 ) ) ;
#297 = ORIENTED_EDGE ( 'NONE', *, *, #201, .T. ) ;
#298 = CIRCLE ( 'NONE', #104, 0.1249500000000000888 ) ;
#299 = CARTESIAN_POINT ( 'NONE',  ( 0.1250000000000000000, 1.530808498934191509E-17, 0.7030499999999998417 ) ) ;
#300 = FILL_AREA_STYLE_COLOUR ( '', #149 ) ;
#301 = DIRECTION ( 'NONE',  ( -1.000000000000000000, 0.0000000000000000000, 0.0000000000000000000 ) ) ;
#302 = AXIS2_PLACEMENT_3D ( 'NONE', #177, #124, #97 ) ;
#303 = CARTESIAN_POINT ( 'NONE',  ( 0.1099999999999996397, 1.438959988998137757E-17, 2.000000000000000000 ) ) ;
#304 = AXIS2_PLACEMENT_3D ( 'NONE', #115, #14, #195 ) ;
#305 = CARTESIAN_POINT ( 'NONE',  ( 0.1249500000000000888, 0.0000000000000000000, 0.7029999999999999583 ) ) ;
#306 = EDGE_CURVE ( 'NONE', #43, #102, #247, .T. ) ;
#307 = UNCERTAINTY_MEASURE_WITH_UNIT (LENGTH_MEASURE( 1.000000000000000082E-05 ), #51, 'distance_accuracy_value', 'NONE');
#308 = AXIS2_PLACEMENT_3D ( 'NONE', #22, #218, #69 ) ;
#309 = FILL_AREA_STYLE_COLOUR ( '', #290 ) ;
#310 = CIRCLE ( 'NONE', #9, 0.1250000000000000000 ) ;
#311 = CARTESIAN_POINT ( 'NONE',  ( 0.0000000000000000000, 0.0000000000000000000, 0.0000000000000000000 ) ) ;
#312 = CARTESIAN_POINT ( 'NONE',  ( -0.1249500000000000888, 1.530502337234405380E-17, 0.7029999999999999583 ) ) ;
#313 = DIRECTION ( 'NONE',  ( -1.000000000000000000, 0.0000000000000000000, 0.0000000000000000000 ) ) ;
#314 = PRESENTATION_LAYER_ASSIGNMENT (  '', '', ( #158 ) ) ;
#315 = VECTOR ( 'NONE', #291, 39.37007874015748854 ) ;
#316 = CARTESIAN_POINT ( 'NONE',  ( 0.1250000000000000000, 1.530808498934191509E-17, 1.984999999999999432 ) ) ;
#317 = ORIENTED_EDGE ( 'NONE', *, *, #323, .F. ) ;
#318 = LINE ( 'NONE', #147, #315 ) ;
#319 = CARTESIAN_POINT ( 'NONE',  ( 0.0000000000000000000, 0.0000000000000000000, 2.000000000000000000 ) ) ;
#320 = ADVANCED_FACE ( 'NONE', ( #122 ), #179, .T. ) ;
#321 = ORIENTED_EDGE ( 'NONE', *, *, #306, .T. ) ;
#322 = DIMENSIONAL_EXPONENTS ( 1.000000000000000000, 0.0000000000000000000, 0.0000000000000000000, 0.0000000000000000000, 0.0000000000000000000, 0.0000000000000000000, 0.0000000000000000000 ) ;
#323 = EDGE_CURVE ( 'NONE', #249, #27, #99, .T. ) ;
ENDSEC;
END-ISO-10303-21;
