ISO-10303-21;
HEADER;
FILE_DESCRIPTION (( 'STEP AP214' ),
    '1' );
FILE_NAME ('06330.STEP',
    '2023-07-05T16:01:44',
    ( '' ),
    ( '' ),
    'SwSTEP 2.0',
    'SolidWorks 2023',
    '' );
FILE_SCHEMA (( 'AUTOMOTIVE_DESIGN' ));
ENDSEC;

DATA;
#1 =( GEOMETRIC_REPRESENTATION_CONTEXT ( 3 ) GLOBAL_UNCERTAINTY_ASSIGNED_CONTEXT ( ( #95 ) ) GLOBAL_UNIT_ASSIGNED_CONTEXT ( ( #122, #187, #119 ) ) REPRESENTATION_CONTEXT ( 'NONE', 'WORKASPACE' ) );
#2 = DIRECTION ( 'NONE',  ( -1.000000000000000000, 0.000000000000000000, 0.000000000000000000 ) ) ;
#3 = SURFACE_SIDE_STYLE ('',( #248 ) ) ;
#4 = SURFACE_STYLE_FILL_AREA ( #50 ) ;
#5 = DIRECTION ( 'NONE',  ( 0.000000000000000000, -0.000000000000000000, 1.000000000000000000 ) ) ;
#6 = PRESENTATION_LAYER_ASSIGNMENT (  '', '', ( #198 ) ) ;
#7 = FILL_AREA_STYLE_COLOUR ( '', #113 ) ;
#8 = EDGE_CURVE ( 'NONE', #32, #202, #53, .T. ) ;
#9 =( NAMED_UNIT ( * ) SI_UNIT ( $, .STERADIAN. ) SOLID_ANGLE_UNIT ( ) );
#10 = FACE_OUTER_BOUND ( 'NONE', #178, .T. ) ;
#11 = CARTESIAN_POINT ( 'NONE',  ( 3.286754617377316716E-16, 0.1623797632095817234, 0.000000000000000000 ) ) ;
#12 = PLANE ( 'NONE',  #123 ) ;
#13 = SURFACE_STYLE_FILL_AREA ( #107 ) ;
#14 = COLOUR_RGB ( '',0.7921568627450980005, 0.8196078431372548767, 0.9333333333333333481 ) ;
#15 = STYLED_ITEM ( 'NONE', ( #244 ), #175 ) ;
#16 = ORIENTED_EDGE ( 'NONE', *, *, #62, .T. ) ;
#17 = DIRECTION ( 'NONE',  ( 0.000000000000000000, 0.000000000000000000, 1.000000000000000000 ) ) ;
#18 = ORIENTED_EDGE ( 'NONE', *, *, #62, .F. ) ;
#19 = CIRCLE ( 'NONE', #88, 0.09374999999999987510 ) ;
#20 = ADVANCED_FACE ( 'NONE', ( #69 ), #58, .F. ) ;
#21 = DIRECTION ( 'NONE',  ( -1.122162118671284194E-16, 1.000000000000000000, 0.000000000000000000 ) ) ;
#22 = CARTESIAN_POINT ( 'NONE',  ( 1.224646799147353700E-16, 2.000000000000000000, 0.000000000000000000 ) ) ;
#23 = DIRECTION ( 'NONE',  ( -1.122162118671284194E-16, 1.000000000000000000, -0.000000000000000000 ) ) ;
#24 =( NAMED_UNIT ( * ) PLANE_ANGLE_UNIT ( ) SI_UNIT ( $, .RADIAN. ) );
#25 = CONICAL_SURFACE ( 'NONE', #232, 22.73032555864674009, 0.5235987755982999259 ) ;
#26 = ORIENTED_EDGE ( 'NONE', *, *, #74, .T. ) ;
#27 = FILL_AREA_STYLE ('',( #7 ) ) ;
#28 = PRODUCT_DEFINITION ( 'UNKNOWN', '', #182, #139 ) ;
#29 = PRESENTATION_LAYER_ASSIGNMENT (  '', '', ( #15 ) ) ;
#30 = ORIENTED_EDGE ( 'NONE', *, *, #84, .F. ) ;
#31 = FILL_AREA_STYLE_COLOUR ( '', #246 ) ;
#32 = VERTEX_POINT ( 'NONE', #197 ) ;
#33 =( NAMED_UNIT ( * ) PLANE_ANGLE_UNIT ( ) SI_UNIT ( $, .RADIAN. ) );
#34 = CIRCLE ( 'NONE', #188, 0.09374999999999998612 ) ;
#35 = EDGE_LOOP ( 'NONE', ( #238, #223, #47 ) ) ;
#36 = SURFACE_STYLE_FILL_AREA ( #227 ) ;
#37 = MECHANICAL_DESIGN_GEOMETRIC_PRESENTATION_REPRESENTATION (  '', ( #198 ), #52 ) ;
#38 = COLOUR_RGB ( '',1.000000000000000000, 0.000000000000000000, 0.000000000000000000 ) ;
#39 = DIRECTION ( 'NONE',  ( -1.000000000000000000, 0.000000000000000000, 0.000000000000000000 ) ) ;
#40 = CARTESIAN_POINT ( 'NONE',  ( 0.09374999999999988898, 2.000000000000000000, 1.148106374200640781E-17 ) ) ;
#41 =( NAMED_UNIT ( * ) SI_UNIT ( $, .STERADIAN. ) SOLID_ANGLE_UNIT ( ) );
#42 = AXIS2_PLACEMENT_3D ( 'NONE', #236, #239, #129 ) ;
#43 = PRESENTATION_LAYER_ASSIGNMENT (  '', '', ( #169 ) ) ;
#44 = LENGTH_MEASURE_WITH_UNIT ( LENGTH_MEASURE( 0.02539999999999999897 ), #65 );
#45 = ADVANCED_BREP_SHAPE_REPRESENTATION ( '06330', ( #67, #163, #151 ), #1 ) ;
#46 =( GEOMETRIC_REPRESENTATION_CONTEXT ( 3 ) GLOBAL_UNCERTAINTY_ASSIGNED_CONTEXT ( ( #103 ) ) GLOBAL_UNIT_ASSIGNED_CONTEXT ( ( #108, #24, #41 ) ) REPRESENTATION_CONTEXT ( 'NONE', 'WORKASPACE' ) );
#47 = ORIENTED_EDGE ( 'NONE', *, *, #132, .T. ) ;
#48 = CARTESIAN_POINT ( 'NONE',  ( 1.148106374200643247E-17, 0.1623797632095818344, -0.09374999999999997224 ) ) ;
#49 = APPLICATION_CONTEXT ( 'automotive_design' ) ;
#50 = FILL_AREA_STYLE ('',( #186 ) ) ;
#51 = EDGE_LOOP ( 'NONE', ( #16, #124, #221, #225 ) ) ;
#52 =( GEOMETRIC_REPRESENTATION_CONTEXT ( 3 ) GLOBAL_UNCERTAINTY_ASSIGNED_CONTEXT ( ( #171 ) ) GLOBAL_UNIT_ASSIGNED_CONTEXT ( ( #126, #217, #9 ) ) REPRESENTATION_CONTEXT ( 'NONE', 'WORKASPACE' ) );
#53 = LINE ( 'NONE', #91, #120 ) ;
#54 = LENGTH_MEASURE_WITH_UNIT ( LENGTH_MEASURE( 0.02539999999999999897 ), #138 );
#55 = PLANE ( 'NONE',  #102 ) ;
#56 = SURFACE_STYLE_USAGE ( .BOTH. , #3 ) ;
#57 = AXIS2_PLACEMENT_3D ( 'NONE', #254, #176, #149 ) ;
#58 = PLANE ( 'NONE',  #214 ) ;
#59 = LINE ( 'NONE', #40, #205 ) ;
#60 = EDGE_CURVE ( 'NONE', #200, #202, #87, .T. ) ;
#61 = DIRECTION ( 'NONE',  ( 0.000000000000000000, 0.000000000000000000, -1.000000000000000000 ) ) ;
#62 = EDGE_CURVE ( 'NONE', #32, #265, #237, .T. ) ;
#63 = ADVANCED_FACE ( 'NONE', ( #73 ), #12, .F. ) ;
#64 = DIRECTION ( 'NONE',  ( 6.123233995736777129E-17, 0.8660254037844380415, -0.5000000000000008882 ) ) ;
#65 =( LENGTH_UNIT ( ) NAMED_UNIT ( * ) SI_UNIT ( $, .METRE. ) );
#66 = DIMENSIONAL_EXPONENTS ( 1.000000000000000000, 0.000000000000000000, 0.000000000000000000, 0.000000000000000000, 0.000000000000000000, 0.000000000000000000, 0.000000000000000000 ) ;
#67 = MANIFOLD_SOLID_BREP ( 'Revolve - Cutting Edge', #230 ) ;
#68 = CYLINDRICAL_SURFACE ( 'NONE', #42, 0.09374999999999976408 ) ;
#69 = FACE_OUTER_BOUND ( 'NONE', #216, .T. ) ;
#70 = AXIS2_PLACEMENT_3D ( 'NONE', #11, #260, #133 ) ;
#71 = CARTESIAN_POINT ( 'NONE',  ( 0.09374999999999998612, 2.000000000000000000, 0.000000000000000000 ) ) ;
#72 = PRESENTATION_STYLE_ASSIGNMENT (( #263 ) ) ;
#73 = FACE_OUTER_BOUND ( 'NONE', #86, .T. ) ;
#74 = EDGE_CURVE ( 'NONE', #213, #136, #82, .T. ) ;
#75 = ORIENTED_EDGE ( 'NONE', *, *, #60, .F. ) ;
#76 = CARTESIAN_POINT ( 'NONE',  ( -0.09374999999999975020, 2.000000000000000000, 0.000000000000000000 ) ) ;
#77 = PRESENTATION_STYLE_ASSIGNMENT (( #183 ) ) ;
#78 = UNCERTAINTY_MEASURE_WITH_UNIT (LENGTH_MEASURE( 1.000000000000000082E-05 ), #242, 'distance_accuracy_value', 'NONE');
#79 = CYLINDRICAL_SURFACE ( 'NONE', #177, 0.09374999999999976408 ) ;
#80 = SURFACE_SIDE_STYLE ('',( #4 ) ) ;
#81 = SHAPE_DEFINITION_REPRESENTATION ( #234, #45 ) ;
#82 = LINE ( 'NONE', #256, #204 ) ;
#83 = CIRCLE ( 'NONE', #146, 0.09374999999999998612 ) ;
#84 = EDGE_CURVE ( 'NONE', #213, #131, #98, .T. ) ;
#85 = SURFACE_SIDE_STYLE ('',( #105 ) ) ;
#86 = EDGE_LOOP ( 'NONE', ( #247, #243 ) ) ;
#87 = CIRCLE ( 'NONE', #251, 0.09374999999999987510 ) ;
#88 = AXIS2_PLACEMENT_3D ( 'NONE', #206, #180, #2 ) ;
#89 = SURFACE_SIDE_STYLE ('',( #13 ) ) ;
#90 = APPLICATION_CONTEXT ( 'automotive_design' ) ;
#91 = CARTESIAN_POINT ( 'NONE',  ( -0.09374999999999965306, 2.000000000000000000, 0.000000000000000000 ) ) ;
#92 =( NAMED_UNIT ( * ) PLANE_ANGLE_UNIT ( ) SI_UNIT ( $, .RADIAN. ) );
#93 = EDGE_LOOP ( 'NONE', ( #110, #106 ) ) ;
#94 =( CONVERSION_BASED_UNIT ( 'INCH', #160 ) LENGTH_UNIT ( ) NAMED_UNIT ( #218 ) );
#95 = UNCERTAINTY_MEASURE_WITH_UNIT (LENGTH_MEASURE( 1.000000000000000082E-05 ), #122, 'distance_accuracy_value', 'NONE');
#96 = FILL_AREA_STYLE_COLOUR ( '', #38 ) ;
#97 = FACE_OUTER_BOUND ( 'NONE', #35, .T. ) ;
#98 = LINE ( 'NONE', #166, #150 ) ;
#99 = LENGTH_MEASURE_WITH_UNIT ( LENGTH_MEASURE( 0.02539999999999999897 ), #144 );
#100 = DIRECTION ( 'NONE',  ( 0.000000000000000000, 1.000000000000000000, 0.000000000000000000 ) ) ;
#101 =( NAMED_UNIT ( * ) SI_UNIT ( $, .STERADIAN. ) SOLID_ANGLE_UNIT ( ) );
#102 = AXIS2_PLACEMENT_3D ( 'NONE', #210, #100, #5 ) ;
#103 = UNCERTAINTY_MEASURE_WITH_UNIT (LENGTH_MEASURE( 1.000000000000000082E-05 ), #108, 'distance_accuracy_value', 'NONE');
#104 = MECHANICAL_DESIGN_GEOMETRIC_PRESENTATION_REPRESENTATION (  '', ( #169 ), #211 ) ;
#105 = SURFACE_STYLE_FILL_AREA ( #27 ) ;
#106 = ORIENTED_EDGE ( 'NONE', *, *, #132, .F. ) ;
#107 = FILL_AREA_STYLE ('',( #31 ) ) ;
#108 =( CONVERSION_BASED_UNIT ( 'INCH', #134 ) LENGTH_UNIT ( ) NAMED_UNIT ( #191 ) );
#109 = CARTESIAN_POINT ( 'NONE',  ( 0.09374999999999997224, 2.000000000000000000, 1.148106374200641398E-17 ) ) ;
#110 = ORIENTED_EDGE ( 'NONE', *, *, #118, .F. ) ;
#111 = CARTESIAN_POINT ( 'NONE',  ( 0.000000000000000000, 0.000000000000000000, 0.000000000000000000 ) ) ;
#112 =( LENGTH_UNIT ( ) NAMED_UNIT ( * ) SI_UNIT ( $, .METRE. ) );
#113 = COLOUR_RGB ( '',1.000000000000000000, 0.000000000000000000, 0.000000000000000000 ) ;
#114 =( NAMED_UNIT ( * ) SI_UNIT ( $, .STERADIAN. ) SOLID_ANGLE_UNIT ( ) );
#115 =( NAMED_UNIT ( * ) SI_UNIT ( $, .STERADIAN. ) SOLID_ANGLE_UNIT ( ) );
#116 = CARTESIAN_POINT ( 'NONE',  ( 3.286754617377316716E-16, 0.1623797632095817234, 0.000000000000000000 ) ) ;
#117 = FACE_OUTER_BOUND ( 'NONE', #51, .T. ) ;
#118 = EDGE_CURVE ( 'NONE', #136, #131, #83, .T. ) ;
#119 =( NAMED_UNIT ( * ) SI_UNIT ( $, .STERADIAN. ) SOLID_ANGLE_UNIT ( ) );
#120 = VECTOR ( 'NONE', #179, 39.37007874015748143 ) ;
#121 = PRESENTATION_LAYER_ASSIGNMENT (  '', '', ( #192 ) ) ;
#122 =( CONVERSION_BASED_UNIT ( 'INCH', #99 ) LENGTH_UNIT ( ) NAMED_UNIT ( #174 ) );
#123 = AXIS2_PLACEMENT_3D ( 'NONE', #71, #189, #240 ) ;
#124 = ORIENTED_EDGE ( 'NONE', *, *, #261, .T. ) ;
#125 = SURFACE_STYLE_USAGE ( .BOTH. , #85 ) ;
#126 =( CONVERSION_BASED_UNIT ( 'INCH', #44 ) LENGTH_UNIT ( ) NAMED_UNIT ( #194 ) );
#127 = CARTESIAN_POINT ( 'NONE',  ( 0.000000000000000000, 0.1623797632095818344, 0.09374999999999997224 ) ) ;
#128 = CIRCLE ( 'NONE', #70, 0.09374999999999966693 ) ;
#129 = DIRECTION ( 'NONE',  ( -1.000000000000000000, 0.000000000000000000, 0.000000000000000000 ) ) ;
#130 = ADVANCED_FACE ( 'NONE', ( #143 ), #147, .T. ) ;
#131 = VERTEX_POINT ( 'NONE', #48 ) ;
#132 = EDGE_CURVE ( 'NONE', #131, #136, #34, .T. ) ;
#133 = DIRECTION ( 'NONE',  ( -1.000000000000000000, 0.000000000000000000, 0.000000000000000000 ) ) ;
#134 = LENGTH_MEASURE_WITH_UNIT ( LENGTH_MEASURE( 0.02539999999999999897 ), #156 );
#135 = FILL_AREA_STYLE ('',( #155 ) ) ;
#136 = VERTEX_POINT ( 'NONE', #127 ) ;
#137 = DIRECTION ( 'NONE',  ( -1.000000000000000000, -1.122162118671284194E-16, 0.000000000000000000 ) ) ;
#138 =( LENGTH_UNIT ( ) NAMED_UNIT ( * ) SI_UNIT ( $, .METRE. ) );
#139 = PRODUCT_DEFINITION_CONTEXT ( 'detailed design', #90, 'design' ) ;
#140 = ADVANCED_FACE ( 'NONE', ( #10 ), #68, .T. ) ;
#141 = SURFACE_STYLE_USAGE ( .BOTH. , #80 ) ;
#142 = DIRECTION ( 'NONE',  ( -1.000000000000000000, 0.000000000000000000, 0.000000000000000000 ) ) ;
#143 = FACE_OUTER_BOUND ( 'NONE', #157, .T. ) ;
#144 =( LENGTH_UNIT ( ) NAMED_UNIT ( * ) SI_UNIT ( $, .METRE. ) );
#145 = DIRECTION ( 'NONE',  ( -0.000000000000000000, -1.000000000000000000, -0.000000000000000000 ) ) ;
#146 = AXIS2_PLACEMENT_3D ( 'NONE', #212, #145, #61 ) ;
#147 = CONICAL_SURFACE ( 'NONE', #57, 22.73032555864674009, 0.5235987755982999259 ) ;
#148 = DIMENSIONAL_EXPONENTS ( 1.000000000000000000, 0.000000000000000000, 0.000000000000000000, 0.000000000000000000, 0.000000000000000000, 0.000000000000000000, 0.000000000000000000 ) ;
#149 = DIRECTION ( 'NONE',  ( 0.000000000000000000, 0.000000000000000000, 1.000000000000000000 ) ) ;
#150 = VECTOR ( 'NONE', #64, 39.37007874015748143 ) ;
#151 = AXIS2_PLACEMENT_3D ( 'NONE', #229, #170, #162 ) ;
#152 = CARTESIAN_POINT ( 'NONE',  ( 3.286754617377316716E-16, 0.1623797632095818344, 0.000000000000000000 ) ) ;
#153 = ORIENTED_EDGE ( 'NONE', *, *, #261, .F. ) ;
#154 = PRODUCT ( '06330', '06330', '', ( #165 ) ) ;
#155 = FILL_AREA_STYLE_COLOUR ( '', #159 ) ;
#156 =( LENGTH_UNIT ( ) NAMED_UNIT ( * ) SI_UNIT ( $, .METRE. ) );
#157 = EDGE_LOOP ( 'NONE', ( #30, #26, #181 ) ) ;
#158 = STYLED_ITEM ( 'NONE', ( #228 ), #67 ) ;
#159 = COLOUR_RGB ( '',1.000000000000000000, 0.000000000000000000, 0.000000000000000000 ) ;
#160 = LENGTH_MEASURE_WITH_UNIT ( LENGTH_MEASURE( 0.02539999999999999897 ), #112 );
#161 = EDGE_CURVE ( 'NONE', #265, #32, #128, .T. ) ;
#162 = DIRECTION ( 'NONE',  ( 1.000000000000000000, 0.000000000000000000, 0.000000000000000000 ) ) ;
#163 = MANIFOLD_SOLID_BREP ( 'Revolve - Tool Body (Pointed)', #255 ) ;
#164 = ORIENTED_EDGE ( 'NONE', *, *, #161, .F. ) ;
#165 = PRODUCT_CONTEXT ( 'NONE', #49, 'mechanical' ) ;
#166 = CARTESIAN_POINT ( 'NONE',  ( 0.000000000000000000, 0.000000000000000000, 0.000000000000000000 ) ) ;
#167 = CARTESIAN_POINT ( 'NONE',  ( 1.224646799147353700E-16, 2.000000000000000000, 0.000000000000000000 ) ) ;
#168 = AXIS2_PLACEMENT_3D ( 'NONE', #116, #209, #262 ) ;
#169 = STYLED_ITEM ( 'NONE', ( #77 ), #241 ) ;
#170 = DIRECTION ( 'NONE',  ( 0.000000000000000000, 0.000000000000000000, 1.000000000000000000 ) ) ;
#171 = UNCERTAINTY_MEASURE_WITH_UNIT (LENGTH_MEASURE( 1.000000000000000082E-05 ), #126, 'distance_accuracy_value', 'NONE');
#172 = MECHANICAL_DESIGN_GEOMETRIC_PRESENTATION_REPRESENTATION (  '', ( #158 ), #46 ) ;
#173 = PRESENTATION_STYLE_ASSIGNMENT (( #125 ) ) ;
#174 = DIMENSIONAL_EXPONENTS ( 1.000000000000000000, 0.000000000000000000, 0.000000000000000000, 0.000000000000000000, 0.000000000000000000, 0.000000000000000000, 0.000000000000000000 ) ;
#175 = ADVANCED_FACE ( 'NONE', ( #97 ), #25, .T. ) ;
#176 = DIRECTION ( 'NONE',  ( 0.000000000000000000, 1.000000000000000000, 0.000000000000000000 ) ) ;
#177 = AXIS2_PLACEMENT_3D ( 'NONE', #167, #23, #142 ) ;
#178 = EDGE_LOOP ( 'NONE', ( #153, #253, #219, #75 ) ) ;
#179 = DIRECTION ( 'NONE',  ( -1.122162118671284194E-16, 1.000000000000000000, -0.000000000000000000 ) ) ;
#180 = DIRECTION ( 'NONE',  ( -1.122162118671284194E-16, 1.000000000000000000, -0.000000000000000000 ) ) ;
#181 = ORIENTED_EDGE ( 'NONE', *, *, #118, .T. ) ;
#182 = PRODUCT_DEFINITION_FORMATION_WITH_SPECIFIED_SOURCE ( 'ANY', '', #154, .NOT_KNOWN. ) ;
#183 = SURFACE_STYLE_USAGE ( .BOTH. , #185 ) ;
#184 = EDGE_CURVE ( 'NONE', #202, #200, #19, .T. ) ;
#185 = SURFACE_SIDE_STYLE ('',( #36 ) ) ;
#186 = FILL_AREA_STYLE_COLOUR ( '', #14 ) ;
#187 =( NAMED_UNIT ( * ) PLANE_ANGLE_UNIT ( ) SI_UNIT ( $, .RADIAN. ) );
#188 = AXIS2_PLACEMENT_3D ( 'NONE', #259, #196, #235 ) ;
#189 = DIRECTION ( 'NONE',  ( 1.122162118671284194E-16, -1.000000000000000000, 0.000000000000000000 ) ) ;
#190 = CARTESIAN_POINT ( 'NONE',  ( 0.09374999999999997224, 0.1623797632095817234, 1.148106374200641398E-17 ) ) ;
#191 = DIMENSIONAL_EXPONENTS ( 1.000000000000000000, 0.000000000000000000, 0.000000000000000000, 0.000000000000000000, 0.000000000000000000, 0.000000000000000000, 0.000000000000000000 ) ;
#192 = STYLED_ITEM ( 'NONE', ( #72 ), #163 ) ;
#193 = DIRECTION ( 'NONE',  ( 0.000000000000000000, 0.8660254037844380415, 0.5000000000000008882 ) ) ;
#194 = DIMENSIONAL_EXPONENTS ( 1.000000000000000000, 0.000000000000000000, 0.000000000000000000, 0.000000000000000000, 0.000000000000000000, 0.000000000000000000, 0.000000000000000000 ) ;
#195 =( GEOMETRIC_REPRESENTATION_CONTEXT ( 3 ) GLOBAL_UNCERTAINTY_ASSIGNED_CONTEXT ( ( #250 ) ) GLOBAL_UNIT_ASSIGNED_CONTEXT ( ( #226, #201, #115 ) ) REPRESENTATION_CONTEXT ( 'NONE', 'WORKASPACE' ) );
#196 = DIRECTION ( 'NONE',  ( -0.000000000000000000, -1.000000000000000000, -0.000000000000000000 ) ) ;
#197 = CARTESIAN_POINT ( 'NONE',  ( -0.09374999999999934774, 0.1623797632095817234, 0.000000000000000000 ) ) ;
#198 = STYLED_ITEM ( 'NONE', ( #173 ), #130 ) ;
#199 =( GEOMETRIC_REPRESENTATION_CONTEXT ( 3 ) GLOBAL_UNCERTAINTY_ASSIGNED_CONTEXT ( ( #233 ) ) GLOBAL_UNIT_ASSIGNED_CONTEXT ( ( #94, #92, #114 ) ) REPRESENTATION_CONTEXT ( 'NONE', 'WORKASPACE' ) );
#200 = VERTEX_POINT ( 'NONE', #109 ) ;
#201 =( NAMED_UNIT ( * ) PLANE_ANGLE_UNIT ( ) SI_UNIT ( $, .RADIAN. ) );
#202 = VERTEX_POINT ( 'NONE', #76 ) ;
#203 =( LENGTH_UNIT ( ) NAMED_UNIT ( * ) SI_UNIT ( $, .METRE. ) );
#204 = VECTOR ( 'NONE', #193, 39.37007874015748143 ) ;
#205 = VECTOR ( 'NONE', #231, 39.37007874015748143 ) ;
#206 = CARTESIAN_POINT ( 'NONE',  ( 1.224646799147353700E-16, 2.000000000000000000, 0.000000000000000000 ) ) ;
#207 = PRODUCT_RELATED_PRODUCT_CATEGORY ( 'part', '', ( #154 ) ) ;
#208 = LENGTH_MEASURE_WITH_UNIT ( LENGTH_MEASURE( 0.02539999999999999897 ), #203 );
#209 = DIRECTION ( 'NONE',  ( -1.122162118671284194E-16, 1.000000000000000000, -0.000000000000000000 ) ) ;
#210 = CARTESIAN_POINT ( 'NONE',  ( 0.000000000000000000, 0.1623797632095818344, 0.000000000000000000 ) ) ;
#211 =( GEOMETRIC_REPRESENTATION_CONTEXT ( 3 ) GLOBAL_UNCERTAINTY_ASSIGNED_CONTEXT ( ( #78 ) ) GLOBAL_UNIT_ASSIGNED_CONTEXT ( ( #242, #33, #101 ) ) REPRESENTATION_CONTEXT ( 'NONE', 'WORKASPACE' ) );
#212 = CARTESIAN_POINT ( 'NONE',  ( 0.000000000000000000, 0.1623797632095818344, 0.000000000000000000 ) ) ;
#213 = VERTEX_POINT ( 'NONE', #111 ) ;
#214 = AXIS2_PLACEMENT_3D ( 'NONE', #152, #21, #137 ) ;
#215 = MECHANICAL_DESIGN_GEOMETRIC_PRESENTATION_REPRESENTATION (  '', ( #192 ), #199 ) ;
#216 = EDGE_LOOP ( 'NONE', ( #18, #164 ) ) ;
#217 =( NAMED_UNIT ( * ) PLANE_ANGLE_UNIT ( ) SI_UNIT ( $, .RADIAN. ) );
#218 = DIMENSIONAL_EXPONENTS ( 1.000000000000000000, 0.000000000000000000, 0.000000000000000000, 0.000000000000000000, 0.000000000000000000, 0.000000000000000000, 0.000000000000000000 ) ;
#219 = ORIENTED_EDGE ( 'NONE', *, *, #8, .T. ) ;
#220 = CARTESIAN_POINT ( 'NONE',  ( 0.000000000000000000, 39.37007874015748143, 0.000000000000000000 ) ) ;
#221 = ORIENTED_EDGE ( 'NONE', *, *, #184, .F. ) ;
#222 = MECHANICAL_DESIGN_GEOMETRIC_PRESENTATION_REPRESENTATION (  '', ( #15 ), #195 ) ;
#223 = ORIENTED_EDGE ( 'NONE', *, *, #84, .T. ) ;
#224 = DIRECTION ( 'NONE',  ( 0.000000000000000000, 1.000000000000000000, 0.000000000000000000 ) ) ;
#225 = ORIENTED_EDGE ( 'NONE', *, *, #8, .F. ) ;
#226 =( CONVERSION_BASED_UNIT ( 'INCH', #54 ) LENGTH_UNIT ( ) NAMED_UNIT ( #148 ) );
#227 = FILL_AREA_STYLE ('',( #96 ) ) ;
#228 = PRESENTATION_STYLE_ASSIGNMENT (( #141 ) ) ;
#229 = CARTESIAN_POINT ( 'NONE',  ( 0.000000000000000000, 0.000000000000000000, 0.000000000000000000 ) ) ;
#230 = CLOSED_SHELL ( 'NONE', ( #175, #241, #130 ) ) ;
#231 = DIRECTION ( 'NONE',  ( -1.122162118671284194E-16, 1.000000000000000000, -0.000000000000000000 ) ) ;
#232 = AXIS2_PLACEMENT_3D ( 'NONE', #220, #224, #17 ) ;
#233 = UNCERTAINTY_MEASURE_WITH_UNIT (LENGTH_MEASURE( 1.000000000000000082E-05 ), #94, 'distance_accuracy_value', 'NONE');
#234 = PRODUCT_DEFINITION_SHAPE ( 'NONE', 'NONE',  #28 ) ;
#235 = DIRECTION ( 'NONE',  ( 0.000000000000000000, 0.000000000000000000, -1.000000000000000000 ) ) ;
#236 = CARTESIAN_POINT ( 'NONE',  ( 1.224646799147353700E-16, 2.000000000000000000, 0.000000000000000000 ) ) ;
#237 = CIRCLE ( 'NONE', #168, 0.09374999999999966693 ) ;
#238 = ORIENTED_EDGE ( 'NONE', *, *, #74, .F. ) ;
#239 = DIRECTION ( 'NONE',  ( -1.122162118671284194E-16, 1.000000000000000000, -0.000000000000000000 ) ) ;
#240 = DIRECTION ( 'NONE',  ( 1.000000000000000000, 1.122162118671284194E-16, 0.000000000000000000 ) ) ;
#241 = ADVANCED_FACE ( 'NONE', ( #249 ), #55, .T. ) ;
#242 =( CONVERSION_BASED_UNIT ( 'INCH', #208 ) LENGTH_UNIT ( ) NAMED_UNIT ( #66 ) );
#243 = ORIENTED_EDGE ( 'NONE', *, *, #60, .T. ) ;
#244 = PRESENTATION_STYLE_ASSIGNMENT (( #56 ) ) ;
#245 = PRESENTATION_LAYER_ASSIGNMENT (  '', '', ( #158 ) ) ;
#246 = COLOUR_RGB ( '',0.7921568627450980005, 0.8196078431372548767, 0.9333333333333333481 ) ;
#247 = ORIENTED_EDGE ( 'NONE', *, *, #184, .T. ) ;
#248 = SURFACE_STYLE_FILL_AREA ( #135 ) ;
#249 = FACE_OUTER_BOUND ( 'NONE', #93, .T. ) ;
#250 = UNCERTAINTY_MEASURE_WITH_UNIT (LENGTH_MEASURE( 1.000000000000000082E-05 ), #226, 'distance_accuracy_value', 'NONE');
#251 = AXIS2_PLACEMENT_3D ( 'NONE', #22, #264, #39 ) ;
#252 = APPLICATION_PROTOCOL_DEFINITION ( 'draft international standard', 'automotive_design', 1998, #90 ) ;
#253 = ORIENTED_EDGE ( 'NONE', *, *, #161, .T. ) ;
#254 = CARTESIAN_POINT ( 'NONE',  ( 0.000000000000000000, 39.37007874015748143, 0.000000000000000000 ) ) ;
#255 = CLOSED_SHELL ( 'NONE', ( #257, #20, #140, #63 ) ) ;
#256 = CARTESIAN_POINT ( 'NONE',  ( 0.000000000000000000, 0.000000000000000000, 0.000000000000000000 ) ) ;
#257 = ADVANCED_FACE ( 'NONE', ( #117 ), #79, .T. ) ;
#258 = APPLICATION_PROTOCOL_DEFINITION ( 'draft international standard', 'automotive_design', 1998, #49 ) ;
#259 = CARTESIAN_POINT ( 'NONE',  ( 0.000000000000000000, 0.1623797632095818344, 0.000000000000000000 ) ) ;
#260 = DIRECTION ( 'NONE',  ( -1.122162118671284194E-16, 1.000000000000000000, -0.000000000000000000 ) ) ;
#261 = EDGE_CURVE ( 'NONE', #265, #200, #59, .T. ) ;
#262 = DIRECTION ( 'NONE',  ( -1.000000000000000000, 0.000000000000000000, 0.000000000000000000 ) ) ;
#263 = SURFACE_STYLE_USAGE ( .BOTH. , #89 ) ;
#264 = DIRECTION ( 'NONE',  ( -1.122162118671284194E-16, 1.000000000000000000, -0.000000000000000000 ) ) ;
#265 = VERTEX_POINT ( 'NONE', #190 ) ;
ENDSEC;
END-ISO-10303-21;
