ISO-10303-21;
HEADER;
FILE_DESCRIPTION (( 'STEP AP214' ),
    '1' );
FILE_NAME ('59770.STEP',
    '2023-07-24T15:36:36',
    ( '' ),
    ( '' ),
    'SwSTEP 2.0',
    'SolidWorks 2023',
    '' );
FILE_SCHEMA (( 'AUTOMOTIVE_DESIGN' ));
ENDSEC;

DATA;
#1 = CARTESIAN_POINT ( 'NONE',  ( 1.214306433183764966E-14, 25.00000000000000000, 0.000000000000000000 ) ) ;
#2 = EDGE_LOOP ( 'NONE', ( #211, #355, #199, #13 ) ) ;
#3 = CARTESIAN_POINT ( 'NONE',  ( 0.000000000000000000, 1.000000000000000000, 0.000000000000000000 ) ) ;
#4 = ORIENTED_EDGE ( 'NONE', *, *, #182, .F. ) ;
#5 = SURFACE_STYLE_FILL_AREA ( #174 ) ;
#6 = FACE_OUTER_BOUND ( 'NONE', #181, .T. ) ;
#7 = VERTEX_POINT ( 'NONE', #328 ) ;
#8 = UNCERTAINTY_MEASURE_WITH_UNIT (LENGTH_MEASURE( 1.000000000000000082E-05 ), #48, 'distance_accuracy_value', 'NONE');
#9 = ORIENTED_EDGE ( 'NONE', *, *, #284, .T. ) ;
#10 = FILL_AREA_STYLE_COLOUR ( '', #187 ) ;
#11 = CIRCLE ( 'NONE', #278, 4.999999999999993783 ) ;
#12 = COLOUR_RGB ( '',1.000000000000000000, 0.000000000000000000, 0.000000000000000000 ) ;
#13 = ORIENTED_EDGE ( 'NONE', *, *, #284, .F. ) ;
#14 = PLANE ( 'NONE',  #71 ) ;
#15 = CARTESIAN_POINT ( 'NONE',  ( -4.999999999999987566, 75.00000000000000000, 0.000000000000000000 ) ) ;
#16 = ADVANCED_FACE ( 'NONE', ( #60 ), #177, .T. ) ;
#17 = MANIFOLD_SOLID_BREP ( 'Revolve - Tool Body (Straight Shanked)', #110 ) ;
#18 = DIRECTION ( 'NONE',  ( -1.000000000000000000, 0.000000000000000000, 0.000000000000000000 ) ) ;
#19 = CIRCLE ( 'NONE', #130, 5.000000000000000888 ) ;
#20 = STYLED_ITEM ( 'NONE', ( #241 ), #65 ) ;
#21 = ORIENTED_EDGE ( 'NONE', *, *, #219, .T. ) ;
#22 = DIRECTION ( 'NONE',  ( -1.203966067220177465E-16, 1.000000000000000000, -0.000000000000000000 ) ) ;
#23 = AXIS2_PLACEMENT_3D ( 'NONE', #163, #101, #221 ) ;
#24 = FILL_AREA_STYLE ('',( #326 ) ) ;
#25 = PRESENTATION_STYLE_ASSIGNMENT (( #320 ) ) ;
#26 = CYLINDRICAL_SURFACE ( 'NONE', #86, 4.999999999999990230 ) ;
#27 = ORIENTED_EDGE ( 'NONE', *, *, #293, .T. ) ;
#28 = SURFACE_STYLE_USAGE ( .BOTH. , #348 ) ;
#29 = AXIS2_PLACEMENT_3D ( 'NONE', #1, #123, #206 ) ;
#30 =( NAMED_UNIT ( * ) SI_UNIT ( $, .STERADIAN. ) SOLID_ANGLE_UNIT ( ) );
#31 = CARTESIAN_POINT ( 'NONE',  ( 0.000000000000000000, 1.000000000000000000, -5.000000000000000888 ) ) ;
#32 = VERTEX_POINT ( 'NONE', #342 ) ;
#33 =( NAMED_UNIT ( * ) PLANE_ANGLE_UNIT ( ) SI_UNIT ( $, .RADIAN. ) );
#34 =( NAMED_UNIT ( * ) PLANE_ANGLE_UNIT ( ) SI_UNIT ( $, .RADIAN. ) );
#35 = FILL_AREA_STYLE ('',( #129 ) ) ;
#36 =( NAMED_UNIT ( * ) SI_UNIT ( $, .STERADIAN. ) SOLID_ANGLE_UNIT ( ) );
#37 = COLOUR_RGB ( '',1.000000000000000000, 0.000000000000000000, 0.000000000000000000 ) ;
#38 = AXIS2_PLACEMENT_3D ( 'NONE', #98, #267, #212 ) ;
#39 = CARTESIAN_POINT ( 'NONE',  ( 0.000000000000000000, 0.000000000000000000, -4.000000000000000000 ) ) ;
#40 = SURFACE_SIDE_STYLE ('',( #160 ) ) ;
#41 = COLOUR_RGB ( '',1.000000000000000000, 0.000000000000000000, 0.000000000000000000 ) ;
#42 = STYLED_ITEM ( 'NONE', ( #183 ), #16 ) ;
#43 = DIRECTION ( 'NONE',  ( -1.203966067220177465E-16, 1.000000000000000000, -0.000000000000000000 ) ) ;
#44 = ORIENTED_EDGE ( 'NONE', *, *, #219, .F. ) ;
#45 = PRESENTATION_STYLE_ASSIGNMENT (( #341 ) ) ;
#46 = CARTESIAN_POINT ( 'NONE',  ( 6.123233995736762930E-15, 75.00000000000000000, 0.000000000000000000 ) ) ;
#47 = PRESENTATION_STYLE_ASSIGNMENT (( #105 ) ) ;
#48 =( LENGTH_UNIT ( ) NAMED_UNIT ( * ) SI_UNIT ( .MILLI., .METRE. ) );
#49 = DIRECTION ( 'NONE',  ( -1.203966067220177465E-16, 1.000000000000000000, -0.000000000000000000 ) ) ;
#50 = MECHANICAL_DESIGN_GEOMETRIC_PRESENTATION_REPRESENTATION (  '', ( #234 ), #259 ) ;
#51 = AXIS2_PLACEMENT_3D ( 'NONE', #317, #43, #191 ) ;
#52 = ORIENTED_EDGE ( 'NONE', *, *, #313, .T. ) ;
#53 = VECTOR ( 'NONE', #49, 1000.000000000000000 ) ;
#54 =( LENGTH_UNIT ( ) NAMED_UNIT ( * ) SI_UNIT ( .MILLI., .METRE. ) );
#55 = DIRECTION ( 'NONE',  ( -0.000000000000000000, -1.000000000000000000, -0.000000000000000000 ) ) ;
#56 = ADVANCED_FACE ( 'NONE', ( #138 ), #318, .T. ) ;
#57 = UNCERTAINTY_MEASURE_WITH_UNIT (LENGTH_MEASURE( 1.000000000000000082E-05 ), #125, 'distance_accuracy_value', 'NONE');
#58 =( LENGTH_UNIT ( ) NAMED_UNIT ( * ) SI_UNIT ( .MILLI., .METRE. ) );
#59 = DIRECTION ( 'NONE',  ( 0.000000000000000000, 0.000000000000000000, -1.000000000000000000 ) ) ;
#60 = FACE_OUTER_BOUND ( 'NONE', #169, .T. ) ;
#61 = DIRECTION ( 'NONE',  ( -0.000000000000000000, -1.000000000000000000, -0.000000000000000000 ) ) ;
#62 = EDGE_LOOP ( 'NONE', ( #240, #343, #207, #262 ) ) ;
#63 = APPLICATION_CONTEXT ( 'automotive_design' ) ;
#64 = DIRECTION ( 'NONE',  ( -0.000000000000000000, -1.000000000000000000, -0.000000000000000000 ) ) ;
#65 = ADVANCED_FACE ( 'NONE', ( #353 ), #264, .T. ) ;
#66 = SURFACE_STYLE_FILL_AREA ( #35 ) ;
#67 =( NAMED_UNIT ( * ) PLANE_ANGLE_UNIT ( ) SI_UNIT ( $, .RADIAN. ) );
#68 = VERTEX_POINT ( 'NONE', #302 ) ;
#69 = CIRCLE ( 'NONE', #308, 5.000000000000000888 ) ;
#70 = CLOSED_SHELL ( 'NONE', ( #362, #356, #16, #74, #65, #72 ) ) ;
#71 = AXIS2_PLACEMENT_3D ( 'NONE', #158, #148, #131 ) ;
#72 = ADVANCED_FACE ( 'NONE', ( #237 ), #14, .T. ) ;
#73 = APPLICATION_PROTOCOL_DEFINITION ( 'draft international standard', 'automotive_design', 1998, #63 ) ;
#74 = ADVANCED_FACE ( 'NONE', ( #209 ), #75, .T. ) ;
#75 = TOROIDAL_SURFACE ( 'NONE', #360, 4.000000000000000000, 1.000000000000000444 ) ;
#76 = UNCERTAINTY_MEASURE_WITH_UNIT (LENGTH_MEASURE( 1.000000000000000082E-05 ), #214, 'distance_accuracy_value', 'NONE');
#77 = AXIS2_PLACEMENT_3D ( 'NONE', #331, #64, #301 ) ;
#78 = EDGE_CURVE ( 'NONE', #271, #32, #83, .T. ) ;
#79 = EDGE_LOOP ( 'NONE', ( #287, #52, #4, #152 ) ) ;
#80 = CARTESIAN_POINT ( 'NONE',  ( 5.000000000000000888, 25.00000000000000000, 6.123233995736757408E-16 ) ) ;
#81 = CARTESIAN_POINT ( 'NONE',  ( 0.000000000000000000, 1.000000000000000000, 0.000000000000000000 ) ) ;
#82 = LINE ( 'NONE', #218, #359 ) ;
#83 = CIRCLE ( 'NONE', #156, 5.000000000000000000 ) ;
#84 =( GEOMETRIC_REPRESENTATION_CONTEXT ( 3 ) GLOBAL_UNCERTAINTY_ASSIGNED_CONTEXT ( ( #96 ) ) GLOBAL_UNIT_ASSIGNED_CONTEXT ( ( #198, #166, #369 ) ) REPRESENTATION_CONTEXT ( 'NONE', 'WORKASPACE' ) );
#85 = PRESENTATION_LAYER_ASSIGNMENT (  '', '', ( #42 ) ) ;
#86 = AXIS2_PLACEMENT_3D ( 'NONE', #255, #370, #346 ) ;
#87 =( NAMED_UNIT ( * ) SI_UNIT ( $, .STERADIAN. ) SOLID_ANGLE_UNIT ( ) );
#88 = FACE_OUTER_BOUND ( 'NONE', #365, .T. ) ;
#89 = CARTESIAN_POINT ( 'NONE',  ( 0.000000000000000000, 0.000000000000000000, 0.000000000000000000 ) ) ;
#90 = SURFACE_SIDE_STYLE ('',( #227 ) ) ;
#91 = DIRECTION ( 'NONE',  ( -0.000000000000000000, -1.000000000000000000, -0.000000000000000000 ) ) ;
#92 = ORIENTED_EDGE ( 'NONE', *, *, #108, .T. ) ;
#93 = SURFACE_SIDE_STYLE ('',( #5 ) ) ;
#94 = DIRECTION ( 'NONE',  ( 0.000000000000000000, 0.000000000000000000, -1.000000000000000000 ) ) ;
#95 = PRESENTATION_LAYER_ASSIGNMENT (  '', '', ( #176 ) ) ;
#96 = UNCERTAINTY_MEASURE_WITH_UNIT (LENGTH_MEASURE( 1.000000000000000082E-05 ), #198, 'distance_accuracy_value', 'NONE');
#97 = VERTEX_POINT ( 'NONE', #31 ) ;
#98 = CARTESIAN_POINT ( 'NONE',  ( 0.000000000000000000, 0.000000000000000000, 0.000000000000000000 ) ) ;
#99 = FILL_AREA_STYLE_COLOUR ( '', #37 ) ;
#100 = COLOUR_RGB ( '',1.000000000000000000, 0.000000000000000000, 0.000000000000000000 ) ;
#101 = DIRECTION ( 'NONE',  ( -1.203966067220177465E-16, 1.000000000000000000, -0.000000000000000000 ) ) ;
#102 =( GEOMETRIC_REPRESENTATION_CONTEXT ( 3 ) GLOBAL_UNCERTAINTY_ASSIGNED_CONTEXT ( ( #57 ) ) GLOBAL_UNIT_ASSIGNED_CONTEXT ( ( #125, #196, #339 ) ) REPRESENTATION_CONTEXT ( 'NONE', 'WORKASPACE' ) );
#103 = MECHANICAL_DESIGN_GEOMETRIC_PRESENTATION_REPRESENTATION (  '', ( #354 ), #84 ) ;
#104 = CIRCLE ( 'NONE', #324, 4.999999999999987566 ) ;
#105 = SURFACE_STYLE_USAGE ( .BOTH. , #40 ) ;
#106 = CARTESIAN_POINT ( 'NONE',  ( 0.000000000000000000, 25.00000000000000000, 0.000000000000000000 ) ) ;
#107 = UNCERTAINTY_MEASURE_WITH_UNIT (LENGTH_MEASURE( 1.000000000000000082E-05 ), #126, 'distance_accuracy_value', 'NONE');
#108 = EDGE_CURVE ( 'NONE', #271, #116, #235, .T. ) ;
#109 = CIRCLE ( 'NONE', #51, 4.999999999999993783 ) ;
#110 = CLOSED_SHELL ( 'NONE', ( #56, #154, #243, #161 ) ) ;
#111 = ORIENTED_EDGE ( 'NONE', *, *, #276, .F. ) ;
#112 =( NAMED_UNIT ( * ) SI_UNIT ( $, .STERADIAN. ) SOLID_ANGLE_UNIT ( ) );
#113 = FACE_OUTER_BOUND ( 'NONE', #2, .T. ) ;
#114 = EDGE_CURVE ( 'NONE', #97, #116, #19, .T. ) ;
#115 = DIRECTION ( 'NONE',  ( -1.000000000000000000, 0.000000000000000000, 0.000000000000000000 ) ) ;
#116 = VERTEX_POINT ( 'NONE', #233 ) ;
#117 =( NAMED_UNIT ( * ) PLANE_ANGLE_UNIT ( ) SI_UNIT ( $, .RADIAN. ) );
#118 = PRESENTATION_STYLE_ASSIGNMENT (( #28 ) ) ;
#119 = MECHANICAL_DESIGN_GEOMETRIC_PRESENTATION_REPRESENTATION (  '', ( #20 ), #153 ) ;
#120 =( GEOMETRIC_REPRESENTATION_CONTEXT ( 3 ) GLOBAL_UNCERTAINTY_ASSIGNED_CONTEXT ( ( #208 ) ) GLOBAL_UNIT_ASSIGNED_CONTEXT ( ( #58, #34, #273 ) ) REPRESENTATION_CONTEXT ( 'NONE', 'WORKASPACE' ) );
#121 = ORIENTED_EDGE ( 'NONE', *, *, #186, .T. ) ;
#122 = PRESENTATION_LAYER_ASSIGNMENT (  '', '', ( #269 ) ) ;
#123 = DIRECTION ( 'NONE',  ( -1.203966067220177465E-16, 1.000000000000000000, 0.000000000000000000 ) ) ;
#124 = ORIENTED_EDGE ( 'NONE', *, *, #182, .T. ) ;
#125 =( LENGTH_UNIT ( ) NAMED_UNIT ( * ) SI_UNIT ( .MILLI., .METRE. ) );
#126 =( LENGTH_UNIT ( ) NAMED_UNIT ( * ) SI_UNIT ( .MILLI., .METRE. ) );
#127 = SURFACE_STYLE_USAGE ( .BOTH. , #90 ) ;
#128 = SURFACE_SIDE_STYLE ('',( #132 ) ) ;
#129 = FILL_AREA_STYLE_COLOUR ( '', #100 ) ;
#130 = AXIS2_PLACEMENT_3D ( 'NONE', #3, #91, #327 ) ;
#131 = DIRECTION ( 'NONE',  ( 0.000000000000000000, -0.000000000000000000, 1.000000000000000000 ) ) ;
#132 = SURFACE_STYLE_FILL_AREA ( #151 ) ;
#133 = CARTESIAN_POINT ( 'NONE',  ( 6.123233995736766282E-16, 25.00000000000000000, 5.000000000000000000 ) ) ;
#134 = CIRCLE ( 'NONE', #23, 4.999999999999987566 ) ;
#135 = EDGE_CURVE ( 'NONE', #97, #350, #231, .T. ) ;
#136 = PRODUCT_CONTEXT ( 'NONE', #63, 'mechanical' ) ;
#137 = EDGE_CURVE ( 'NONE', #32, #97, #294, .T. ) ;
#138 = FACE_OUTER_BOUND ( 'NONE', #229, .T. ) ;
#139 = FILL_AREA_STYLE ('',( #286 ) ) ;
#140 = AXIS2_PLACEMENT_3D ( 'NONE', #282, #279, #250 ) ;
#141 = LINE ( 'NONE', #253, #53 ) ;
#142 = EDGE_CURVE ( 'NONE', #347, #350, #358, .T. ) ;
#143 = CARTESIAN_POINT ( 'NONE',  ( 0.000000000000000000, 0.000000000000000000, 0.000000000000000000 ) ) ;
#144 = DIRECTION ( 'NONE',  ( -0.000000000000000000, -1.000000000000000000, -0.000000000000000000 ) ) ;
#145 = CARTESIAN_POINT ( 'NONE',  ( 0.000000000000000000, 1.000000000000000000, -4.000000000000000000 ) ) ;
#146 = VECTOR ( 'NONE', #228, 1000.000000000000000 ) ;
#147 = VERTEX_POINT ( 'NONE', #80 ) ;
#148 = DIRECTION ( 'NONE',  ( 0.000000000000000000, 1.000000000000000000, 0.000000000000000000 ) ) ;
#149 = DIRECTION ( 'NONE',  ( 0.000000000000000000, 0.000000000000000000, -1.000000000000000000 ) ) ;
#150 = ORIENTED_EDGE ( 'NONE', *, *, #78, .F. ) ;
#151 = FILL_AREA_STYLE ('',( #10 ) ) ;
#152 = ORIENTED_EDGE ( 'NONE', *, *, #135, .F. ) ;
#153 =( GEOMETRIC_REPRESENTATION_CONTEXT ( 3 ) GLOBAL_UNCERTAINTY_ASSIGNED_CONTEXT ( ( #107 ) ) GLOBAL_UNIT_ASSIGNED_CONTEXT ( ( #126, #33, #215 ) ) REPRESENTATION_CONTEXT ( 'NONE', 'WORKASPACE' ) );
#154 = ADVANCED_FACE ( 'NONE', ( #6 ), #257, .F. ) ;
#155 =( GEOMETRIC_REPRESENTATION_CONTEXT ( 3 ) GLOBAL_UNCERTAINTY_ASSIGNED_CONTEXT ( ( #8 ) ) GLOBAL_UNIT_ASSIGNED_CONTEXT ( ( #48, #288, #285 ) ) REPRESENTATION_CONTEXT ( 'NONE', 'WORKASPACE' ) );
#156 = AXIS2_PLACEMENT_3D ( 'NONE', #106, #292, #59 ) ;
#157 = ORIENTED_EDGE ( 'NONE', *, *, #305, .F. ) ;
#158 = CARTESIAN_POINT ( 'NONE',  ( 0.000000000000000000, 25.00000000000000000, 0.000000000000000000 ) ) ;
#159 = DIRECTION ( 'NONE',  ( -1.203966067220177465E-16, 1.000000000000000000, -0.000000000000000000 ) ) ;
#160 = SURFACE_STYLE_FILL_AREA ( #307 ) ;
#161 = ADVANCED_FACE ( 'NONE', ( #299 ), #202, .F. ) ;
#162 = PRODUCT_DEFINITION_FORMATION_WITH_SPECIFIED_SOURCE ( 'ANY', '', #254, .NOT_KNOWN. ) ;
#163 = CARTESIAN_POINT ( 'NONE',  ( 1.214306433183764966E-14, 25.00000000000000000, 0.000000000000000000 ) ) ;
#164 = ORIENTED_EDGE ( 'NONE', *, *, #142, .T. ) ;
#165 = ORIENTED_EDGE ( 'NONE', *, *, #313, .F. ) ;
#166 =( NAMED_UNIT ( * ) PLANE_ANGLE_UNIT ( ) SI_UNIT ( $, .RADIAN. ) );
#167 = DIRECTION ( 'NONE',  ( 0.000000000000000000, 0.000000000000000000, -1.000000000000000000 ) ) ;
#168 = CIRCLE ( 'NONE', #222, 4.000000000000000000 ) ;
#169 = EDGE_LOOP ( 'NONE', ( #124, #164 ) ) ;
#170 = UNCERTAINTY_MEASURE_WITH_UNIT (LENGTH_MEASURE( 1.000000000000000082E-05 ), #316, 'distance_accuracy_value', 'NONE');
#171 = FACE_OUTER_BOUND ( 'NONE', #79, .T. ) ;
#172 = SURFACE_STYLE_FILL_AREA ( #203 ) ;
#173 = FILL_AREA_STYLE_COLOUR ( '', #248 ) ;
#174 = FILL_AREA_STYLE ('',( #99 ) ) ;
#175 = DIRECTION ( 'NONE',  ( -0.000000000000000000, -1.000000000000000000, -0.000000000000000000 ) ) ;
#176 = STYLED_ITEM ( 'NONE', ( #118 ), #256 ) ;
#177 = PLANE ( 'NONE',  #261 ) ;
#178 = MECHANICAL_DESIGN_GEOMETRIC_PRESENTATION_REPRESENTATION (  '', ( #252 ), #225 ) ;
#179 = FILL_AREA_STYLE_COLOUR ( '', #12 ) ;
#180 = CARTESIAN_POINT ( 'NONE',  ( 1.214306433183764966E-14, 25.00000000000000000, 0.000000000000000000 ) ) ;
#181 = EDGE_LOOP ( 'NONE', ( #230, #319 ) ) ;
#182 = EDGE_CURVE ( 'NONE', #350, #347, #168, .T. ) ;
#183 = PRESENTATION_STYLE_ASSIGNMENT (( #332 ) ) ;
#184 = ORIENTED_EDGE ( 'NONE', *, *, #336, .T. ) ;
#185 = PRESENTATION_LAYER_ASSIGNMENT (  '', '', ( #354 ) ) ;
#186 = EDGE_CURVE ( 'NONE', #147, #7, #141, .T. ) ;
#187 = COLOUR_RGB ( '',1.000000000000000000, 0.000000000000000000, 0.000000000000000000 ) ;
#188 = AXIS2_PLACEMENT_3D ( 'NONE', #46, #242, #304 ) ;
#189 = CARTESIAN_POINT ( 'NONE',  ( 5.510910596163089556E-16, 0.000000000000000000, 4.000000000000000000 ) ) ;
#190 = ADVANCED_BREP_SHAPE_REPRESENTATION ( '59770', ( #256, #17, #314 ), #281 ) ;
#191 = DIRECTION ( 'NONE',  ( -1.000000000000000000, 0.000000000000000000, 0.000000000000000000 ) ) ;
#192 = DIRECTION ( 'NONE',  ( 0.000000000000000000, 0.000000000000000000, -1.000000000000000000 ) ) ;
#193 = AXIS2_PLACEMENT_3D ( 'NONE', #143, #175, #149 ) ;
#194 = CARTESIAN_POINT ( 'NONE',  ( 0.000000000000000000, 1.000000000000000000, 0.000000000000000000 ) ) ;
#195 = COLOUR_RGB ( '',0.7921568627450980005, 0.8196078431372548767, 0.9333333333333333481 ) ;
#196 =( NAMED_UNIT ( * ) PLANE_ANGLE_UNIT ( ) SI_UNIT ( $, .RADIAN. ) );
#197 = FILL_AREA_STYLE ('',( #251 ) ) ;
#198 =( LENGTH_UNIT ( ) NAMED_UNIT ( * ) SI_UNIT ( .MILLI., .METRE. ) );
#199 = ORIENTED_EDGE ( 'NONE', *, *, #276, .T. ) ;
#200 = UNCERTAINTY_MEASURE_WITH_UNIT (LENGTH_MEASURE( 1.000000000000000082E-05 ), #333, 'distance_accuracy_value', 'NONE');
#201 = SURFACE_SIDE_STYLE ('',( #290 ) ) ;
#202 = PLANE ( 'NONE',  #338 ) ;
#203 = FILL_AREA_STYLE ('',( #173 ) ) ;
#204 = MECHANICAL_DESIGN_GEOMETRIC_PRESENTATION_REPRESENTATION (  '', ( #42 ), #361 ) ;
#205 = UNCERTAINTY_MEASURE_WITH_UNIT (LENGTH_MEASURE( 1.000000000000000082E-05 ), #54, 'distance_accuracy_value', 'NONE');
#206 = DIRECTION ( 'NONE',  ( -1.000000000000000000, -1.203966067220177465E-16, 0.000000000000000000 ) ) ;
#207 = ORIENTED_EDGE ( 'NONE', *, *, #137, .T. ) ;
#208 = UNCERTAINTY_MEASURE_WITH_UNIT (LENGTH_MEASURE( 1.000000000000000082E-05 ), #58, 'distance_accuracy_value', 'NONE');
#209 = FACE_OUTER_BOUND ( 'NONE', #368, .T. ) ;
#210 = CARTESIAN_POINT ( 'NONE',  ( 0.000000000000000000, 25.00000000000000000, 0.000000000000000000 ) ) ;
#211 = ORIENTED_EDGE ( 'NONE', *, *, #186, .F. ) ;
#212 = DIRECTION ( 'NONE',  ( 0.000000000000000000, 0.000000000000000000, -1.000000000000000000 ) ) ;
#213 = EDGE_LOOP ( 'NONE', ( #330, #9 ) ) ;
#214 =( LENGTH_UNIT ( ) NAMED_UNIT ( * ) SI_UNIT ( .MILLI., .METRE. ) );
#215 =( NAMED_UNIT ( * ) SI_UNIT ( $, .STERADIAN. ) SOLID_ANGLE_UNIT ( ) );
#216 = ORIENTED_EDGE ( 'NONE', *, *, #137, .F. ) ;
#217 = CIRCLE ( 'NONE', #140, 1.000000000000000444 ) ;
#218 = CARTESIAN_POINT ( 'NONE',  ( -4.999999999999984901, 75.00000000000000000, 0.000000000000000000 ) ) ;
#219 = EDGE_CURVE ( 'NONE', #32, #271, #272, .T. ) ;
#220 = DIRECTION ( 'NONE',  ( 0.000000000000000000, 0.000000000000000000, 1.000000000000000000 ) ) ;
#221 = DIRECTION ( 'NONE',  ( -1.000000000000000000, 0.000000000000000000, 0.000000000000000000 ) ) ;
#222 = AXIS2_PLACEMENT_3D ( 'NONE', #351, #61, #94 ) ;
#223 = DIRECTION ( 'NONE',  ( -0.000000000000000000, -1.000000000000000000, -0.000000000000000000 ) ) ;
#224 = DIRECTION ( 'NONE',  ( -1.203966067220177465E-16, 1.000000000000000000, -0.000000000000000000 ) ) ;
#225 =( GEOMETRIC_REPRESENTATION_CONTEXT ( 3 ) GLOBAL_UNCERTAINTY_ASSIGNED_CONTEXT ( ( #205 ) ) GLOBAL_UNIT_ASSIGNED_CONTEXT ( ( #54, #117, #87 ) ) REPRESENTATION_CONTEXT ( 'NONE', 'WORKASPACE' ) );
#226 = DIRECTION ( 'NONE',  ( 0.000000000000000000, 0.000000000000000000, -1.000000000000000000 ) ) ;
#227 = SURFACE_STYLE_FILL_AREA ( #139 ) ;
#228 = DIRECTION ( 'NONE',  ( -0.000000000000000000, -1.000000000000000000, -0.000000000000000000 ) ) ;
#229 = EDGE_LOOP ( 'NONE', ( #184, #121, #157, #111 ) ) ;
#230 = ORIENTED_EDGE ( 'NONE', *, *, #336, .F. ) ;
#231 = CIRCLE ( 'NONE', #312, 1.000000000000000444 ) ;
#232 = EDGE_CURVE ( 'NONE', #147, #68, #104, .T. ) ;
#233 = CARTESIAN_POINT ( 'NONE',  ( 6.123233995736766282E-16, 1.000000000000000000, 5.000000000000000888 ) ) ;
#234 = STYLED_ITEM ( 'NONE', ( #297 ), #72 ) ;
#235 = LINE ( 'NONE', #329, #291 ) ;
#236 = ORIENTED_EDGE ( 'NONE', *, *, #114, .F. ) ;
#237 = FACE_OUTER_BOUND ( 'NONE', #275, .T. ) ;
#238 = CYLINDRICAL_SURFACE ( 'NONE', #77, 5.000000000000000888 ) ;
#239 = DIRECTION ( 'NONE',  ( 1.203966067220177465E-16, -1.000000000000000000, 0.000000000000000000 ) ) ;
#240 = ORIENTED_EDGE ( 'NONE', *, *, #108, .F. ) ;
#241 = PRESENTATION_STYLE_ASSIGNMENT (( #300 ) ) ;
#242 = DIRECTION ( 'NONE',  ( -1.203966067220177465E-16, 1.000000000000000000, -0.000000000000000000 ) ) ;
#243 = ADVANCED_FACE ( 'NONE', ( #113 ), #26, .T. ) ;
#244 = PRESENTATION_LAYER_ASSIGNMENT (  '', '', ( #20 ) ) ;
#245 = MECHANICAL_DESIGN_GEOMETRIC_PRESENTATION_REPRESENTATION (  '', ( #176 ), #120 ) ;
#246 = DIRECTION ( 'NONE',  ( 1.000000000000000000, 0.000000000000000000, 0.000000000000000000 ) ) ;
#247 = APPLICATION_PROTOCOL_DEFINITION ( 'draft international standard', 'automotive_design', 1998, #274 ) ;
#248 = COLOUR_RGB ( '',0.7921568627450980005, 0.8196078431372548767, 0.9333333333333333481 ) ;
#249 = DIRECTION ( 'NONE',  ( -0.000000000000000000, -1.000000000000000000, -0.000000000000000000 ) ) ;
#250 = DIRECTION ( 'NONE',  ( -1.224646799147353454E-16, 0.000000000000000000, -1.000000000000000000 ) ) ;
#251 = FILL_AREA_STYLE_COLOUR ( '', #195 ) ;
#252 = STYLED_ITEM ( 'NONE', ( #25 ), #17 ) ;
#253 = CARTESIAN_POINT ( 'NONE',  ( 4.999999999999996447, 75.00000000000000000, 6.123233995736754449E-16 ) ) ;
#254 = PRODUCT ( '59770', '59770', '', ( #136 ) ) ;
#255 = CARTESIAN_POINT ( 'NONE',  ( 6.123233995736762930E-15, 75.00000000000000000, 0.000000000000000000 ) ) ;
#256 = MANIFOLD_SOLID_BREP ( 'Revolve - Cutting Edge', #70 ) ;
#257 = PLANE ( 'NONE',  #29 ) ;
#258 =( NAMED_UNIT ( * ) PLANE_ANGLE_UNIT ( ) SI_UNIT ( $, .RADIAN. ) );
#259 =( GEOMETRIC_REPRESENTATION_CONTEXT ( 3 ) GLOBAL_UNCERTAINTY_ASSIGNED_CONTEXT ( ( #200 ) ) GLOBAL_UNIT_ASSIGNED_CONTEXT ( ( #333, #277, #30 ) ) REPRESENTATION_CONTEXT ( 'NONE', 'WORKASPACE' ) );
#260 = DIRECTION ( 'NONE',  ( 0.000000000000000000, 0.000000000000000000, -1.000000000000000000 ) ) ;
#261 = AXIS2_PLACEMENT_3D ( 'NONE', #89, #345, #226 ) ;
#262 = ORIENTED_EDGE ( 'NONE', *, *, #293, .F. ) ;
#263 = PRODUCT_DEFINITION_CONTEXT ( 'detailed design', #274, 'design' ) ;
#264 = CYLINDRICAL_SURFACE ( 'NONE', #38, 5.000000000000000888 ) ;
#265 = DIRECTION ( 'NONE',  ( -0.000000000000000000, -1.000000000000000000, -0.000000000000000000 ) ) ;
#266 = ORIENTED_EDGE ( 'NONE', *, *, #142, .F. ) ;
#267 = DIRECTION ( 'NONE',  ( -0.000000000000000000, -1.000000000000000000, -0.000000000000000000 ) ) ;
#268 = VERTEX_POINT ( 'NONE', #15 ) ;
#269 = STYLED_ITEM ( 'NONE', ( #47 ), #74 ) ;
#270 = TOROIDAL_SURFACE ( 'NONE', #364, 4.000000000000000000, 1.000000000000000444 ) ;
#271 = VERTEX_POINT ( 'NONE', #133 ) ;
#272 = CIRCLE ( 'NONE', #306, 5.000000000000000000 ) ;
#273 =( NAMED_UNIT ( * ) SI_UNIT ( $, .STERADIAN. ) SOLID_ANGLE_UNIT ( ) );
#274 = APPLICATION_CONTEXT ( 'automotive_design' ) ;
#275 = EDGE_LOOP ( 'NONE', ( #44, #150 ) ) ;
#276 = EDGE_CURVE ( 'NONE', #68, #268, #82, .T. ) ;
#277 =( NAMED_UNIT ( * ) PLANE_ANGLE_UNIT ( ) SI_UNIT ( $, .RADIAN. ) );
#278 = AXIS2_PLACEMENT_3D ( 'NONE', #335, #224, #18 ) ;
#279 = DIRECTION ( 'NONE',  ( 1.000000000000000000, 0.000000000000000000, -1.224646799147353207E-16 ) ) ;
#280 = PRESENTATION_LAYER_ASSIGNMENT (  '', '', ( #234 ) ) ;
#281 =( GEOMETRIC_REPRESENTATION_CONTEXT ( 3 ) GLOBAL_UNCERTAINTY_ASSIGNED_CONTEXT ( ( #76 ) ) GLOBAL_UNIT_ASSIGNED_CONTEXT ( ( #214, #67, #36 ) ) REPRESENTATION_CONTEXT ( 'NONE', 'WORKASPACE' ) );
#282 = CARTESIAN_POINT ( 'NONE',  ( 4.898587196589412829E-16, 1.000000000000000000, 4.000000000000000000 ) ) ;
#283 = CARTESIAN_POINT ( 'NONE',  ( 0.000000000000000000, 1.000000000000000000, 0.000000000000000000 ) ) ;
#284 = EDGE_CURVE ( 'NONE', #7, #268, #11, .T. ) ;
#285 =( NAMED_UNIT ( * ) SI_UNIT ( $, .STERADIAN. ) SOLID_ANGLE_UNIT ( ) );
#286 = FILL_AREA_STYLE_COLOUR ( '', #41 ) ;
#287 = ORIENTED_EDGE ( 'NONE', *, *, #114, .T. ) ;
#288 =( NAMED_UNIT ( * ) PLANE_ANGLE_UNIT ( ) SI_UNIT ( $, .RADIAN. ) );
#289 = COLOUR_RGB ( '',1.000000000000000000, 0.000000000000000000, 0.000000000000000000 ) ;
#290 = SURFACE_STYLE_FILL_AREA ( #197 ) ;
#291 = VECTOR ( 'NONE', #265, 1000.000000000000000 ) ;
#292 = DIRECTION ( 'NONE',  ( -0.000000000000000000, -1.000000000000000000, -0.000000000000000000 ) ) ;
#293 = EDGE_CURVE ( 'NONE', #116, #97, #69, .T. ) ;
#294 = LINE ( 'NONE', #344, #146 ) ;
#295 = SURFACE_STYLE_FILL_AREA ( #24 ) ;
#296 = SURFACE_SIDE_STYLE ('',( #295 ) ) ;
#297 = PRESENTATION_STYLE_ASSIGNMENT (( #357 ) ) ;
#298 = PRESENTATION_LAYER_ASSIGNMENT (  '', '', ( #322 ) ) ;
#299 = FACE_OUTER_BOUND ( 'NONE', #213, .T. ) ;
#300 = SURFACE_STYLE_USAGE ( .BOTH. , #128 ) ;
#301 = DIRECTION ( 'NONE',  ( 0.000000000000000000, 0.000000000000000000, -1.000000000000000000 ) ) ;
#302 = CARTESIAN_POINT ( 'NONE',  ( -4.999999999999976019, 25.00000000000000000, 0.000000000000000000 ) ) ;
#303 = SURFACE_SIDE_STYLE ('',( #66 ) ) ;
#304 = DIRECTION ( 'NONE',  ( -1.000000000000000000, 0.000000000000000000, 0.000000000000000000 ) ) ;
#305 = EDGE_CURVE ( 'NONE', #268, #7, #109, .T. ) ;
#306 = AXIS2_PLACEMENT_3D ( 'NONE', #210, #55, #167 ) ;
#307 = FILL_AREA_STYLE ('',( #179 ) ) ;
#308 = AXIS2_PLACEMENT_3D ( 'NONE', #194, #223, #192 ) ;
#309 = PRODUCT_RELATED_PRODUCT_CATEGORY ( 'part', '', ( #254 ) ) ;
#310 = SHAPE_DEFINITION_REPRESENTATION ( #311, #190 ) ;
#311 = PRODUCT_DEFINITION_SHAPE ( 'NONE', 'NONE',  #367 ) ;
#312 = AXIS2_PLACEMENT_3D ( 'NONE', #145, #115, #325 ) ;
#313 = EDGE_CURVE ( 'NONE', #116, #347, #217, .T. ) ;
#314 = AXIS2_PLACEMENT_3D ( 'NONE', #340, #220, #246 ) ;
#315 = PRESENTATION_LAYER_ASSIGNMENT (  '', '', ( #252 ) ) ;
#316 =( LENGTH_UNIT ( ) NAMED_UNIT ( * ) SI_UNIT ( .MILLI., .METRE. ) );
#317 = CARTESIAN_POINT ( 'NONE',  ( 6.123233995736762930E-15, 75.00000000000000000, 0.000000000000000000 ) ) ;
#318 = CYLINDRICAL_SURFACE ( 'NONE', #188, 4.999999999999990230 ) ;
#319 = ORIENTED_EDGE ( 'NONE', *, *, #232, .F. ) ;
#320 = SURFACE_STYLE_USAGE ( .BOTH. , #201 ) ;
#321 = DIRECTION ( 'NONE',  ( 1.000000000000000000, 1.203966067220177465E-16, 0.000000000000000000 ) ) ;
#322 = STYLED_ITEM ( 'NONE', ( #45 ), #362 ) ;
#323 = PRESENTATION_STYLE_ASSIGNMENT (( #127 ) ) ;
#324 = AXIS2_PLACEMENT_3D ( 'NONE', #180, #22, #366 ) ;
#325 = DIRECTION ( 'NONE',  ( 0.000000000000000000, 0.000000000000000000, 1.000000000000000000 ) ) ;
#326 = FILL_AREA_STYLE_COLOUR ( '', #289 ) ;
#327 = DIRECTION ( 'NONE',  ( 0.000000000000000000, 0.000000000000000000, -1.000000000000000000 ) ) ;
#328 = CARTESIAN_POINT ( 'NONE',  ( 5.000000000000000888, 75.00000000000000000, 6.123233995736757408E-16 ) ) ;
#329 = CARTESIAN_POINT ( 'NONE',  ( 6.123233995736767268E-16, 0.000000000000000000, 5.000000000000000888 ) ) ;
#330 = ORIENTED_EDGE ( 'NONE', *, *, #305, .T. ) ;
#331 = CARTESIAN_POINT ( 'NONE',  ( 0.000000000000000000, 0.000000000000000000, 0.000000000000000000 ) ) ;
#332 = SURFACE_STYLE_USAGE ( .BOTH. , #303 ) ;
#333 =( LENGTH_UNIT ( ) NAMED_UNIT ( * ) SI_UNIT ( .MILLI., .METRE. ) );
#334 = MECHANICAL_DESIGN_GEOMETRIC_PRESENTATION_REPRESENTATION (  '', ( #269 ), #102 ) ;
#335 = CARTESIAN_POINT ( 'NONE',  ( 6.123233995736762930E-15, 75.00000000000000000, 0.000000000000000000 ) ) ;
#336 = EDGE_CURVE ( 'NONE', #68, #147, #134, .T. ) ;
#337 = MECHANICAL_DESIGN_GEOMETRIC_PRESENTATION_REPRESENTATION (  '', ( #322 ), #155 ) ;
#338 = AXIS2_PLACEMENT_3D ( 'NONE', #349, #239, #321 ) ;
#339 =( NAMED_UNIT ( * ) SI_UNIT ( $, .STERADIAN. ) SOLID_ANGLE_UNIT ( ) );
#340 = CARTESIAN_POINT ( 'NONE',  ( 0.000000000000000000, 0.000000000000000000, 0.000000000000000000 ) ) ;
#341 = SURFACE_STYLE_USAGE ( .BOTH. , #296 ) ;
#342 = CARTESIAN_POINT ( 'NONE',  ( 0.000000000000000000, 25.00000000000000000, -5.000000000000000000 ) ) ;
#343 = ORIENTED_EDGE ( 'NONE', *, *, #78, .T. ) ;
#344 = CARTESIAN_POINT ( 'NONE',  ( 0.000000000000000000, 0.000000000000000000, -5.000000000000000888 ) ) ;
#345 = DIRECTION ( 'NONE',  ( 0.000000000000000000, -1.000000000000000000, -0.000000000000000000 ) ) ;
#346 = DIRECTION ( 'NONE',  ( -1.000000000000000000, 0.000000000000000000, 0.000000000000000000 ) ) ;
#347 = VERTEX_POINT ( 'NONE', #189 ) ;
#348 = SURFACE_SIDE_STYLE ('',( #172 ) ) ;
#349 = CARTESIAN_POINT ( 'NONE',  ( 5.000000000000000000, 75.00000000000000000, 0.000000000000000000 ) ) ;
#350 = VERTEX_POINT ( 'NONE', #39 ) ;
#351 = CARTESIAN_POINT ( 'NONE',  ( 0.000000000000000000, 0.000000000000000000, 0.000000000000000000 ) ) ;
#352 = ORIENTED_EDGE ( 'NONE', *, *, #135, .T. ) ;
#353 = FACE_OUTER_BOUND ( 'NONE', #62, .T. ) ;
#354 = STYLED_ITEM ( 'NONE', ( #323 ), #356 ) ;
#355 = ORIENTED_EDGE ( 'NONE', *, *, #232, .T. ) ;
#356 = ADVANCED_FACE ( 'NONE', ( #171 ), #270, .T. ) ;
#357 = SURFACE_STYLE_USAGE ( .BOTH. , #93 ) ;
#358 = CIRCLE ( 'NONE', #193, 4.000000000000000000 ) ;
#359 = VECTOR ( 'NONE', #159, 1000.000000000000000 ) ;
#360 = AXIS2_PLACEMENT_3D ( 'NONE', #283, #249, #363 ) ;
#361 =( GEOMETRIC_REPRESENTATION_CONTEXT ( 3 ) GLOBAL_UNCERTAINTY_ASSIGNED_CONTEXT ( ( #170 ) ) GLOBAL_UNIT_ASSIGNED_CONTEXT ( ( #316, #258, #112 ) ) REPRESENTATION_CONTEXT ( 'NONE', 'WORKASPACE' ) );
#362 = ADVANCED_FACE ( 'NONE', ( #88 ), #238, .T. ) ;
#363 = DIRECTION ( 'NONE',  ( 0.000000000000000000, 0.000000000000000000, -1.000000000000000000 ) ) ;
#364 = AXIS2_PLACEMENT_3D ( 'NONE', #81, #144, #260 ) ;
#365 = EDGE_LOOP ( 'NONE', ( #21, #92, #236, #216 ) ) ;
#366 = DIRECTION ( 'NONE',  ( -1.000000000000000000, 0.000000000000000000, 0.000000000000000000 ) ) ;
#367 = PRODUCT_DEFINITION ( 'UNKNOWN', '', #162, #263 ) ;
#368 = EDGE_LOOP ( 'NONE', ( #165, #27, #352, #266 ) ) ;
#369 =( NAMED_UNIT ( * ) SI_UNIT ( $, .STERADIAN. ) SOLID_ANGLE_UNIT ( ) );
#370 = DIRECTION ( 'NONE',  ( -1.203966067220177465E-16, 1.000000000000000000, -0.000000000000000000 ) ) ;
ENDSEC;
END-ISO-10303-21;
