ISO-10303-21;
HEADER;
FILE_DESCRIPTION (( 'STEP AP214' ),
    '1' );
FILE_NAME ('05127.STEP',
    '2023-06-22T15:52:25',
    ( '' ),
    ( '' ),
    'SwSTEP 2.0',
    'SolidWorks 2023',
    '' );
FILE_SCHEMA (( 'AUTOMOTIVE_DESIGN' ));
ENDSEC;

DATA;
#1 =( NAMED_UNIT ( * ) SI_UNIT ( $, .STERADIAN. ) SOLID_ANGLE_UNIT ( ) );
#2 = ORIENTED_EDGE ( 'NONE', *, *, #248, .T. ) ;
#3 = AXIS2_PLACEMENT_3D ( 'NONE', #265, #191, #146 ) ;
#4 =( GEOMETRIC_REPRESENTATION_CONTEXT ( 3 ) GLOBAL_UNCERTAINTY_ASSIGNED_CONTEXT ( ( #103 ) ) GLOBAL_UNIT_ASSIGNED_CONTEXT ( ( #267, #168, #246 ) ) REPRESENTATION_CONTEXT ( 'NONE', 'WORKASPACE' ) );
#5 = SURFACE_SIDE_STYLE ('',( #295 ) ) ;
#6 = PRODUCT ( '05127', '05127', '', ( #85 ) ) ;
#7 = CARTESIAN_POINT ( 'NONE',  ( 1.530808498934191509E-17, 0.000000000000000000, 0.1250000000000000000 ) ) ;
#8 = PLANE ( 'NONE',  #3 ) ;
#9 = DIRECTION ( 'NONE',  ( 0.000000000000000000, 0.000000000000000000, -1.000000000000000000 ) ) ;
#10 = ORIENTED_EDGE ( 'NONE', *, *, #33, .F. ) ;
#11 =( LENGTH_UNIT ( ) NAMED_UNIT ( * ) SI_UNIT ( $, .METRE. ) );
#12 =( GEOMETRIC_REPRESENTATION_CONTEXT ( 3 ) GLOBAL_UNCERTAINTY_ASSIGNED_CONTEXT ( ( #233 ) ) GLOBAL_UNIT_ASSIGNED_CONTEXT ( ( #27, #231, #22 ) ) REPRESENTATION_CONTEXT ( 'NONE', 'WORKASPACE' ) );
#13 = SURFACE_STYLE_FILL_AREA ( #252 ) ;
#14 =( LENGTH_UNIT ( ) NAMED_UNIT ( * ) SI_UNIT ( $, .METRE. ) );
#15 = APPLICATION_PROTOCOL_DEFINITION ( 'draft international standard', 'automotive_design', 1998, #283 ) ;
#16 = CARTESIAN_POINT ( 'NONE',  ( 0.000000000000000000, 0.000000000000000000, 0.000000000000000000 ) ) ;
#17 = EDGE_CURVE ( 'NONE', #298, #303, #174, .T. ) ;
#18 = DIRECTION ( 'NONE',  ( 3.768143997376471359E-17, 1.000000000000000000, -0.000000000000000000 ) ) ;
#19 =( GEOMETRIC_REPRESENTATION_CONTEXT ( 3 ) GLOBAL_UNCERTAINTY_ASSIGNED_CONTEXT ( ( #111 ) ) GLOBAL_UNIT_ASSIGNED_CONTEXT ( ( #115, #307, #244 ) ) REPRESENTATION_CONTEXT ( 'NONE', 'WORKASPACE' ) );
#20 = UNCERTAINTY_MEASURE_WITH_UNIT (LENGTH_MEASURE( 1.000000000000000082E-05 ), #112, 'distance_accuracy_value', 'NONE');
#21 = ORIENTED_EDGE ( 'NONE', *, *, #90, .T. ) ;
#22 =( NAMED_UNIT ( * ) SI_UNIT ( $, .STERADIAN. ) SOLID_ANGLE_UNIT ( ) );
#23 = PRESENTATION_STYLE_ASSIGNMENT (( #58 ) ) ;
#24 = CARTESIAN_POINT ( 'NONE',  ( 6.123233995736766036E-17, 2.000000000000000000, 0.000000000000000000 ) ) ;
#25 = AXIS2_PLACEMENT_3D ( 'NONE', #271, #288, #117 ) ;
#26 = EDGE_CURVE ( 'NONE', #36, #149, #184, .T. ) ;
#27 =( CONVERSION_BASED_UNIT ( 'INCH', #239 ) LENGTH_UNIT ( ) NAMED_UNIT ( #225 ) );
#28 = CARTESIAN_POINT ( 'NONE',  ( 0.1250000000000000555, 2.000000000000000000, 1.530808498934191201E-17 ) ) ;
#29 = CIRCLE ( 'NONE', #67, 0.1250000000000000278 ) ;
#30 = LENGTH_MEASURE_WITH_UNIT ( LENGTH_MEASURE( 0.02539999999999999897 ), #226 );
#31 = FACE_OUTER_BOUND ( 'NONE', #264, .T. ) ;
#32 = ORIENTED_EDGE ( 'NONE', *, *, #26, .T. ) ;
#33 = EDGE_CURVE ( 'NONE', #303, #36, #260, .T. ) ;
#34 = EDGE_LOOP ( 'NONE', ( #177, #198 ) ) ;
#35 = SURFACE_STYLE_FILL_AREA ( #65 ) ;
#36 = VERTEX_POINT ( 'NONE', #205 ) ;
#37 = DIRECTION ( 'NONE',  ( 0.000000000000000000, 0.000000000000000000, -1.000000000000000000 ) ) ;
#38 = AXIS2_PLACEMENT_3D ( 'NONE', #256, #18, #219 ) ;
#39 = ORIENTED_EDGE ( 'NONE', *, *, #165, .F. ) ;
#40 = UNCERTAINTY_MEASURE_WITH_UNIT (LENGTH_MEASURE( 1.000000000000000082E-05 ), #106, 'distance_accuracy_value', 'NONE');
#41 = DIRECTION ( 'NONE',  ( 3.768143997376471359E-17, 1.000000000000000000, -0.000000000000000000 ) ) ;
#42 = AXIS2_PLACEMENT_3D ( 'NONE', #282, #151, #57 ) ;
#43 = DIRECTION ( 'NONE',  ( 3.768143997376471359E-17, 1.000000000000000000, -0.000000000000000000 ) ) ;
#44 = CLOSED_SHELL ( 'NONE', ( #134, #101, #162, #188 ) ) ;
#45 = DIRECTION ( 'NONE',  ( -1.000000000000000000, 0.000000000000000000, 0.000000000000000000 ) ) ;
#46 = AXIS2_PLACEMENT_3D ( 'NONE', #266, #144, #9 ) ;
#47 = CARTESIAN_POINT ( 'NONE',  ( 0.1250000000000000278, 2.000000000000000000, 0.000000000000000000 ) ) ;
#48 = CARTESIAN_POINT ( 'NONE',  ( 0.000000000000000000, 0.3750000000000000555, 0.000000000000000000 ) ) ;
#49 = PRODUCT_DEFINITION ( 'UNKNOWN', '', #300, #211 ) ;
#50 = VECTOR ( 'NONE', #218, 39.37007874015748143 ) ;
#51 = ORIENTED_EDGE ( 'NONE', *, *, #216, .T. ) ;
#52 =( CONVERSION_BASED_UNIT ( 'INCH', #229 ) LENGTH_UNIT ( ) NAMED_UNIT ( #72 ) );
#53 = MECHANICAL_DESIGN_GEOMETRIC_PRESENTATION_REPRESENTATION (  '', ( #104 ), #121 ) ;
#54 = FACE_OUTER_BOUND ( 'NONE', #200, .T. ) ;
#55 = UNCERTAINTY_MEASURE_WITH_UNIT (LENGTH_MEASURE( 1.000000000000000082E-05 ), #52, 'distance_accuracy_value', 'NONE');
#56 = DIRECTION ( 'NONE',  ( -0.000000000000000000, -1.000000000000000000, -0.000000000000000000 ) ) ;
#57 = DIRECTION ( 'NONE',  ( -1.000000000000000000, 0.000000000000000000, 0.000000000000000000 ) ) ;
#58 = SURFACE_STYLE_USAGE ( .BOTH. , #136 ) ;
#59 = AXIS2_PLACEMENT_3D ( 'NONE', #24, #135, #82 ) ;
#60 = PRESENTATION_LAYER_ASSIGNMENT (  '', '', ( #240 ) ) ;
#61 = PRESENTATION_STYLE_ASSIGNMENT (( #210 ) ) ;
#62 = VECTOR ( 'NONE', #247, 39.37007874015748143 ) ;
#63 = EDGE_CURVE ( 'NONE', #172, #290, #258, .T. ) ;
#64 = CARTESIAN_POINT ( 'NONE',  ( 0.1250000000000000278, 2.000000000000000000, 1.530808498934191817E-17 ) ) ;
#65 = FILL_AREA_STYLE ('',( #292 ) ) ;
#66 = FACE_OUTER_BOUND ( 'NONE', #69, .T. ) ;
#67 = AXIS2_PLACEMENT_3D ( 'NONE', #48, #291, #37 ) ;
#68 = EDGE_CURVE ( 'NONE', #303, #298, #97, .T. ) ;
#69 = EDGE_LOOP ( 'NONE', ( #87, #299, #99, #203 ) ) ;
#70 = FILL_AREA_STYLE ('',( #143 ) ) ;
#71 = ORIENTED_EDGE ( 'NONE', *, *, #221, .T. ) ;
#72 = DIMENSIONAL_EXPONENTS ( 1.000000000000000000, 0.000000000000000000, 0.000000000000000000, 0.000000000000000000, 0.000000000000000000, 0.000000000000000000, 0.000000000000000000 ) ;
#73 = PRESENTATION_STYLE_ASSIGNMENT (( #293 ) ) ;
#74 = EDGE_LOOP ( 'NONE', ( #51, #2, #95, #39 ) ) ;
#75 = VECTOR ( 'NONE', #43, 39.37007874015748143 ) ;
#76 = VECTOR ( 'NONE', #161, 39.37007874015748143 ) ;
#77 =( GEOMETRIC_REPRESENTATION_CONTEXT ( 3 ) GLOBAL_UNCERTAINTY_ASSIGNED_CONTEXT ( ( #289 ) ) GLOBAL_UNIT_ASSIGNED_CONTEXT ( ( #116, #309, #1 ) ) REPRESENTATION_CONTEXT ( 'NONE', 'WORKASPACE' ) );
#78 = SURFACE_STYLE_USAGE ( .BOTH. , #5 ) ;
#79 = ORIENTED_EDGE ( 'NONE', *, *, #212, .T. ) ;
#80 = EDGE_LOOP ( 'NONE', ( #124, #71, #159, #251 ) ) ;
#81 = DIRECTION ( 'NONE',  ( 1.000000000000000000, 0.000000000000000000, 0.000000000000000000 ) ) ;
#82 = DIRECTION ( 'NONE',  ( -1.000000000000000000, 0.000000000000000000, 0.000000000000000000 ) ) ;
#83 = MANIFOLD_SOLID_BREP ( 'Revolve - Tool Body (Straight Shanked)', #44 ) ;
#84 = AXIS2_PLACEMENT_3D ( 'NONE', #88, #232, #236 ) ;
#85 = PRODUCT_CONTEXT ( 'NONE', #283, 'mechanical' ) ;
#86 = SURFACE_SIDE_STYLE ('',( #13 ) ) ;
#87 = ORIENTED_EDGE ( 'NONE', *, *, #142, .F. ) ;
#88 = CARTESIAN_POINT ( 'NONE',  ( 0.000000000000000000, 0.000000000000000000, 0.000000000000000000 ) ) ;
#89 = FILL_AREA_STYLE_COLOUR ( '', #202 ) ;
#90 = EDGE_CURVE ( 'NONE', #149, #36, #296, .T. ) ;
#91 =( GEOMETRIC_REPRESENTATION_CONTEXT ( 3 ) GLOBAL_UNCERTAINTY_ASSIGNED_CONTEXT ( ( #55 ) ) GLOBAL_UNIT_ASSIGNED_CONTEXT ( ( #52, #197, #171 ) ) REPRESENTATION_CONTEXT ( 'NONE', 'WORKASPACE' ) );
#92 = DIRECTION ( 'NONE',  ( -3.768143997376471359E-17, -1.000000000000000000, 0.000000000000000000 ) ) ;
#93 = LENGTH_MEASURE_WITH_UNIT ( LENGTH_MEASURE( 0.02539999999999999897 ), #14 );
#94 = SURFACE_SIDE_STYLE ('',( #227 ) ) ;
#95 = ORIENTED_EDGE ( 'NONE', *, *, #63, .F. ) ;
#96 = CARTESIAN_POINT ( 'NONE',  ( -0.1250000000000000278, 0.3749999999999999445, 0.000000000000000000 ) ) ;
#97 = CIRCLE ( 'NONE', #113, 0.1250000000000000278 ) ;
#98 = DIMENSIONAL_EXPONENTS ( 1.000000000000000000, 0.000000000000000000, 0.000000000000000000, 0.000000000000000000, 0.000000000000000000, 0.000000000000000000, 0.000000000000000000 ) ;
#99 = ORIENTED_EDGE ( 'NONE', *, *, #33, .T. ) ;
#100 = DIRECTION ( 'NONE',  ( -1.000000000000000000, 0.000000000000000000, 0.000000000000000000 ) ) ;
#101 = ADVANCED_FACE ( 'NONE', ( #204 ), #178, .F. ) ;
#102 = SURFACE_STYLE_USAGE ( .BOTH. , #86 ) ;
#103 = UNCERTAINTY_MEASURE_WITH_UNIT (LENGTH_MEASURE( 1.000000000000000082E-05 ), #267, 'distance_accuracy_value', 'NONE');
#104 = STYLED_ITEM ( 'NONE', ( #73 ), #261 ) ;
#105 = DIRECTION ( 'NONE',  ( 0.000000000000000000, 0.000000000000000000, -1.000000000000000000 ) ) ;
#106 =( CONVERSION_BASED_UNIT ( 'INCH', #277 ) LENGTH_UNIT ( ) NAMED_UNIT ( #98 ) );
#107 =( NAMED_UNIT ( * ) SI_UNIT ( $, .STERADIAN. ) SOLID_ANGLE_UNIT ( ) );
#108 = AXIS2_PLACEMENT_3D ( 'NONE', #16, #56, #105 ) ;
#109 = CYLINDRICAL_SURFACE ( 'NONE', #148, 0.1250000000000000000 ) ;
#110 = CYLINDRICAL_SURFACE ( 'NONE', #158, 0.1249999999999999861 ) ;
#111 = UNCERTAINTY_MEASURE_WITH_UNIT (LENGTH_MEASURE( 1.000000000000000082E-05 ), #115, 'distance_accuracy_value', 'NONE');
#112 =( CONVERSION_BASED_UNIT ( 'INCH', #155 ) LENGTH_UNIT ( ) NAMED_UNIT ( #192 ) );
#113 = AXIS2_PLACEMENT_3D ( 'NONE', #278, #41, #304 ) ;
#114 = PRESENTATION_LAYER_ASSIGNMENT (  '', '', ( #104 ) ) ;
#115 =( CONVERSION_BASED_UNIT ( 'INCH', #30 ) LENGTH_UNIT ( ) NAMED_UNIT ( #125 ) );
#116 =( CONVERSION_BASED_UNIT ( 'INCH', #268 ) LENGTH_UNIT ( ) NAMED_UNIT ( #241 ) );
#117 = DIRECTION ( 'NONE',  ( 0.000000000000000000, 0.000000000000000000, -1.000000000000000000 ) ) ;
#118 = ORIENTED_EDGE ( 'NONE', *, *, #68, .F. ) ;
#119 = PRESENTATION_STYLE_ASSIGNMENT (( #78 ) ) ;
#120 = DIRECTION ( 'NONE',  ( 0.000000000000000000, -0.000000000000000000, 1.000000000000000000 ) ) ;
#121 =( GEOMETRIC_REPRESENTATION_CONTEXT ( 3 ) GLOBAL_UNCERTAINTY_ASSIGNED_CONTEXT ( ( #20 ) ) GLOBAL_UNIT_ASSIGNED_CONTEXT ( ( #112, #141, #166 ) ) REPRESENTATION_CONTEXT ( 'NONE', 'WORKASPACE' ) );
#122 = FILL_AREA_STYLE ('',( #126 ) ) ;
#123 = SURFACE_STYLE_USAGE ( .BOTH. , #302 ) ;
#124 = ORIENTED_EDGE ( 'NONE', *, *, #248, .F. ) ;
#125 = DIMENSIONAL_EXPONENTS ( 1.000000000000000000, 0.000000000000000000, 0.000000000000000000, 0.000000000000000000, 0.000000000000000000, 0.000000000000000000, 0.000000000000000000 ) ;
#126 = FILL_AREA_STYLE_COLOUR ( '', #175 ) ;
#127 = COLOUR_RGB ( '',1.000000000000000000, 0.000000000000000000, 0.000000000000000000 ) ;
#128 = ORIENTED_EDGE ( 'NONE', *, *, #17, .F. ) ;
#129 = CARTESIAN_POINT ( 'NONE',  ( 0.000000000000000000, 0.3750000000000000555, -0.1250000000000000278 ) ) ;
#130 = CYLINDRICAL_SURFACE ( 'NONE', #108, 0.1250000000000000000 ) ;
#131 = VERTEX_POINT ( 'NONE', #129 ) ;
#132 = FACE_OUTER_BOUND ( 'NONE', #137, .T. ) ;
#133 = PRESENTATION_LAYER_ASSIGNMENT (  '', '', ( #306 ) ) ;
#134 = ADVANCED_FACE ( 'NONE', ( #54 ), #154, .T. ) ;
#135 = DIRECTION ( 'NONE',  ( 3.768143997376471359E-17, 1.000000000000000000, -0.000000000000000000 ) ) ;
#136 = SURFACE_SIDE_STYLE ('',( #280 ) ) ;
#137 = EDGE_LOOP ( 'NONE', ( #273, #79 ) ) ;
#138 = ADVANCED_BREP_SHAPE_REPRESENTATION ( '05127', ( #189, #83, #190 ), #4 ) ;
#139 = MECHANICAL_DESIGN_GEOMETRIC_PRESENTATION_REPRESENTATION (  '', ( #196 ), #77 ) ;
#140 = LINE ( 'NONE', #28, #50 ) ;
#141 =( NAMED_UNIT ( * ) PLANE_ANGLE_UNIT ( ) SI_UNIT ( $, .RADIAN. ) );
#142 = EDGE_CURVE ( 'NONE', #298, #149, #140, .T. ) ;
#143 = FILL_AREA_STYLE_COLOUR ( '', #163 ) ;
#144 = DIRECTION ( 'NONE',  ( -0.000000000000000000, -1.000000000000000000, -0.000000000000000000 ) ) ;
#145 = DIRECTION ( 'NONE',  ( 0.000000000000000000, 1.000000000000000000, 0.000000000000000000 ) ) ;
#146 = DIRECTION ( 'NONE',  ( 0.000000000000000000, 0.000000000000000000, -1.000000000000000000 ) ) ;
#147 = LINE ( 'NONE', #250, #62 ) ;
#148 = AXIS2_PLACEMENT_3D ( 'NONE', #215, #156, #305 ) ;
#149 = VERTEX_POINT ( 'NONE', #64 ) ;
#150 = PRESENTATION_STYLE_ASSIGNMENT (( #123 ) ) ;
#151 = DIRECTION ( 'NONE',  ( 3.768143997376471359E-17, 1.000000000000000000, -0.000000000000000000 ) ) ;
#152 = DIRECTION ( 'NONE',  ( -1.000000000000000000, 3.768143997376471359E-17, 0.000000000000000000 ) ) ;
#153 = APPLICATION_CONTEXT ( 'automotive_design' ) ;
#154 = CYLINDRICAL_SURFACE ( 'NONE', #38, 0.1249999999999999861 ) ;
#155 = LENGTH_MEASURE_WITH_UNIT ( LENGTH_MEASURE( 0.02539999999999999897 ), #11 );
#156 = DIRECTION ( 'NONE',  ( -0.000000000000000000, -1.000000000000000000, -0.000000000000000000 ) ) ;
#157 = CARTESIAN_POINT ( 'NONE',  ( 0.000000000000000000, 0.000000000000000000, 0.000000000000000000 ) ) ;
#158 = AXIS2_PLACEMENT_3D ( 'NONE', #262, #164, #45 ) ;
#159 = ORIENTED_EDGE ( 'NONE', *, *, #165, .T. ) ;
#160 = SURFACE_SIDE_STYLE ('',( #170 ) ) ;
#161 = DIRECTION ( 'NONE',  ( -0.000000000000000000, -1.000000000000000000, -0.000000000000000000 ) ) ;
#162 = ADVANCED_FACE ( 'NONE', ( #66 ), #110, .T. ) ;
#163 = COLOUR_RGB ( '',0.7921568627450980005, 0.8196078431372548767, 0.9333333333333333481 ) ;
#164 = DIRECTION ( 'NONE',  ( 3.768143997376471359E-17, 1.000000000000000000, -0.000000000000000000 ) ) ;
#165 = EDGE_CURVE ( 'NONE', #131, #172, #308, .T. ) ;
#166 =( NAMED_UNIT ( * ) SI_UNIT ( $, .STERADIAN. ) SOLID_ANGLE_UNIT ( ) );
#167 = AXIS2_PLACEMENT_3D ( 'NONE', #274, #180, #152 ) ;
#168 =( NAMED_UNIT ( * ) PLANE_ANGLE_UNIT ( ) SI_UNIT ( $, .RADIAN. ) );
#169 = CARTESIAN_POINT ( 'NONE',  ( 0.000000000000000000, 0.3750000000000000555, 0.000000000000000000 ) ) ;
#170 = SURFACE_STYLE_FILL_AREA ( #220 ) ;
#171 =( NAMED_UNIT ( * ) SI_UNIT ( $, .STERADIAN. ) SOLID_ANGLE_UNIT ( ) );
#172 = VERTEX_POINT ( 'NONE', #214 ) ;
#173 = CLOSED_SHELL ( 'NONE', ( #275, #279, #261, #270 ) ) ;
#174 = CIRCLE ( 'NONE', #42, 0.1250000000000000278 ) ;
#175 = COLOUR_RGB ( '',1.000000000000000000, 0.000000000000000000, 0.000000000000000000 ) ;
#176 = ORIENTED_EDGE ( 'NONE', *, *, #68, .T. ) ;
#177 = ORIENTED_EDGE ( 'NONE', *, *, #216, .F. ) ;
#178 = PLANE ( 'NONE',  #167 ) ;
#179 = SHAPE_DEFINITION_REPRESENTATION ( #285, #138 ) ;
#180 = DIRECTION ( 'NONE',  ( 3.768143997376471359E-17, 1.000000000000000000, -0.000000000000000000 ) ) ;
#181 = EDGE_LOOP ( 'NONE', ( #118, #128 ) ) ;
#182 = FILL_AREA_STYLE ('',( #89 ) ) ;
#183 = DIRECTION ( 'NONE',  ( 0.000000000000000000, 0.000000000000000000, 1.000000000000000000 ) ) ;
#184 = CIRCLE ( 'NONE', #59, 0.1249999999999999445 ) ;
#185 =( GEOMETRIC_REPRESENTATION_CONTEXT ( 3 ) GLOBAL_UNCERTAINTY_ASSIGNED_CONTEXT ( ( #40 ) ) GLOBAL_UNIT_ASSIGNED_CONTEXT ( ( #106, #301, #107 ) ) REPRESENTATION_CONTEXT ( 'NONE', 'WORKASPACE' ) );
#186 =( LENGTH_UNIT ( ) NAMED_UNIT ( * ) SI_UNIT ( $, .METRE. ) );
#187 =( LENGTH_UNIT ( ) NAMED_UNIT ( * ) SI_UNIT ( $, .METRE. ) );
#188 = ADVANCED_FACE ( 'NONE', ( #31 ), #201, .F. ) ;
#189 = MANIFOLD_SOLID_BREP ( 'Revolve - Cutting Edge', #173 ) ;
#190 = AXIS2_PLACEMENT_3D ( 'NONE', #157, #183, #81 ) ;
#191 = DIRECTION ( 'NONE',  ( 0.000000000000000000, -1.000000000000000000, -0.000000000000000000 ) ) ;
#192 = DIMENSIONAL_EXPONENTS ( 1.000000000000000000, 0.000000000000000000, 0.000000000000000000, 0.000000000000000000, 0.000000000000000000, 0.000000000000000000, 0.000000000000000000 ) ;
#193 = CARTESIAN_POINT ( 'NONE',  ( 0.000000000000000000, 0.000000000000000000, -0.1250000000000000000 ) ) ;
#194 =( LENGTH_UNIT ( ) NAMED_UNIT ( * ) SI_UNIT ( $, .METRE. ) );
#195 = STYLED_ITEM ( 'NONE', ( #237 ), #83 ) ;
#196 = STYLED_ITEM ( 'NONE', ( #61 ), #279 ) ;
#197 =( NAMED_UNIT ( * ) PLANE_ANGLE_UNIT ( ) SI_UNIT ( $, .RADIAN. ) );
#198 = ORIENTED_EDGE ( 'NONE', *, *, #221, .F. ) ;
#199 = CARTESIAN_POINT ( 'NONE',  ( 1.530808498934191817E-17, 0.3750000000000000555, 0.1250000000000000278 ) ) ;
#200 = EDGE_LOOP ( 'NONE', ( #176, #234, #249, #10 ) ) ;
#201 = PLANE ( 'NONE',  #217 ) ;
#202 = COLOUR_RGB ( '',1.000000000000000000, 0.000000000000000000, 0.000000000000000000 ) ;
#203 = ORIENTED_EDGE ( 'NONE', *, *, #90, .F. ) ;
#204 = FACE_OUTER_BOUND ( 'NONE', #181, .T. ) ;
#205 = CARTESIAN_POINT ( 'NONE',  ( -0.1249999999999998751, 2.000000000000000000, 0.000000000000000000 ) ) ;
#206 = MECHANICAL_DESIGN_GEOMETRIC_PRESENTATION_REPRESENTATION (  '', ( #213 ), #91 ) ;
#207 = CARTESIAN_POINT ( 'NONE',  ( -0.1249999999999999167, 2.000000000000000000, 0.000000000000000000 ) ) ;
#208 = PRODUCT_RELATED_PRODUCT_CATEGORY ( 'part', '', ( #6 ) ) ;
#209 = DIRECTION ( 'NONE',  ( 3.768143997376471359E-17, 1.000000000000000000, -0.000000000000000000 ) ) ;
#210 = SURFACE_STYLE_USAGE ( .BOTH. , #160 ) ;
#211 = PRODUCT_DEFINITION_CONTEXT ( 'detailed design', #153, 'design' ) ;
#212 = EDGE_CURVE ( 'NONE', #290, #172, #223, .T. ) ;
#213 = STYLED_ITEM ( 'NONE', ( #119 ), #189 ) ;
#214 = CARTESIAN_POINT ( 'NONE',  ( 0.000000000000000000, 0.000000000000000000, -0.1250000000000000000 ) ) ;
#215 = CARTESIAN_POINT ( 'NONE',  ( 0.000000000000000000, 0.000000000000000000, 0.000000000000000000 ) ) ;
#216 = EDGE_CURVE ( 'NONE', #131, #297, #29, .T. ) ;
#217 = AXIS2_PLACEMENT_3D ( 'NONE', #47, #92, #243 ) ;
#218 = DIRECTION ( 'NONE',  ( 3.768143997376471359E-17, 1.000000000000000000, -0.000000000000000000 ) ) ;
#219 = DIRECTION ( 'NONE',  ( -1.000000000000000000, 0.000000000000000000, 0.000000000000000000 ) ) ;
#220 = FILL_AREA_STYLE ('',( #242 ) ) ;
#221 = EDGE_CURVE ( 'NONE', #297, #131, #230, .T. ) ;
#222 = MECHANICAL_DESIGN_GEOMETRIC_PRESENTATION_REPRESENTATION (  '', ( #195 ), #185 ) ;
#223 = CIRCLE ( 'NONE', #25, 0.1250000000000000000 ) ;
#224 = AXIS2_PLACEMENT_3D ( 'NONE', #169, #145, #120 ) ;
#225 = DIMENSIONAL_EXPONENTS ( 1.000000000000000000, 0.000000000000000000, 0.000000000000000000, 0.000000000000000000, 0.000000000000000000, 0.000000000000000000, 0.000000000000000000 ) ;
#226 =( LENGTH_UNIT ( ) NAMED_UNIT ( * ) SI_UNIT ( $, .METRE. ) );
#227 = SURFACE_STYLE_FILL_AREA ( #122 ) ;
#228 = FACE_OUTER_BOUND ( 'NONE', #34, .T. ) ;
#229 = LENGTH_MEASURE_WITH_UNIT ( LENGTH_MEASURE( 0.02539999999999999897 ), #194 );
#230 = CIRCLE ( 'NONE', #46, 0.1250000000000000278 ) ;
#231 =( NAMED_UNIT ( * ) PLANE_ANGLE_UNIT ( ) SI_UNIT ( $, .RADIAN. ) );
#232 = DIRECTION ( 'NONE',  ( -0.000000000000000000, -1.000000000000000000, -0.000000000000000000 ) ) ;
#233 = UNCERTAINTY_MEASURE_WITH_UNIT (LENGTH_MEASURE( 1.000000000000000082E-05 ), #27, 'distance_accuracy_value', 'NONE');
#234 = ORIENTED_EDGE ( 'NONE', *, *, #142, .T. ) ;
#235 = COLOUR_RGB ( '',1.000000000000000000, 0.000000000000000000, 0.000000000000000000 ) ;
#236 = DIRECTION ( 'NONE',  ( 0.000000000000000000, 0.000000000000000000, -1.000000000000000000 ) ) ;
#237 = PRESENTATION_STYLE_ASSIGNMENT (( #102 ) ) ;
#238 = PRESENTATION_LAYER_ASSIGNMENT (  '', '', ( #196 ) ) ;
#239 = LENGTH_MEASURE_WITH_UNIT ( LENGTH_MEASURE( 0.02539999999999999897 ), #287 );
#240 = STYLED_ITEM ( 'NONE', ( #23 ), #270 ) ;
#241 = DIMENSIONAL_EXPONENTS ( 1.000000000000000000, 0.000000000000000000, 0.000000000000000000, 0.000000000000000000, 0.000000000000000000, 0.000000000000000000, 0.000000000000000000 ) ;
#242 = FILL_AREA_STYLE_COLOUR ( '', #127 ) ;
#243 = DIRECTION ( 'NONE',  ( 1.000000000000000000, -3.768143997376471359E-17, 0.000000000000000000 ) ) ;
#244 =( NAMED_UNIT ( * ) SI_UNIT ( $, .STERADIAN. ) SOLID_ANGLE_UNIT ( ) );
#245 = FACE_OUTER_BOUND ( 'NONE', #80, .T. ) ;
#246 =( NAMED_UNIT ( * ) SI_UNIT ( $, .STERADIAN. ) SOLID_ANGLE_UNIT ( ) );
#247 = DIRECTION ( 'NONE',  ( -0.000000000000000000, -1.000000000000000000, -0.000000000000000000 ) ) ;
#248 = EDGE_CURVE ( 'NONE', #297, #290, #147, .T. ) ;
#249 = ORIENTED_EDGE ( 'NONE', *, *, #26, .F. ) ;
#250 = CARTESIAN_POINT ( 'NONE',  ( 1.530808498934191509E-17, 0.000000000000000000, 0.1250000000000000000 ) ) ;
#251 = ORIENTED_EDGE ( 'NONE', *, *, #212, .F. ) ;
#252 = FILL_AREA_STYLE ('',( #255 ) ) ;
#253 = MECHANICAL_DESIGN_GEOMETRIC_PRESENTATION_REPRESENTATION (  '', ( #306 ), #12 ) ;
#254 = APPLICATION_PROTOCOL_DEFINITION ( 'draft international standard', 'automotive_design', 1998, #153 ) ;
#255 = FILL_AREA_STYLE_COLOUR ( '', #281 ) ;
#256 = CARTESIAN_POINT ( 'NONE',  ( 6.123233995736766036E-17, 2.000000000000000000, 0.000000000000000000 ) ) ;
#257 = CARTESIAN_POINT ( 'NONE',  ( 6.123233995736766036E-17, 2.000000000000000000, 0.000000000000000000 ) ) ;
#258 = CIRCLE ( 'NONE', #84, 0.1250000000000000000 ) ;
#259 = AXIS2_PLACEMENT_3D ( 'NONE', #257, #209, #100 ) ;
#260 = LINE ( 'NONE', #207, #75 ) ;
#261 = ADVANCED_FACE ( 'NONE', ( #245 ), #109, .T. ) ;
#262 = CARTESIAN_POINT ( 'NONE',  ( 6.123233995736766036E-17, 2.000000000000000000, 0.000000000000000000 ) ) ;
#263 = MECHANICAL_DESIGN_GEOMETRIC_PRESENTATION_REPRESENTATION (  '', ( #240 ), #19 ) ;
#264 = EDGE_LOOP ( 'NONE', ( #32, #21 ) ) ;
#265 = CARTESIAN_POINT ( 'NONE',  ( 0.000000000000000000, 0.000000000000000000, 0.000000000000000000 ) ) ;
#266 = CARTESIAN_POINT ( 'NONE',  ( 0.000000000000000000, 0.3750000000000000555, 0.000000000000000000 ) ) ;
#267 =( CONVERSION_BASED_UNIT ( 'INCH', #93 ) LENGTH_UNIT ( ) NAMED_UNIT ( #269 ) );
#268 = LENGTH_MEASURE_WITH_UNIT ( LENGTH_MEASURE( 0.02539999999999999897 ), #187 );
#269 = DIMENSIONAL_EXPONENTS ( 1.000000000000000000, 0.000000000000000000, 0.000000000000000000, 0.000000000000000000, 0.000000000000000000, 0.000000000000000000, 0.000000000000000000 ) ;
#270 = ADVANCED_FACE ( 'NONE', ( #132 ), #8, .T. ) ;
#271 = CARTESIAN_POINT ( 'NONE',  ( 0.000000000000000000, 0.000000000000000000, 0.000000000000000000 ) ) ;
#272 = CARTESIAN_POINT ( 'NONE',  ( 0.1250000000000000278, 0.3749999999999999445, 1.530808498934191817E-17 ) ) ;
#273 = ORIENTED_EDGE ( 'NONE', *, *, #63, .T. ) ;
#274 = CARTESIAN_POINT ( 'NONE',  ( 8.874318240602707505E-35, 0.3750000000000000555, 0.000000000000000000 ) ) ;
#275 = ADVANCED_FACE ( 'NONE', ( #286 ), #130, .T. ) ;
#276 = PRESENTATION_LAYER_ASSIGNMENT (  '', '', ( #213 ) ) ;
#277 = LENGTH_MEASURE_WITH_UNIT ( LENGTH_MEASURE( 0.02539999999999999897 ), #186 );
#278 = CARTESIAN_POINT ( 'NONE',  ( 0.000000000000000000, 0.3749999999999999445, 0.000000000000000000 ) ) ;
#279 = ADVANCED_FACE ( 'NONE', ( #228 ), #294, .T. ) ;
#280 = SURFACE_STYLE_FILL_AREA ( #182 ) ;
#281 = COLOUR_RGB ( '',0.7921568627450980005, 0.8196078431372548767, 0.9333333333333333481 ) ;
#282 = CARTESIAN_POINT ( 'NONE',  ( 0.000000000000000000, 0.3749999999999999445, 0.000000000000000000 ) ) ;
#283 = APPLICATION_CONTEXT ( 'automotive_design' ) ;
#284 = PRESENTATION_LAYER_ASSIGNMENT (  '', '', ( #195 ) ) ;
#285 = PRODUCT_DEFINITION_SHAPE ( 'NONE', 'NONE',  #49 ) ;
#286 = FACE_OUTER_BOUND ( 'NONE', #74, .T. ) ;
#287 =( LENGTH_UNIT ( ) NAMED_UNIT ( * ) SI_UNIT ( $, .METRE. ) );
#288 = DIRECTION ( 'NONE',  ( -0.000000000000000000, -1.000000000000000000, -0.000000000000000000 ) ) ;
#289 = UNCERTAINTY_MEASURE_WITH_UNIT (LENGTH_MEASURE( 1.000000000000000082E-05 ), #116, 'distance_accuracy_value', 'NONE');
#290 = VERTEX_POINT ( 'NONE', #7 ) ;
#291 = DIRECTION ( 'NONE',  ( -0.000000000000000000, -1.000000000000000000, -0.000000000000000000 ) ) ;
#292 = FILL_AREA_STYLE_COLOUR ( '', #235 ) ;
#293 = SURFACE_STYLE_USAGE ( .BOTH. , #94 ) ;
#294 = PLANE ( 'NONE',  #224 ) ;
#295 = SURFACE_STYLE_FILL_AREA ( #70 ) ;
#296 = CIRCLE ( 'NONE', #259, 0.1249999999999999445 ) ;
#297 = VERTEX_POINT ( 'NONE', #199 ) ;
#298 = VERTEX_POINT ( 'NONE', #272 ) ;
#299 = ORIENTED_EDGE ( 'NONE', *, *, #17, .T. ) ;
#300 = PRODUCT_DEFINITION_FORMATION_WITH_SPECIFIED_SOURCE ( 'ANY', '', #6, .NOT_KNOWN. ) ;
#301 =( NAMED_UNIT ( * ) PLANE_ANGLE_UNIT ( ) SI_UNIT ( $, .RADIAN. ) );
#302 = SURFACE_SIDE_STYLE ('',( #35 ) ) ;
#303 = VERTEX_POINT ( 'NONE', #96 ) ;
#304 = DIRECTION ( 'NONE',  ( -1.000000000000000000, 0.000000000000000000, 0.000000000000000000 ) ) ;
#305 = DIRECTION ( 'NONE',  ( 0.000000000000000000, 0.000000000000000000, -1.000000000000000000 ) ) ;
#306 = STYLED_ITEM ( 'NONE', ( #150 ), #275 ) ;
#307 =( NAMED_UNIT ( * ) PLANE_ANGLE_UNIT ( ) SI_UNIT ( $, .RADIAN. ) );
#308 = LINE ( 'NONE', #193, #76 ) ;
#309 =( NAMED_UNIT ( * ) PLANE_ANGLE_UNIT ( ) SI_UNIT ( $, .RADIAN. ) );
ENDSEC;
END-ISO-10303-21;
