ISO-10303-21;
HEADER;
FILE_DESCRIPTION (( 'STEP AP214' ),
    '1' );
FILE_NAME ('84781.STEP',
    '2023-07-05T16:26:14',
    ( '' ),
    ( '' ),
    'SwSTEP 2.0',
    'SolidWorks 2023',
    '' );
FILE_SCHEMA (( 'AUTOMOTIVE_DESIGN' ));
ENDSEC;

DATA;
#1 = VERTEX_POINT ( 'NONE', #87 ) ;
#2 = ORIENTED_EDGE ( 'NONE', *, *, #155, .T. ) ;
#3 = VERTEX_POINT ( 'NONE', #238 ) ;
#4 = DIRECTION ( 'NONE',  ( -1.277530704499805038E-16, 1.000000000000000000, -0.000000000000000000 ) ) ;
#5 = STYLED_ITEM ( 'NONE', ( #148 ), #263 ) ;
#6 = VERTEX_POINT ( 'NONE', #216 ) ;
#7 = SURFACE_STYLE_USAGE ( .BOTH. , #55 ) ;
#8 = DIRECTION ( 'NONE',  ( -1.277530704499805038E-16, 1.000000000000000000, -0.000000000000000000 ) ) ;
#9 = LENGTH_MEASURE_WITH_UNIT ( LENGTH_MEASURE( 0.02539999999999999897 ), #51 );
#10 =( LENGTH_UNIT ( ) NAMED_UNIT ( * ) SI_UNIT ( $, .METRE. ) );
#11 = PRESENTATION_LAYER_ASSIGNMENT (  '', '', ( #41 ) ) ;
#12 = DIRECTION ( 'NONE',  ( 0.000000000000000000, 0.000000000000000000, 1.000000000000000000 ) ) ;
#13 = DIRECTION ( 'NONE',  ( 0.000000000000000000, 1.000000000000000000, 0.000000000000000000 ) ) ;
#14 = CARTESIAN_POINT ( 'NONE',  ( 0.000000000000000000, 0.5412658773652725408, 0.000000000000000000 ) ) ;
#15 = CARTESIAN_POINT ( 'NONE',  ( 2.528784936293576816E-16, 0.5412658773652724298, 0.000000000000000000 ) ) ;
#16 = CARTESIAN_POINT ( 'NONE',  ( 0.000000000000000000, 0.000000000000000000, 0.000000000000000000 ) ) ;
#17 = FILL_AREA_STYLE ('',( #200 ) ) ;
#18 = PRODUCT_DEFINITION_SHAPE ( 'NONE', 'NONE',  #231 ) ;
#19 = PRESENTATION_LAYER_ASSIGNMENT (  '', '', ( #226 ) ) ;
#20 = ORIENTED_EDGE ( 'NONE', *, *, #113, .T. ) ;
#21 = UNCERTAINTY_MEASURE_WITH_UNIT (LENGTH_MEASURE( 1.000000000000000082E-05 ), #175, 'distance_accuracy_value', 'NONE');
#22 = COLOUR_RGB ( '',0.7921568627450980005, 0.8196078431372548767, 0.9333333333333333481 ) ;
#23 =( GEOMETRIC_REPRESENTATION_CONTEXT ( 3 ) GLOBAL_UNCERTAINTY_ASSIGNED_CONTEXT ( ( #39 ) ) GLOBAL_UNIT_ASSIGNED_CONTEXT ( ( #169, #173, #30 ) ) REPRESENTATION_CONTEXT ( 'NONE', 'WORKASPACE' ) );
#24 = PRESENTATION_STYLE_ASSIGNMENT (( #182 ) ) ;
#25 = DIRECTION ( 'NONE',  ( -1.000000000000000000, -2.185478394931412793E-16, 0.000000000000000000 ) ) ;
#26 = EDGE_CURVE ( 'NONE', #202, #99, #151, .T. ) ;
#27 = DIRECTION ( 'NONE',  ( 0.000000000000000000, 1.000000000000000000, 0.000000000000000000 ) ) ;
#28 = EDGE_LOOP ( 'NONE', ( #176, #227 ) ) ;
#29 =( CONVERSION_BASED_UNIT ( 'INCH', #108 ) LENGTH_UNIT ( ) NAMED_UNIT ( #141 ) );
#30 =( NAMED_UNIT ( * ) SI_UNIT ( $, .STERADIAN. ) SOLID_ANGLE_UNIT ( ) );
#31 = CARTESIAN_POINT ( 'NONE',  ( 0.000000000000000000, 39.37007874015748143, 0.000000000000000000 ) ) ;
#32 = MANIFOLD_SOLID_BREP ( 'Revolve - Tool Body (Pointed)', #128 ) ;
#33 = APPLICATION_PROTOCOL_DEFINITION ( 'draft international standard', 'automotive_design', 1998, #106 ) ;
#34 = PRESENTATION_STYLE_ASSIGNMENT (( #218 ) ) ;
#35 = DIRECTION ( 'NONE',  ( 0.000000000000000000, 0.000000000000000000, 1.000000000000000000 ) ) ;
#36 = CIRCLE ( 'NONE', #85, 0.3124999999999996669 ) ;
#37 = CARTESIAN_POINT ( 'NONE',  ( 0.000000000000000000, 0.000000000000000000, 0.000000000000000000 ) ) ;
#38 = DIMENSIONAL_EXPONENTS ( 1.000000000000000000, 0.000000000000000000, 0.000000000000000000, 0.000000000000000000, 0.000000000000000000, 0.000000000000000000, 0.000000000000000000 ) ;
#39 = UNCERTAINTY_MEASURE_WITH_UNIT (LENGTH_MEASURE( 1.000000000000000082E-05 ), #169, 'distance_accuracy_value', 'NONE');
#40 = ADVANCED_FACE ( 'NONE', ( #75 ), #129, .F. ) ;
#41 = STYLED_ITEM ( 'NONE', ( #232 ), #122 ) ;
#42 = LENGTH_MEASURE_WITH_UNIT ( LENGTH_MEASURE( 0.02539999999999999897 ), #215 );
#43 = EDGE_CURVE ( 'NONE', #202, #6, #133, .T. ) ;
#44 =( GEOMETRIC_REPRESENTATION_CONTEXT ( 3 ) GLOBAL_UNCERTAINTY_ASSIGNED_CONTEXT ( ( #119 ) ) GLOBAL_UNIT_ASSIGNED_CONTEXT ( ( #124, #68, #111 ) ) REPRESENTATION_CONTEXT ( 'NONE', 'WORKASPACE' ) );
#45 = ORIENTED_EDGE ( 'NONE', *, *, #150, .T. ) ;
#46 =( NAMED_UNIT ( * ) PLANE_ANGLE_UNIT ( ) SI_UNIT ( $, .RADIAN. ) );
#47 = CARTESIAN_POINT ( 'NONE',  ( -6.123233995736770966E-17, 3.000000000000000444, 0.000000000000000000 ) ) ;
#48 = SURFACE_STYLE_FILL_AREA ( #143 ) ;
#49 =( NAMED_UNIT ( * ) PLANE_ANGLE_UNIT ( ) SI_UNIT ( $, .RADIAN. ) );
#50 = PRODUCT_RELATED_PRODUCT_CATEGORY ( 'part', '', ( #160 ) ) ;
#51 =( LENGTH_UNIT ( ) NAMED_UNIT ( * ) SI_UNIT ( $, .METRE. ) );
#52 = ORIENTED_EDGE ( 'NONE', *, *, #103, .F. ) ;
#53 = APPLICATION_PROTOCOL_DEFINITION ( 'draft international standard', 'automotive_design', 1998, #164 ) ;
#54 = COLOUR_RGB ( '',1.000000000000000000, 0.000000000000000000, 0.000000000000000000 ) ;
#55 = SURFACE_SIDE_STYLE ('',( #110 ) ) ;
#56 = LINE ( 'NONE', #134, #78 ) ;
#57 = MECHANICAL_DESIGN_GEOMETRIC_PRESENTATION_REPRESENTATION (  '', ( #5 ), #101 ) ;
#58 = STYLED_ITEM ( 'NONE', ( #34 ), #32 ) ;
#59 =( GEOMETRIC_REPRESENTATION_CONTEXT ( 3 ) GLOBAL_UNCERTAINTY_ASSIGNED_CONTEXT ( ( #181 ) ) GLOBAL_UNIT_ASSIGNED_CONTEXT ( ( #112, #79, #161 ) ) REPRESENTATION_CONTEXT ( 'NONE', 'WORKASPACE' ) );
#60 = CARTESIAN_POINT ( 'NONE',  ( 0.000000000000000000, 39.37007874015748143, 0.000000000000000000 ) ) ;
#61 = CARTESIAN_POINT ( 'NONE',  ( 0.000000000000000000, 0.5412658773652725408, 0.000000000000000000 ) ) ;
#62 = CONICAL_SURFACE ( 'NONE', #219, 22.73032555864674364, 0.5235987755983000369 ) ;
#63 = PRODUCT_DEFINITION_FORMATION_WITH_SPECIFIED_SOURCE ( 'ANY', '', #160, .NOT_KNOWN. ) ;
#64 = CARTESIAN_POINT ( 'NONE',  ( 2.528784936293576816E-16, 0.5412658773652724298, 0.000000000000000000 ) ) ;
#65 = EDGE_LOOP ( 'NONE', ( #179, #84, #52, #212 ) ) ;
#66 = DIRECTION ( 'NONE',  ( -1.277530704499805038E-16, 1.000000000000000000, -0.000000000000000000 ) ) ;
#67 = CONICAL_SURFACE ( 'NONE', #224, 22.73032555864674364, 0.5235987755983000369 ) ;
#68 =( NAMED_UNIT ( * ) PLANE_ANGLE_UNIT ( ) SI_UNIT ( $, .RADIAN. ) );
#69 = FILL_AREA_STYLE_COLOUR ( '', #22 ) ;
#70 = CARTESIAN_POINT ( 'NONE',  ( 0.000000000000000000, 0.5412658773652725408, 0.000000000000000000 ) ) ;
#71 = FILL_AREA_STYLE ('',( #171 ) ) ;
#72 = DIRECTION ( 'NONE',  ( -0.000000000000000000, -1.000000000000000000, -0.000000000000000000 ) ) ;
#73 = DIRECTION ( 'NONE',  ( -1.277530704499805038E-16, 1.000000000000000000, 0.000000000000000000 ) ) ;
#74 = DIMENSIONAL_EXPONENTS ( 1.000000000000000000, 0.000000000000000000, 0.000000000000000000, 0.000000000000000000, 0.000000000000000000, 0.000000000000000000, 0.000000000000000000 ) ;
#75 = FACE_OUTER_BOUND ( 'NONE', #228, .T. ) ;
#76 = CIRCLE ( 'NONE', #233, 0.3124999999999999445 ) ;
#77 =( GEOMETRIC_REPRESENTATION_CONTEXT ( 3 ) GLOBAL_UNCERTAINTY_ASSIGNED_CONTEXT ( ( #21 ) ) GLOBAL_UNIT_ASSIGNED_CONTEXT ( ( #175, #49, #149 ) ) REPRESENTATION_CONTEXT ( 'NONE', 'WORKASPACE' ) );
#78 = VECTOR ( 'NONE', #223, 39.37007874015748143 ) ;
#79 =( NAMED_UNIT ( * ) PLANE_ANGLE_UNIT ( ) SI_UNIT ( $, .RADIAN. ) );
#80 = VERTEX_POINT ( 'NONE', #259 ) ;
#81 = ORIENTED_EDGE ( 'NONE', *, *, #155, .F. ) ;
#82 = ORIENTED_EDGE ( 'NONE', *, *, #203, .F. ) ;
#83 = DIRECTION ( 'NONE',  ( -1.000000000000000000, 0.000000000000000000, 0.000000000000000000 ) ) ;
#84 = ORIENTED_EDGE ( 'NONE', *, *, #198, .T. ) ;
#85 = AXIS2_PLACEMENT_3D ( 'NONE', #15, #260, #241 ) ;
#86 = SURFACE_SIDE_STYLE ('',( #239 ) ) ;
#87 = CARTESIAN_POINT ( 'NONE',  ( -0.3125000000000000555, 3.000000000000000444, 0.000000000000000000 ) ) ;
#88 =( NAMED_UNIT ( * ) PLANE_ANGLE_UNIT ( ) SI_UNIT ( $, .RADIAN. ) );
#89 = DIRECTION ( 'NONE',  ( -1.000000000000000000, 0.000000000000000000, 0.000000000000000000 ) ) ;
#90 = ORIENTED_EDGE ( 'NONE', *, *, #26, .T. ) ;
#91 = MECHANICAL_DESIGN_GEOMETRIC_PRESENTATION_REPRESENTATION (  '', ( #41 ), #44 ) ;
#92 = VERTEX_POINT ( 'NONE', #199 ) ;
#93 = ADVANCED_FACE ( 'NONE', ( #156 ), #115, .F. ) ;
#94 = DIRECTION ( 'NONE',  ( 0.000000000000000000, -0.000000000000000000, 1.000000000000000000 ) ) ;
#95 = SHAPE_DEFINITION_REPRESENTATION ( #18, #166 ) ;
#96 = ADVANCED_FACE ( 'NONE', ( #158 ), #62, .T. ) ;
#97 = DIRECTION ( 'NONE',  ( 1.277530704499805038E-16, -1.000000000000000000, 0.000000000000000000 ) ) ;
#98 = VECTOR ( 'NONE', #195, 39.37007874015748143 ) ;
#99 = VERTEX_POINT ( 'NONE', #146 ) ;
#100 = COLOUR_RGB ( '',0.7921568627450980005, 0.8196078431372548767, 0.9333333333333333481 ) ;
#101 =( GEOMETRIC_REPRESENTATION_CONTEXT ( 3 ) GLOBAL_UNCERTAINTY_ASSIGNED_CONTEXT ( ( #102 ) ) GLOBAL_UNIT_ASSIGNED_CONTEXT ( ( #29, #88, #189 ) ) REPRESENTATION_CONTEXT ( 'NONE', 'WORKASPACE' ) );
#102 = UNCERTAINTY_MEASURE_WITH_UNIT (LENGTH_MEASURE( 1.000000000000000082E-05 ), #29, 'distance_accuracy_value', 'NONE');
#103 = EDGE_CURVE ( 'NONE', #1, #92, #210, .T. ) ;
#104 =( NAMED_UNIT ( * ) SI_UNIT ( $, .STERADIAN. ) SOLID_ANGLE_UNIT ( ) );
#105 = ORIENTED_EDGE ( 'NONE', *, *, #255, .F. ) ;
#106 = APPLICATION_CONTEXT ( 'automotive_design' ) ;
#107 = FACE_OUTER_BOUND ( 'NONE', #139, .T. ) ;
#108 = LENGTH_MEASURE_WITH_UNIT ( LENGTH_MEASURE( 0.02539999999999999897 ), #132 );
#109 = AXIS2_PLACEMENT_3D ( 'NONE', #186, #163, #251 ) ;
#110 = SURFACE_STYLE_FILL_AREA ( #71 ) ;
#111 =( NAMED_UNIT ( * ) SI_UNIT ( $, .STERADIAN. ) SOLID_ANGLE_UNIT ( ) );
#112 =( CONVERSION_BASED_UNIT ( 'INCH', #240 ) LENGTH_UNIT ( ) NAMED_UNIT ( #229 ) );
#113 = EDGE_CURVE ( 'NONE', #80, #3, #208, .T. ) ;
#114 = DIRECTION ( 'NONE',  ( -1.000000000000000000, -1.277530704499805038E-16, 0.000000000000000000 ) ) ;
#115 = PLANE ( 'NONE',  #174 ) ;
#116 =( GEOMETRIC_REPRESENTATION_CONTEXT ( 3 ) GLOBAL_UNCERTAINTY_ASSIGNED_CONTEXT ( ( #236 ) ) GLOBAL_UNIT_ASSIGNED_CONTEXT ( ( #213, #46, #104 ) ) REPRESENTATION_CONTEXT ( 'NONE', 'WORKASPACE' ) );
#117 = ORIENTED_EDGE ( 'NONE', *, *, #26, .F. ) ;
#118 = ORIENTED_EDGE ( 'NONE', *, *, #180, .F. ) ;
#119 = UNCERTAINTY_MEASURE_WITH_UNIT (LENGTH_MEASURE( 1.000000000000000082E-05 ), #124, 'distance_accuracy_value', 'NONE');
#120 = ORIENTED_EDGE ( 'NONE', *, *, #113, .F. ) ;
#121 = LENGTH_MEASURE_WITH_UNIT ( LENGTH_MEASURE( 0.02539999999999999897 ), #140 );
#122 = ADVANCED_FACE ( 'NONE', ( #234 ), #246, .T. ) ;
#123 = STYLED_ITEM ( 'NONE', ( #152 ), #96 ) ;
#124 =( CONVERSION_BASED_UNIT ( 'INCH', #42 ) LENGTH_UNIT ( ) NAMED_UNIT ( #204 ) );
#125 = CARTESIAN_POINT ( 'NONE',  ( 0.000000000000000000, 0.000000000000000000, 0.000000000000000000 ) ) ;
#126 = CYLINDRICAL_SURFACE ( 'NONE', #109, 0.3124999999999998890 ) ;
#127 = SURFACE_SIDE_STYLE ('',( #48 ) ) ;
#128 = CLOSED_SHELL ( 'NONE', ( #250, #40, #217, #93 ) ) ;
#129 = PLANE ( 'NONE',  #245 ) ;
#130 = AXIS2_PLACEMENT_3D ( 'NONE', #190, #8, #89 ) ;
#131 = SURFACE_SIDE_STYLE ('',( #178 ) ) ;
#132 =( LENGTH_UNIT ( ) NAMED_UNIT ( * ) SI_UNIT ( $, .METRE. ) );
#133 = LINE ( 'NONE', #16, #137 ) ;
#134 = CARTESIAN_POINT ( 'NONE',  ( 0.3124999999999998335, 3.000000000000000444, 3.827021247335477078E-17 ) ) ;
#135 = MECHANICAL_DESIGN_GEOMETRIC_PRESENTATION_REPRESENTATION (  '', ( #226 ), #116 ) ;
#136 = VECTOR ( 'NONE', #185, 39.37007874015748143 ) ;
#137 = VECTOR ( 'NONE', #261, 39.37007874015748143 ) ;
#138 = SURFACE_STYLE_USAGE ( .BOTH. , #127 ) ;
#139 = EDGE_LOOP ( 'NONE', ( #184, #20, #45, #82 ) ) ;
#140 =( LENGTH_UNIT ( ) NAMED_UNIT ( * ) SI_UNIT ( $, .METRE. ) );
#141 = DIMENSIONAL_EXPONENTS ( 1.000000000000000000, 0.000000000000000000, 0.000000000000000000, 0.000000000000000000, 0.000000000000000000, 0.000000000000000000, 0.000000000000000000 ) ;
#142 = DIRECTION ( 'NONE',  ( -0.000000000000000000, -1.000000000000000000, -0.000000000000000000 ) ) ;
#143 = FILL_AREA_STYLE ('',( #254 ) ) ;
#144 = AXIS2_PLACEMENT_3D ( 'NONE', #64, #147, #25 ) ;
#145 = SURFACE_STYLE_FILL_AREA ( #170 ) ;
#146 = CARTESIAN_POINT ( 'NONE',  ( 0.000000000000000000, 0.5412658773652724298, 0.3124999999999998890 ) ) ;
#147 = DIRECTION ( 'NONE',  ( -1.277530704499805038E-16, 1.000000000000000000, -0.000000000000000000 ) ) ;
#148 = PRESENTATION_STYLE_ASSIGNMENT (( #7 ) ) ;
#149 =( NAMED_UNIT ( * ) SI_UNIT ( $, .STERADIAN. ) SOLID_ANGLE_UNIT ( ) );
#150 = EDGE_CURVE ( 'NONE', #3, #1, #258, .T. ) ;
#151 = LINE ( 'NONE', #125, #136 ) ;
#152 = PRESENTATION_STYLE_ASSIGNMENT (( #242 ) ) ;
#153 = PRODUCT_CONTEXT ( 'NONE', #106, 'mechanical' ) ;
#154 = PRESENTATION_LAYER_ASSIGNMENT (  '', '', ( #5 ) ) ;
#155 = EDGE_CURVE ( 'NONE', #6, #99, #256, .T. ) ;
#156 = FACE_OUTER_BOUND ( 'NONE', #28, .T. ) ;
#157 = CIRCLE ( 'NONE', #130, 0.3125000000000000000 ) ;
#158 = FACE_OUTER_BOUND ( 'NONE', #206, .T. ) ;
#159 = MECHANICAL_DESIGN_GEOMETRIC_PRESENTATION_REPRESENTATION (  '', ( #123 ), #59 ) ;
#160 = PRODUCT ( '84781', '84781', '', ( #153 ) ) ;
#161 =( NAMED_UNIT ( * ) SI_UNIT ( $, .STERADIAN. ) SOLID_ANGLE_UNIT ( ) );
#162 = EDGE_LOOP ( 'NONE', ( #168, #90, #247 ) ) ;
#163 = DIRECTION ( 'NONE',  ( -1.277530704499805038E-16, 1.000000000000000000, -0.000000000000000000 ) ) ;
#164 = APPLICATION_CONTEXT ( 'automotive_design' ) ;
#165 = DIRECTION ( 'NONE',  ( 0.000000000000000000, 0.000000000000000000, 1.000000000000000000 ) ) ;
#166 = ADVANCED_BREP_SHAPE_REPRESENTATION ( '84781', ( #207, #32, #248 ), #77 ) ;
#167 = COLOUR_RGB ( '',1.000000000000000000, 0.000000000000000000, 0.000000000000000000 ) ;
#168 = ORIENTED_EDGE ( 'NONE', *, *, #43, .F. ) ;
#169 =( CONVERSION_BASED_UNIT ( 'INCH', #9 ) LENGTH_UNIT ( ) NAMED_UNIT ( #243 ) );
#170 = FILL_AREA_STYLE ('',( #225 ) ) ;
#171 = FILL_AREA_STYLE_COLOUR ( '', #264 ) ;
#172 = CYLINDRICAL_SURFACE ( 'NONE', #192, 0.3124999999999998890 ) ;
#173 =( NAMED_UNIT ( * ) PLANE_ANGLE_UNIT ( ) SI_UNIT ( $, .RADIAN. ) );
#174 = AXIS2_PLACEMENT_3D ( 'NONE', #177, #97, #262 ) ;
#175 =( CONVERSION_BASED_UNIT ( 'INCH', #214 ) LENGTH_UNIT ( ) NAMED_UNIT ( #74 ) );
#176 = ORIENTED_EDGE ( 'NONE', *, *, #103, .T. ) ;
#177 = CARTESIAN_POINT ( 'NONE',  ( 0.3124999999999999445, 3.000000000000000444, 0.000000000000000000 ) ) ;
#178 = SURFACE_STYLE_FILL_AREA ( #17 ) ;
#179 = ORIENTED_EDGE ( 'NONE', *, *, #180, .T. ) ;
#180 = EDGE_CURVE ( 'NONE', #3, #80, #36, .T. ) ;
#181 = UNCERTAINTY_MEASURE_WITH_UNIT (LENGTH_MEASURE( 1.000000000000000082E-05 ), #112, 'distance_accuracy_value', 'NONE');
#182 = SURFACE_STYLE_USAGE ( .BOTH. , #205 ) ;
#183 = DIRECTION ( 'NONE',  ( 0.000000000000000000, 0.000000000000000000, -1.000000000000000000 ) ) ;
#184 = ORIENTED_EDGE ( 'NONE', *, *, #198, .F. ) ;
#185 = DIRECTION ( 'NONE',  ( 0.000000000000000000, 0.8660254037844380415, 0.5000000000000009992 ) ) ;
#186 = CARTESIAN_POINT ( 'NONE',  ( -6.123233995736772199E-17, 3.000000000000000444, 0.000000000000000000 ) ) ;
#187 = CLOSED_SHELL ( 'NONE', ( #96, #122, #263 ) ) ;
#188 = EDGE_LOOP ( 'NONE', ( #105, #81 ) ) ;
#189 =( NAMED_UNIT ( * ) SI_UNIT ( $, .STERADIAN. ) SOLID_ANGLE_UNIT ( ) );
#190 = CARTESIAN_POINT ( 'NONE',  ( -6.123233995736770966E-17, 3.000000000000000444, 0.000000000000000000 ) ) ;
#191 = DIRECTION ( 'NONE',  ( 0.000000000000000000, 1.000000000000000000, 0.000000000000000000 ) ) ;
#192 = AXIS2_PLACEMENT_3D ( 'NONE', #253, #66, #83 ) ;
#193 = AXIS2_PLACEMENT_3D ( 'NONE', #70, #13, #94 ) ;
#194 = DIRECTION ( 'NONE',  ( 1.000000000000000000, 0.000000000000000000, 0.000000000000000000 ) ) ;
#195 = DIRECTION ( 'NONE',  ( -1.277530704499805038E-16, 1.000000000000000000, -0.000000000000000000 ) ) ;
#196 = DIRECTION ( 'NONE',  ( 0.000000000000000000, 0.000000000000000000, -1.000000000000000000 ) ) ;
#197 = CARTESIAN_POINT ( 'NONE',  ( 2.528784936293576816E-16, 0.5412658773652725408, 0.000000000000000000 ) ) ;
#198 = EDGE_CURVE ( 'NONE', #80, #92, #56, .T. ) ;
#199 = CARTESIAN_POINT ( 'NONE',  ( 0.3124999999999999445, 3.000000000000000444, 3.827021247335477694E-17 ) ) ;
#200 = FILL_AREA_STYLE_COLOUR ( '', #54 ) ;
#201 = AXIS2_PLACEMENT_3D ( 'NONE', #14, #72, #196 ) ;
#202 = VERTEX_POINT ( 'NONE', #37 ) ;
#203 = EDGE_CURVE ( 'NONE', #92, #1, #157, .T. ) ;
#204 = DIMENSIONAL_EXPONENTS ( 1.000000000000000000, 0.000000000000000000, 0.000000000000000000, 0.000000000000000000, 0.000000000000000000, 0.000000000000000000, 0.000000000000000000 ) ;
#205 = SURFACE_SIDE_STYLE ('',( #145 ) ) ;
#206 = EDGE_LOOP ( 'NONE', ( #117, #211, #2 ) ) ;
#207 = MANIFOLD_SOLID_BREP ( 'Revolve - Cutting Edge', #187 ) ;
#208 = CIRCLE ( 'NONE', #144, 0.3124999999999996669 ) ;
#209 = PRESENTATION_LAYER_ASSIGNMENT (  '', '', ( #58 ) ) ;
#210 = CIRCLE ( 'NONE', #252, 0.3125000000000000000 ) ;
#211 = ORIENTED_EDGE ( 'NONE', *, *, #43, .T. ) ;
#212 = ORIENTED_EDGE ( 'NONE', *, *, #150, .F. ) ;
#213 =( CONVERSION_BASED_UNIT ( 'INCH', #121 ) LENGTH_UNIT ( ) NAMED_UNIT ( #38 ) );
#214 = LENGTH_MEASURE_WITH_UNIT ( LENGTH_MEASURE( 0.02539999999999999897 ), #10 );
#215 =( LENGTH_UNIT ( ) NAMED_UNIT ( * ) SI_UNIT ( $, .METRE. ) );
#216 = CARTESIAN_POINT ( 'NONE',  ( 3.827021247335477078E-17, 0.5412658773652724298, -0.3124999999999998890 ) ) ;
#217 = ADVANCED_FACE ( 'NONE', ( #107 ), #172, .T. ) ;
#218 = SURFACE_STYLE_USAGE ( .BOTH. , #86 ) ;
#219 = AXIS2_PLACEMENT_3D ( 'NONE', #60, #27, #165 ) ;
#220 = CARTESIAN_POINT ( 'NONE',  ( 0.000000000000000000, 0.000000000000000000, 0.000000000000000000 ) ) ;
#221 = CARTESIAN_POINT ( 'NONE',  ( -0.3124999999999999445, 3.000000000000000444, 0.000000000000000000 ) ) ;
#222 =( LENGTH_UNIT ( ) NAMED_UNIT ( * ) SI_UNIT ( $, .METRE. ) );
#223 = DIRECTION ( 'NONE',  ( -1.277530704499805038E-16, 1.000000000000000000, -0.000000000000000000 ) ) ;
#224 = AXIS2_PLACEMENT_3D ( 'NONE', #31, #191, #12 ) ;
#225 = FILL_AREA_STYLE_COLOUR ( '', #100 ) ;
#226 = STYLED_ITEM ( 'NONE', ( #24 ), #207 ) ;
#227 = ORIENTED_EDGE ( 'NONE', *, *, #203, .T. ) ;
#228 = EDGE_LOOP ( 'NONE', ( #118, #120 ) ) ;
#229 = DIMENSIONAL_EXPONENTS ( 1.000000000000000000, 0.000000000000000000, 0.000000000000000000, 0.000000000000000000, 0.000000000000000000, 0.000000000000000000, 0.000000000000000000 ) ;
#230 = FACE_OUTER_BOUND ( 'NONE', #162, .T. ) ;
#231 = PRODUCT_DEFINITION ( 'UNKNOWN', '', #63, #249 ) ;
#232 = PRESENTATION_STYLE_ASSIGNMENT (( #138 ) ) ;
#233 = AXIS2_PLACEMENT_3D ( 'NONE', #61, #142, #183 ) ;
#234 = FACE_OUTER_BOUND ( 'NONE', #188, .T. ) ;
#235 = FACE_OUTER_BOUND ( 'NONE', #65, .T. ) ;
#236 = UNCERTAINTY_MEASURE_WITH_UNIT (LENGTH_MEASURE( 1.000000000000000082E-05 ), #213, 'distance_accuracy_value', 'NONE');
#237 = DIRECTION ( 'NONE',  ( -1.000000000000000000, 0.000000000000000000, 0.000000000000000000 ) ) ;
#238 = CARTESIAN_POINT ( 'NONE',  ( -0.3124999999999993894, 0.5412658773652723188, 0.000000000000000000 ) ) ;
#239 = SURFACE_STYLE_FILL_AREA ( #257 ) ;
#240 = LENGTH_MEASURE_WITH_UNIT ( LENGTH_MEASURE( 0.02539999999999999897 ), #222 );
#241 = DIRECTION ( 'NONE',  ( -1.000000000000000000, -2.185478394931412793E-16, 0.000000000000000000 ) ) ;
#242 = SURFACE_STYLE_USAGE ( .BOTH. , #131 ) ;
#243 = DIMENSIONAL_EXPONENTS ( 1.000000000000000000, 0.000000000000000000, 0.000000000000000000, 0.000000000000000000, 0.000000000000000000, 0.000000000000000000, 0.000000000000000000 ) ;
#244 = PRESENTATION_LAYER_ASSIGNMENT (  '', '', ( #123 ) ) ;
#245 = AXIS2_PLACEMENT_3D ( 'NONE', #197, #73, #114 ) ;
#246 = PLANE ( 'NONE',  #193 ) ;
#247 = ORIENTED_EDGE ( 'NONE', *, *, #255, .T. ) ;
#248 = AXIS2_PLACEMENT_3D ( 'NONE', #220, #35, #194 ) ;
#249 = PRODUCT_DEFINITION_CONTEXT ( 'detailed design', #164, 'design' ) ;
#250 = ADVANCED_FACE ( 'NONE', ( #235 ), #126, .T. ) ;
#251 = DIRECTION ( 'NONE',  ( -1.000000000000000000, 0.000000000000000000, 0.000000000000000000 ) ) ;
#252 = AXIS2_PLACEMENT_3D ( 'NONE', #47, #4, #237 ) ;
#253 = CARTESIAN_POINT ( 'NONE',  ( -6.123233995736772199E-17, 3.000000000000000444, 0.000000000000000000 ) ) ;
#254 = FILL_AREA_STYLE_COLOUR ( '', #167 ) ;
#255 = EDGE_CURVE ( 'NONE', #99, #6, #76, .T. ) ;
#256 = CIRCLE ( 'NONE', #201, 0.3124999999999999445 ) ;
#257 = FILL_AREA_STYLE ('',( #69 ) ) ;
#258 = LINE ( 'NONE', #221, #98 ) ;
#259 = CARTESIAN_POINT ( 'NONE',  ( 0.3124999999999999445, 0.5412658773652724298, 3.827021247335477694E-17 ) ) ;
#260 = DIRECTION ( 'NONE',  ( -1.277530704499805038E-16, 1.000000000000000000, -0.000000000000000000 ) ) ;
#261 = DIRECTION ( 'NONE',  ( 6.123233995736778362E-17, 0.8660254037844380415, -0.5000000000000009992 ) ) ;
#262 = DIRECTION ( 'NONE',  ( 1.000000000000000000, 1.277530704499805038E-16, 0.000000000000000000 ) ) ;
#263 = ADVANCED_FACE ( 'NONE', ( #230 ), #67, .T. ) ;
#264 = COLOUR_RGB ( '',1.000000000000000000, 0.000000000000000000, 0.000000000000000000 ) ;
#265 = MECHANICAL_DESIGN_GEOMETRIC_PRESENTATION_REPRESENTATION (  '', ( #58 ), #23 ) ;
ENDSEC;
END-ISO-10303-21;
