ISO-10303-21;
HEADER;
FILE_DESCRIPTION (( 'STEP AP214' ),
    '1' );
FILE_NAME ('Micro_DM-375-490.STEP',
    '2021-09-02T16:05:23',
    ( '' ),
    ( '' ),
    'SwSTEP 2.0',
    'SolidWorks 2020',
    '' );
FILE_SCHEMA (( 'AUTOMOTIVE_DESIGN' ));
ENDSEC;

DATA;
#1 = EDGE_CURVE ( 'NONE', #115, #241, #222, .T. ) ;
#2 = UNCERTAINTY_MEASURE_WITH_UNIT (LENGTH_MEASURE( 1.000000000000000082E-05 ), #229, 'distance_accuracy_value', 'NONE');
#3 = AXIS2_PLACEMENT_3D ( 'NONE', #292, #64, #170 ) ;
#4 = LINE ( 'NONE', #107, #187 ) ;
#5 = ORIENTED_EDGE ( 'NONE', *, *, #145, .F. ) ;
#6 = CARTESIAN_POINT ( 'NONE',  ( 0.1874500000000001443, 2.295600425001715468E-17, 1.000000000000000000 ) ) ;
#7 = ORIENTED_EDGE ( 'NONE', *, *, #34, .F. ) ;
#8 = CIRCLE ( 'NONE', #78, 0.1724999999999995981 ) ;
#9 = DIRECTION ( 'NONE',  ( 1.000000000000000000, 0.0000000000000000000, 0.0000000000000000000 ) ) ;
#10 = DIRECTION ( 'NONE',  ( -1.000000000000000000, 0.0000000000000000000, 0.0000000000000000000 ) ) ;
#11 = VERTEX_POINT ( 'NONE', #248 ) ;
#12 = DIRECTION ( 'NONE',  ( 0.0000000000000000000, 0.0000000000000000000, 1.000000000000000000 ) ) ;
#13 = CARTESIAN_POINT ( 'NONE',  ( -0.1875000000000000278, 0.0000000000000000000, 2.500000000000000000 ) ) ;
#14 = LENGTH_MEASURE_WITH_UNIT ( LENGTH_MEASURE( 0.02539999999999999897 ), #44 );
#15 = CIRCLE ( 'NONE', #298, 0.1875000000000000278 ) ;
#16 = EDGE_CURVE ( 'NONE', #38, #11, #43, .T. ) ;
#17 = FACE_OUTER_BOUND ( 'NONE', #188, .T. ) ;
#18 = CARTESIAN_POINT ( 'NONE',  ( 0.0000000000000000000, 0.0000000000000000000, 2.500000000000000000 ) ) ;
#19 = FACE_OUTER_BOUND ( 'NONE', #236, .T. ) ;
#20 = DIRECTION ( 'NONE',  ( -0.0000000000000000000, -0.0000000000000000000, -1.000000000000000000 ) ) ;
#21 = DIRECTION ( 'NONE',  ( -1.000000000000000000, 0.0000000000000000000, 0.0000000000000000000 ) ) ;
#22 =( NAMED_UNIT ( * ) PLANE_ANGLE_UNIT ( ) SI_UNIT ( $, .RADIAN. ) );
#23 = AXIS2_PLACEMENT_3D ( 'NONE', #250, #175, #71 ) ;
#24 = MECHANICAL_DESIGN_GEOMETRIC_PRESENTATION_REPRESENTATION (  '', ( #329 ), #286 ) ;
#25 = PRODUCT_DEFINITION_CONTEXT ( 'detailed design', #66, 'design' ) ;
#26 = CIRCLE ( 'NONE', #304, 0.1875000000000000278 ) ;
#27 = PRODUCT_DEFINITION ( 'UNKNOWN', '', #144, #25 ) ;
#28 = VERTEX_POINT ( 'NONE', #205 ) ;
#29 = DIRECTION ( 'NONE',  ( 1.000000000000000000, 0.0000000000000000000, 0.0000000000000000000 ) ) ;
#30 = ORIENTED_EDGE ( 'NONE', *, *, #230, .T. ) ;
#31 = CYLINDRICAL_SURFACE ( 'NONE', #306, 0.1875000000000000278 ) ;
#32 = ORIENTED_EDGE ( 'NONE', *, *, #294, .F. ) ;
#33 = DIRECTION ( 'NONE',  ( -1.000000000000000000, 0.0000000000000000000, 0.0000000000000000000 ) ) ;
#34 = EDGE_CURVE ( 'NONE', #185, #163, #232, .T. ) ;
#35 = ORIENTED_EDGE ( 'NONE', *, *, #1, .F. ) ;
#36 = MECHANICAL_DESIGN_GEOMETRIC_PRESENTATION_REPRESENTATION (  '', ( #110 ), #207 ) ;
#37 = DIRECTION ( 'NONE',  ( -1.000000000000000000, 0.0000000000000000000, 0.0000000000000000000 ) ) ;
#38 = VERTEX_POINT ( 'NONE', #297 ) ;
#39 = CARTESIAN_POINT ( 'NONE',  ( -0.1724999999999995981, 0.0000000000000000000, 2.500000000000000000 ) ) ;
#40 = CARTESIAN_POINT ( 'NONE',  ( 0.0000000000000000000, 0.0000000000000000000, 1.000000000000000000 ) ) ;
#41 = ADVANCED_FACE ( 'NONE', ( #17 ), #93, .T. ) ;
#42 = LINE ( 'NONE', #73, #233 ) ;
#43 = LINE ( 'NONE', #119, #127 ) ;
#44 =( LENGTH_UNIT ( ) NAMED_UNIT ( * ) SI_UNIT ( $, .METRE. ) );
#45 = ORIENTED_EDGE ( 'NONE', *, *, #305, .F. ) ;
#46 = LINE ( 'NONE', #72, #254 ) ;
#47 =( NAMED_UNIT ( * ) SI_UNIT ( $, .STERADIAN. ) SOLID_ANGLE_UNIT ( ) );
#48 = ADVANCED_FACE ( 'NONE', ( #146 ), #226, .F. ) ;
#49 = DIRECTION ( 'NONE',  ( 1.000000000000000000, 0.0000000000000000000, 0.0000000000000000000 ) ) ;
#50 = SHAPE_DEFINITION_REPRESENTATION ( #178, #55 ) ;
#51 = AXIS2_PLACEMENT_3D ( 'NONE', #273, #200, #327 ) ;
#52 = DIRECTION ( 'NONE',  ( -1.000000000000000000, 0.0000000000000000000, 0.0000000000000000000 ) ) ;
#53 = CONICAL_SURFACE ( 'NONE', #274, 0.007499999999999999722, 0.7853981633974501664 ) ;
#54 = EDGE_LOOP ( 'NONE', ( #190, #268 ) ) ;
#55 = ADVANCED_BREP_SHAPE_REPRESENTATION ( 'Micro_DM-375-490', ( #137, #275 ), #104 ) ;
#56 = DIRECTION ( 'NONE',  ( -0.7071067811865487940, 8.659560562354948882E-17, 0.7071067811865462405 ) ) ;
#57 = ORIENTED_EDGE ( 'NONE', *, *, #34, .T. ) ;
#58 = ADVANCED_FACE ( 'NONE', ( #202, #65 ), #124, .T. ) ;
#59 = CARTESIAN_POINT ( 'NONE',  ( 0.0000000000000000000, 0.0000000000000000000, 1.707404996040164512E-17 ) ) ;
#60 = ORIENTED_EDGE ( 'NONE', *, *, #196, .F. ) ;
#61 = CARTESIAN_POINT ( 'NONE',  ( 0.0000000000000000000, 0.0000000000000000000, 2.500000000000000000 ) ) ;
#62 = ORIENTED_EDGE ( 'NONE', *, *, #227, .T. ) ;
#63 = CONICAL_SURFACE ( 'NONE', #3, 0.007499999999999999722, 0.7853981633974501664 ) ;
#64 = DIRECTION ( 'NONE',  ( 0.0000000000000000000, 0.0000000000000000000, 1.000000000000000000 ) ) ;
#65 = FACE_OUTER_BOUND ( 'NONE', #54, .T. ) ;
#66 = APPLICATION_CONTEXT ( 'automotive_design' ) ;
#67 = SURFACE_STYLE_USAGE ( .BOTH. , #295 ) ;
#68 = CARTESIAN_POINT ( 'NONE',  ( 0.0000000000000000000, 0.0000000000000000000, 0.0000000000000000000 ) ) ;
#69 = FILL_AREA_STYLE_COLOUR ( '', #142 ) ;
#70 = AXIS2_PLACEMENT_3D ( 'NONE', #59, #186, #33 ) ;
#71 = DIRECTION ( 'NONE',  ( -1.000000000000000000, 0.0000000000000000000, 0.0000000000000000000 ) ) ;
#72 = CARTESIAN_POINT ( 'NONE',  ( 0.1724999999999995981, 2.112515728529179297E-17, 2.500000000000000000 ) ) ;
#73 = CARTESIAN_POINT ( 'NONE',  ( -0.1724999999999995981, 0.0000000000000000000, 2.500000000000000000 ) ) ;
#74 = EDGE_CURVE ( 'NONE', #241, #118, #15, .T. ) ;
#75 = AXIS2_PLACEMENT_3D ( 'NONE', #317, #83, #109 ) ;
#76 = ORIENTED_EDGE ( 'NONE', *, *, #196, .T. ) ;
#77 = CARTESIAN_POINT ( 'NONE',  ( 0.0000000000000000000, 0.0000000000000000000, 2.500000000000000000 ) ) ;
#78 = AXIS2_PLACEMENT_3D ( 'NONE', #260, #242, #29 ) ;
#79 = ADVANCED_FACE ( 'NONE', ( #19 ), #53, .T. ) ;
#80 = ORIENTED_EDGE ( 'NONE', *, *, #244, .F. ) ;
#81 = CARTESIAN_POINT ( 'NONE',  ( 0.1875000000000000278, 2.296212748401287726E-17, 2.484999999999999432 ) ) ;
#82 = VERTEX_POINT ( 'NONE', #177 ) ;
#83 = DIRECTION ( 'NONE',  ( -0.0000000000000000000, -0.0000000000000000000, -1.000000000000000000 ) ) ;
#84 = ORIENTED_EDGE ( 'NONE', *, *, #16, .F. ) ;
#85 = CARTESIAN_POINT ( 'NONE',  ( -0.1875000000000000278, 0.0000000000000000000, 1.000000000000000000 ) ) ;
#86 = ORIENTED_EDGE ( 'NONE', *, *, #244, .T. ) ;
#87 = CIRCLE ( 'NONE', #258, 0.1874500000000000055 ) ;
#88 = DIRECTION ( 'NONE',  ( -0.0000000000000000000, -0.0000000000000000000, -1.000000000000000000 ) ) ;
#89 = EDGE_CURVE ( 'NONE', #163, #185, #282, .T. ) ;
#90 = FILL_AREA_STYLE ('',( #140 ) ) ;
#91 = LENGTH_MEASURE_WITH_UNIT ( LENGTH_MEASURE( 0.02539999999999999897 ), #176 );
#92 = APPLICATION_CONTEXT ( 'automotive_design' ) ;
#93 = CYLINDRICAL_SURFACE ( 'NONE', #293, 0.1875000000000000278 ) ;
#94 = CARTESIAN_POINT ( 'NONE',  ( 0.1875000000000000278, 2.296212748401287726E-17, 2.500000000000000000 ) ) ;
#95 = DIRECTION ( 'NONE',  ( -0.0000000000000000000, -0.0000000000000000000, -1.000000000000000000 ) ) ;
#96 = EDGE_CURVE ( 'NONE', #288, #147, #46, .T. ) ;
#97 = PRESENTATION_STYLE_ASSIGNMENT (( #256 ) ) ;
#98 = CARTESIAN_POINT ( 'NONE',  ( 0.0000000000000000000, 0.0000000000000000000, 1.707404996040164512E-17 ) ) ;
#99 = PRODUCT_CONTEXT ( 'NONE', #92, 'mechanical' ) ;
#100 = DIRECTION ( 'NONE',  ( 0.0000000000000000000, 0.0000000000000000000, -1.000000000000000000 ) ) ;
#101 = EDGE_CURVE ( 'NONE', #115, #147, #26, .T. ) ;
#102 =( CONVERSION_BASED_UNIT ( 'INCH', #154 ) LENGTH_UNIT ( ) NAMED_UNIT ( #225 ) );
#103 = AXIS2_PLACEMENT_3D ( 'NONE', #68, #300, #299 ) ;
#104 =( GEOMETRIC_REPRESENTATION_CONTEXT ( 3 ) GLOBAL_UNCERTAINTY_ASSIGNED_CONTEXT ( ( #281 ) ) GLOBAL_UNIT_ASSIGNED_CONTEXT ( ( #203, #296, #180 ) ) REPRESENTATION_CONTEXT ( 'NONE', 'WORKASPACE' ) );
#105 = ADVANCED_FACE ( 'NONE', ( #326 ), #208, .T. ) ;
#106 = ORIENTED_EDGE ( 'NONE', *, *, #227, .F. ) ;
#107 = CARTESIAN_POINT ( 'NONE',  ( 0.1874500000000000610, 2.295600425001714235E-17, 0.0000000000000000000 ) ) ;
#108 = ORIENTED_EDGE ( 'NONE', *, *, #1, .T. ) ;
#109 = DIRECTION ( 'NONE',  ( -1.000000000000000000, 0.0000000000000000000, 0.0000000000000000000 ) ) ;
#110 = STYLED_ITEM ( 'NONE', ( #272 ), #137 ) ;
#111 = ORIENTED_EDGE ( 'NONE', *, *, #231, .T. ) ;
#112 = CARTESIAN_POINT ( 'NONE',  ( 0.0000000000000000000, 0.0000000000000000000, 2.484999999999999432 ) ) ;
#113 = ORIENTED_EDGE ( 'NONE', *, *, #182, .T. ) ;
#114 = DIRECTION ( 'NONE',  ( 0.0000000000000000000, 0.0000000000000000000, -1.000000000000000000 ) ) ;
#115 = VERTEX_POINT ( 'NONE', #171 ) ;
#116 =( NAMED_UNIT ( * ) SI_UNIT ( $, .STERADIAN. ) SOLID_ANGLE_UNIT ( ) );
#117 = AXIS2_PLACEMENT_3D ( 'NONE', #112, #114, #218 ) ;
#118 = VERTEX_POINT ( 'NONE', #271 ) ;
#119 = CARTESIAN_POINT ( 'NONE',  ( 0.007499999999999999722, 0.0000000000000000000, 1.707404996040164512E-17 ) ) ;
#120 = DIRECTION ( 'NONE',  ( 0.0000000000000000000, 0.0000000000000000000, 1.000000000000000000 ) ) ;
#121 = DIRECTION ( 'NONE',  ( -0.0000000000000000000, -0.0000000000000000000, -1.000000000000000000 ) ) ;
#122 = DIRECTION ( 'NONE',  ( 0.0000000000000000000, 0.0000000000000000000, 1.000000000000000000 ) ) ;
#123 = VECTOR ( 'NONE', #252, 39.37007874015748143 ) ;
#124 = PLANE ( 'NONE',  #23 ) ;
#125 = DIRECTION ( 'NONE',  ( -0.7071067811865385799, 0.0000000000000000000, -0.7071067811865563435 ) ) ;
#126 = CONICAL_SURFACE ( 'NONE', #267, 0.1724999999999995981, 0.7853981633974357335 ) ;
#127 = VECTOR ( 'NONE', #321, 39.37007874015748143 ) ;
#128 = ORIENTED_EDGE ( 'NONE', *, *, #16, .T. ) ;
#129 = LINE ( 'NONE', #309, #181 ) ;
#130 = ORIENTED_EDGE ( 'NONE', *, *, #231, .F. ) ;
#131 = DIRECTION ( 'NONE',  ( -0.0000000000000000000, -0.0000000000000000000, -1.000000000000000000 ) ) ;
#132 = ORIENTED_EDGE ( 'NONE', *, *, #284, .F. ) ;
#133 = LINE ( 'NONE', #136, #183 ) ;
#134 = AXIS2_PLACEMENT_3D ( 'NONE', #277, #278, #243 ) ;
#135 = ORIENTED_EDGE ( 'NONE', *, *, #328, .F. ) ;
#136 = CARTESIAN_POINT ( 'NONE',  ( -0.1874500000000000610, 0.0000000000000000000, 0.0000000000000000000 ) ) ;
#137 = MANIFOLD_SOLID_BREP ( 'Cut-Revolve4', #253 ) ;
#138 = EDGE_LOOP ( 'NONE', ( #132, #308, #192, #135 ) ) ;
#139 = CYLINDRICAL_SURFACE ( 'NONE', #194, 0.1874500000000000610 ) ;
#140 = FILL_AREA_STYLE_COLOUR ( '', #152 ) ;
#141 = SURFACE_STYLE_FILL_AREA ( #320 ) ;
#142 = COLOUR_RGB ( '',0.7921568627450980005, 0.8196078431372548767, 0.9333333333333333481 ) ;
#143 = ORIENTED_EDGE ( 'NONE', *, *, #89, .F. ) ;
#144 = PRODUCT_DEFINITION_FORMATION_WITH_SPECIFIED_SOURCE ( 'ANY', '', #212, .NOT_KNOWN. ) ;
#145 = EDGE_CURVE ( 'NONE', #118, #241, #323, .T. ) ;
#146 = FACE_OUTER_BOUND ( 'NONE', #261, .T. ) ;
#147 = VERTEX_POINT ( 'NONE', #81 ) ;
#148 = CARTESIAN_POINT ( 'NONE',  ( 0.0000000000000000000, 0.0000000000000000000, 0.0000000000000000000 ) ) ;
#149 = CARTESIAN_POINT ( 'NONE',  ( 0.0000000000000000000, 0.0000000000000000000, 2.500000000000000000 ) ) ;
#150 = VECTOR ( 'NONE', #95, 39.37007874015748143 ) ;
#151 = DIRECTION ( 'NONE',  ( -0.0000000000000000000, -0.0000000000000000000, -1.000000000000000000 ) ) ;
#152 = COLOUR_RGB ( '',0.7921568627450980005, 0.8196078431372548767, 0.9333333333333333481 ) ;
#153 = DIMENSIONAL_EXPONENTS ( 1.000000000000000000, 0.0000000000000000000, 0.0000000000000000000, 0.0000000000000000000, 0.0000000000000000000, 0.0000000000000000000, 0.0000000000000000000 ) ;
#154 = LENGTH_MEASURE_WITH_UNIT ( LENGTH_MEASURE( 0.02539999999999999897 ), #302 );
#155 = CIRCLE ( 'NONE', #318, 0.1724999999999995981 ) ;
#156 = UNCERTAINTY_MEASURE_WITH_UNIT (LENGTH_MEASURE( 1.000000000000000082E-05 ), #102, 'distance_accuracy_value', 'NONE');
#157 = ADVANCED_FACE ( 'NONE', ( #214 ), #217, .T. ) ;
#158 = EDGE_LOOP ( 'NONE', ( #316, #106, #237, #210 ) ) ;
#159 = DIRECTION ( 'NONE',  ( -0.0000000000000000000, -0.0000000000000000000, -1.000000000000000000 ) ) ;
#160 = PRESENTATION_LAYER_ASSIGNMENT (  '', '', ( #110 ) ) ;
#161 = ORIENTED_EDGE ( 'NONE', *, *, #209, .F. ) ;
#162 = FACE_OUTER_BOUND ( 'NONE', #234, .T. ) ;
#163 = VERTEX_POINT ( 'NONE', #166 ) ;
#164 = CARTESIAN_POINT ( 'NONE',  ( 0.0000000000000000000, 0.0000000000000000000, 0.0000000000000000000 ) ) ;
#165 = VERTEX_POINT ( 'NONE', #39 ) ;
#166 = CARTESIAN_POINT ( 'NONE',  ( -0.1874500000000001443, 0.0000000000000000000, 1.000000000000000000 ) ) ;
#167 = ADVANCED_FACE ( 'NONE', ( #266 ), #126, .T. ) ;
#168 = CIRCLE ( 'NONE', #51, 0.1874500000000000055 ) ;
#169 = ORIENTED_EDGE ( 'NONE', *, *, #284, .T. ) ;
#170 = DIRECTION ( 'NONE',  ( 1.000000000000000000, 0.0000000000000000000, 0.0000000000000000000 ) ) ;
#171 = CARTESIAN_POINT ( 'NONE',  ( -0.1875000000000000278, 0.0000000000000000000, 2.484999999999999432 ) ) ;
#172 = CARTESIAN_POINT ( 'NONE',  ( 0.0000000000000000000, 0.0000000000000000000, 2.484999999999999432 ) ) ;
#173 = LINE ( 'NONE', #94, #123 ) ;
#174 = AXIS2_PLACEMENT_3D ( 'NONE', #164, #193, #37 ) ;
#175 = DIRECTION ( 'NONE',  ( -0.0000000000000000000, 0.0000000000000000000, -1.000000000000000000 ) ) ;
#176 =( LENGTH_UNIT ( ) NAMED_UNIT ( * ) SI_UNIT ( $, .METRE. ) );
#177 = CARTESIAN_POINT ( 'NONE',  ( -0.007499999999999999722, 1.193724467468882453E-17, 1.707404996040164512E-17 ) ) ;
#178 = PRODUCT_DEFINITION_SHAPE ( 'NONE', 'NONE',  #27 ) ;
#179 = DIRECTION ( 'NONE',  ( 0.7071067811865385799, 8.659560562354823157E-17, -0.7071067811865563435 ) ) ;
#180 =( NAMED_UNIT ( * ) SI_UNIT ( $, .STERADIAN. ) SOLID_ANGLE_UNIT ( ) );
#181 = VECTOR ( 'NONE', #56, 39.37007874015748143 ) ;
#182 = EDGE_CURVE ( 'NONE', #38, #82, #201, .T. ) ;
#183 = VECTOR ( 'NONE', #159, 39.37007874015748143 ) ;
#184 = ADVANCED_FACE ( 'NONE', ( #220 ), #240, .T. ) ;
#185 = VERTEX_POINT ( 'NONE', #6 ) ;
#186 = DIRECTION ( 'NONE',  ( -0.0000000000000000000, -0.0000000000000000000, -1.000000000000000000 ) ) ;
#187 = VECTOR ( 'NONE', #88, 39.37007874015748143 ) ;
#188 = EDGE_LOOP ( 'NONE', ( #45, #30, #108, #5 ) ) ;
#189 = DIRECTION ( 'NONE',  ( 0.0000000000000000000, 0.0000000000000000000, -1.000000000000000000 ) ) ;
#190 = ORIENTED_EDGE ( 'NONE', *, *, #74, .T. ) ;
#191 = DIRECTION ( 'NONE',  ( -1.000000000000000000, 0.0000000000000000000, 0.0000000000000000000 ) ) ;
#192 = ORIENTED_EDGE ( 'NONE', *, *, #101, .F. ) ;
#193 = DIRECTION ( 'NONE',  ( -0.0000000000000000000, -0.0000000000000000000, -1.000000000000000000 ) ) ;
#194 = AXIS2_PLACEMENT_3D ( 'NONE', #287, #283, #52 ) ;
#195 = ORIENTED_EDGE ( 'NONE', *, *, #305, .T. ) ;
#196 = EDGE_CURVE ( 'NONE', #163, #28, #133, .T. ) ;
#197 = SURFACE_STYLE_FILL_AREA ( #90 ) ;
#198 =( NAMED_UNIT ( * ) PLANE_ANGLE_UNIT ( ) SI_UNIT ( $, .RADIAN. ) );
#199 = DIRECTION ( 'NONE',  ( -1.000000000000000000, 0.0000000000000000000, 0.0000000000000000000 ) ) ;
#200 = DIRECTION ( 'NONE',  ( -0.0000000000000000000, -0.0000000000000000000, -1.000000000000000000 ) ) ;
#201 = CIRCLE ( 'NONE', #70, 0.007499999999999999722 ) ;
#202 = FACE_BOUND ( 'NONE', #289, .T. ) ;
#203 =( CONVERSION_BASED_UNIT ( 'INCH', #14 ) LENGTH_UNIT ( ) NAMED_UNIT ( #153 ) );
#204 = CARTESIAN_POINT ( 'NONE',  ( 0.0000000000000000000, 0.0000000000000000000, 2.500000000000000000 ) ) ;
#205 = CARTESIAN_POINT ( 'NONE',  ( -0.1874499999999999778, 2.295600425001713619E-17, 0.1799499999999993327 ) ) ;
#206 = DIMENSIONAL_EXPONENTS ( 1.000000000000000000, 0.0000000000000000000, 0.0000000000000000000, 0.0000000000000000000, 0.0000000000000000000, 0.0000000000000000000, 0.0000000000000000000 ) ;
#207 =( GEOMETRIC_REPRESENTATION_CONTEXT ( 3 ) GLOBAL_UNCERTAINTY_ASSIGNED_CONTEXT ( ( #156 ) ) GLOBAL_UNIT_ASSIGNED_CONTEXT ( ( #102, #22, #116 ) ) REPRESENTATION_CONTEXT ( 'NONE', 'WORKASPACE' ) );
#208 = CONICAL_SURFACE ( 'NONE', #215, 0.1724999999999995981, 0.7853981633974357335 ) ;
#209 = EDGE_CURVE ( 'NONE', #28, #11, #87, .T. ) ;
#210 = ORIENTED_EDGE ( 'NONE', *, *, #230, .F. ) ;
#211 = DIRECTION ( 'NONE',  ( 1.000000000000000000, 0.0000000000000000000, -0.0000000000000000000 ) ) ;
#212 = PRODUCT ( 'Micro_DM-375-490', 'Micro_DM-375-490', '', ( #99 ) ) ;
#213 = EDGE_LOOP ( 'NONE', ( #62, #169 ) ) ;
#214 = FACE_OUTER_BOUND ( 'NONE', #213, .T. ) ;
#215 = AXIS2_PLACEMENT_3D ( 'NONE', #149, #100, #255 ) ;
#216 = ORIENTED_EDGE ( 'NONE', *, *, #74, .F. ) ;
#217 = PLANE ( 'NONE',  #221 ) ;
#218 = DIRECTION ( 'NONE',  ( 1.000000000000000000, 0.0000000000000000000, 0.0000000000000000000 ) ) ;
#219 = ORIENTED_EDGE ( 'NONE', *, *, #209, .T. ) ;
#220 = FACE_OUTER_BOUND ( 'NONE', #311, .T. ) ;
#221 = AXIS2_PLACEMENT_3D ( 'NONE', #61, #12, #211 ) ;
#222 = LINE ( 'NONE', #13, #150 ) ;
#223 = ORIENTED_EDGE ( 'NONE', *, *, #89, .T. ) ;
#224 = DIRECTION ( 'NONE',  ( -1.000000000000000000, 0.0000000000000000000, 0.0000000000000000000 ) ) ;
#225 = DIMENSIONAL_EXPONENTS ( 1.000000000000000000, 0.0000000000000000000, 0.0000000000000000000, 0.0000000000000000000, 0.0000000000000000000, 0.0000000000000000000, 0.0000000000000000000 ) ;
#226 = PLANE ( 'NONE',  #103 ) ;
#227 = EDGE_CURVE ( 'NONE', #165, #288, #155, .T. ) ;
#228 = DIRECTION ( 'NONE',  ( 1.000000000000000000, 0.0000000000000000000, 0.0000000000000000000 ) ) ;
#229 =( CONVERSION_BASED_UNIT ( 'INCH', #91 ) LENGTH_UNIT ( ) NAMED_UNIT ( #206 ) );
#230 = EDGE_CURVE ( 'NONE', #147, #115, #259, .T. ) ;
#231 = EDGE_CURVE ( 'NONE', #82, #38, #239, .T. ) ;
#232 = CIRCLE ( 'NONE', #280, 0.1874500000000001443 ) ;
#233 = VECTOR ( 'NONE', #125, 39.37007874015748854 ) ;
#234 = EDGE_LOOP ( 'NONE', ( #322, #195, #216, #35 ) ) ;
#235 = CARTESIAN_POINT ( 'NONE',  ( 0.1724999999999995981, 2.204364238465233357E-17, 2.500000000000000000 ) ) ;
#236 = EDGE_LOOP ( 'NONE', ( #32, #263, #128, #313 ) ) ;
#237 = ORIENTED_EDGE ( 'NONE', *, *, #328, .T. ) ;
#238 = CARTESIAN_POINT ( 'NONE',  ( 0.0000000000000000000, 0.0000000000000000000, 0.1799499999999993327 ) ) ;
#239 = CIRCLE ( 'NONE', #75, 0.007499999999999999722 ) ;
#240 = CYLINDRICAL_SURFACE ( 'NONE', #174, 0.1874500000000000610 ) ;
#241 = VERTEX_POINT ( 'NONE', #85 ) ;
#242 = DIRECTION ( 'NONE',  ( 0.0000000000000000000, 0.0000000000000000000, 1.000000000000000000 ) ) ;
#243 = DIRECTION ( 'NONE',  ( -1.000000000000000000, 0.0000000000000000000, 0.0000000000000000000 ) ) ;
#244 = EDGE_CURVE ( 'NONE', #185, #11, #4, .T. ) ;
#245 = DIRECTION ( 'NONE',  ( -1.000000000000000000, 0.0000000000000000000, 0.0000000000000000000 ) ) ;
#246 = AXIS2_PLACEMENT_3D ( 'NONE', #40, #290, #264 ) ;
#247 = PRESENTATION_LAYER_ASSIGNMENT (  '', '', ( #329 ) ) ;
#248 = CARTESIAN_POINT ( 'NONE',  ( 0.1874499999999999778, 0.0000000000000000000, 0.1799499999999993327 ) ) ;
#249 = SURFACE_SIDE_STYLE ('',( #141 ) ) ;
#250 = CARTESIAN_POINT ( 'NONE',  ( 0.1874500000000001443, 0.0000000000000000000, 1.000000000000000000 ) ) ;
#251 = CARTESIAN_POINT ( 'NONE',  ( 0.0000000000000000000, 0.0000000000000000000, 1.000000000000000000 ) ) ;
#252 = DIRECTION ( 'NONE',  ( -0.0000000000000000000, -0.0000000000000000000, -1.000000000000000000 ) ) ;
#253 = CLOSED_SHELL ( 'NONE', ( #270, #257, #105, #303, #41, #157, #167, #58, #79, #184, #48 ) ) ;
#254 = VECTOR ( 'NONE', #179, 39.37007874015748854 ) ;
#255 = DIRECTION ( 'NONE',  ( -1.000000000000000000, 0.0000000000000000000, 0.0000000000000000000 ) ) ;
#256 = SURFACE_STYLE_USAGE ( .BOTH. , #249 ) ;
#257 = ADVANCED_FACE ( 'NONE', ( #262 ), #63, .T. ) ;
#258 = AXIS2_PLACEMENT_3D ( 'NONE', #238, #131, #10 ) ;
#259 = CIRCLE ( 'NONE', #117, 0.1875000000000000278 ) ;
#260 = CARTESIAN_POINT ( 'NONE',  ( 0.0000000000000000000, 0.0000000000000000000, 2.500000000000000000 ) ) ;
#261 = EDGE_LOOP ( 'NONE', ( #113, #111 ) ) ;
#262 = FACE_OUTER_BOUND ( 'NONE', #310, .T. ) ;
#263 = ORIENTED_EDGE ( 'NONE', *, *, #182, .F. ) ;
#264 = DIRECTION ( 'NONE',  ( -1.000000000000000000, 0.0000000000000000000, 0.0000000000000000000 ) ) ;
#265 = ORIENTED_EDGE ( 'NONE', *, *, #307, .F. ) ;
#266 = FACE_OUTER_BOUND ( 'NONE', #158, .T. ) ;
#267 = AXIS2_PLACEMENT_3D ( 'NONE', #312, #189, #191 ) ;
#268 = ORIENTED_EDGE ( 'NONE', *, *, #145, .T. ) ;
#269 = FACE_OUTER_BOUND ( 'NONE', #291, .T. ) ;
#270 = ADVANCED_FACE ( 'NONE', ( #269 ), #139, .T. ) ;
#271 = CARTESIAN_POINT ( 'NONE',  ( 0.1875000000000000278, 2.296212748401287726E-17, 1.000000000000000000 ) ) ;
#272 = PRESENTATION_STYLE_ASSIGNMENT (( #67 ) ) ;
#273 = CARTESIAN_POINT ( 'NONE',  ( 0.0000000000000000000, 0.0000000000000000000, 0.1799499999999993327 ) ) ;
#274 = AXIS2_PLACEMENT_3D ( 'NONE', #98, #120, #228 ) ;
#275 = AXIS2_PLACEMENT_3D ( 'NONE', #148, #122, #301 ) ;
#276 = DIRECTION ( 'NONE',  ( -0.0000000000000000000, -0.0000000000000000000, -1.000000000000000000 ) ) ;
#277 = CARTESIAN_POINT ( 'NONE',  ( 0.0000000000000000000, 0.0000000000000000000, 1.000000000000000000 ) ) ;
#278 = DIRECTION ( 'NONE',  ( -0.0000000000000000000, -0.0000000000000000000, -1.000000000000000000 ) ) ;
#279 = APPLICATION_PROTOCOL_DEFINITION ( 'draft international standard', 'automotive_design', 1998, #66 ) ;
#280 = AXIS2_PLACEMENT_3D ( 'NONE', #251, #121, #224 ) ;
#281 = UNCERTAINTY_MEASURE_WITH_UNIT (LENGTH_MEASURE( 1.000000000000000082E-05 ), #203, 'distance_accuracy_value', 'NONE');
#282 = CIRCLE ( 'NONE', #134, 0.1874500000000001443 ) ;
#283 = DIRECTION ( 'NONE',  ( -0.0000000000000000000, -0.0000000000000000000, -1.000000000000000000 ) ) ;
#284 = EDGE_CURVE ( 'NONE', #288, #165, #8, .T. ) ;
#285 = ORIENTED_EDGE ( 'NONE', *, *, #294, .T. ) ;
#286 =( GEOMETRIC_REPRESENTATION_CONTEXT ( 3 ) GLOBAL_UNCERTAINTY_ASSIGNED_CONTEXT ( ( #2 ) ) GLOBAL_UNIT_ASSIGNED_CONTEXT ( ( #229, #198, #47 ) ) REPRESENTATION_CONTEXT ( 'NONE', 'WORKASPACE' ) );
#287 = CARTESIAN_POINT ( 'NONE',  ( 0.0000000000000000000, 0.0000000000000000000, 0.0000000000000000000 ) ) ;
#288 = VERTEX_POINT ( 'NONE', #235 ) ;
#289 = EDGE_LOOP ( 'NONE', ( #143, #7 ) ) ;
#290 = DIRECTION ( 'NONE',  ( -0.0000000000000000000, -0.0000000000000000000, -1.000000000000000000 ) ) ;
#291 = EDGE_LOOP ( 'NONE', ( #223, #86, #161, #60 ) ) ;
#292 = CARTESIAN_POINT ( 'NONE',  ( 0.0000000000000000000, 0.0000000000000000000, 1.707404996040164512E-17 ) ) ;
#293 = AXIS2_PLACEMENT_3D ( 'NONE', #204, #20, #199 ) ;
#294 = EDGE_CURVE ( 'NONE', #82, #28, #129, .T. ) ;
#295 = SURFACE_SIDE_STYLE ('',( #197 ) ) ;
#296 =( NAMED_UNIT ( * ) PLANE_ANGLE_UNIT ( ) SI_UNIT ( $, .RADIAN. ) );
#297 = CARTESIAN_POINT ( 'NONE',  ( 0.007499999999999999722, 0.0000000000000000000, 1.707404996040164512E-17 ) ) ;
#298 = AXIS2_PLACEMENT_3D ( 'NONE', #324, #276, #21 ) ;
#299 = DIRECTION ( 'NONE',  ( 1.000000000000000000, 0.0000000000000000000, -0.0000000000000000000 ) ) ;
#300 = DIRECTION ( 'NONE',  ( 0.0000000000000000000, 0.0000000000000000000, 1.000000000000000000 ) ) ;
#301 = DIRECTION ( 'NONE',  ( 1.000000000000000000, 0.0000000000000000000, 0.0000000000000000000 ) ) ;
#302 =( LENGTH_UNIT ( ) NAMED_UNIT ( * ) SI_UNIT ( $, .METRE. ) );
#303 = ADVANCED_FACE ( 'NONE', ( #162 ), #31, .T. ) ;
#304 = AXIS2_PLACEMENT_3D ( 'NONE', #172, #319, #49 ) ;
#305 = EDGE_CURVE ( 'NONE', #147, #118, #173, .T. ) ;
#306 = AXIS2_PLACEMENT_3D ( 'NONE', #18, #151, #245 ) ;
#307 = EDGE_CURVE ( 'NONE', #11, #28, #168, .T. ) ;
#308 = ORIENTED_EDGE ( 'NONE', *, *, #96, .T. ) ;
#309 = CARTESIAN_POINT ( 'NONE',  ( -0.007499999999999999722, 9.184850993605147975E-19, 1.707404996040164512E-17 ) ) ;
#310 = EDGE_LOOP ( 'NONE', ( #130, #285, #219, #84 ) ) ;
#311 = EDGE_LOOP ( 'NONE', ( #80, #57, #76, #265 ) ) ;
#312 = CARTESIAN_POINT ( 'NONE',  ( 0.0000000000000000000, 0.0000000000000000000, 2.500000000000000000 ) ) ;
#313 = ORIENTED_EDGE ( 'NONE', *, *, #307, .T. ) ;
#314 = PRODUCT_RELATED_PRODUCT_CATEGORY ( 'part', '', ( #212 ) ) ;
#315 = DIRECTION ( 'NONE',  ( 0.0000000000000000000, 0.0000000000000000000, 1.000000000000000000 ) ) ;
#316 = ORIENTED_EDGE ( 'NONE', *, *, #96, .F. ) ;
#317 = CARTESIAN_POINT ( 'NONE',  ( 0.0000000000000000000, 0.0000000000000000000, 1.707404996040164512E-17 ) ) ;
#318 = AXIS2_PLACEMENT_3D ( 'NONE', #77, #315, #9 ) ;
#319 = DIRECTION ( 'NONE',  ( 0.0000000000000000000, 0.0000000000000000000, -1.000000000000000000 ) ) ;
#320 = FILL_AREA_STYLE ('',( #69 ) ) ;
#321 = DIRECTION ( 'NONE',  ( 0.7071067811865487940, 0.0000000000000000000, 0.7071067811865462405 ) ) ;
#322 = ORIENTED_EDGE ( 'NONE', *, *, #101, .T. ) ;
#323 = CIRCLE ( 'NONE', #246, 0.1875000000000000278 ) ;
#324 = CARTESIAN_POINT ( 'NONE',  ( 0.0000000000000000000, 0.0000000000000000000, 1.000000000000000000 ) ) ;
#325 = APPLICATION_PROTOCOL_DEFINITION ( 'draft international standard', 'automotive_design', 1998, #92 ) ;
#326 = FACE_OUTER_BOUND ( 'NONE', #138, .T. ) ;
#327 = DIRECTION ( 'NONE',  ( -1.000000000000000000, 0.0000000000000000000, 0.0000000000000000000 ) ) ;
#328 = EDGE_CURVE ( 'NONE', #165, #115, #42, .T. ) ;
#329 = STYLED_ITEM ( 'NONE', ( #97 ), #55 ) ;
ENDSEC;
END-ISO-10303-21;
