ISO-10303-21;
HEADER;
FILE_DESCRIPTION (( 'STEP AP214' ),
    '1' );
FILE_NAME ('83314.STEP',
    '2023-06-23T09:25:21',
    ( '' ),
    ( '' ),
    'SwSTEP 2.0',
    'SolidWorks 2023',
    '' );
FILE_SCHEMA (( 'AUTOMOTIVE_DESIGN' ));
ENDSEC;

DATA;
#1 = DIRECTION ( 'NONE',  ( 0.000000000000000000, 0.000000000000000000, -1.000000000000000000 ) ) ;
#2 = ORIENTED_EDGE ( 'NONE', *, *, #160, .F. ) ;
#3 = MECHANICAL_DESIGN_GEOMETRIC_PRESENTATION_REPRESENTATION (  '', ( #251 ), #202 ) ;
#4 = ORIENTED_EDGE ( 'NONE', *, *, #290, .T. ) ;
#5 = PRODUCT_RELATED_PRODUCT_CATEGORY ( 'part', '', ( #263 ) ) ;
#6 = ORIENTED_EDGE ( 'NONE', *, *, #28, .T. ) ;
#7 = EDGE_CURVE ( 'NONE', #162, #36, #229, .T. ) ;
#8 = CARTESIAN_POINT ( 'NONE',  ( 0.000000000000000000, 2.000000000000000000, -0.3125000000000000000 ) ) ;
#9 = ORIENTED_EDGE ( 'NONE', *, *, #52, .F. ) ;
#10 = FILL_AREA_STYLE ('',( #228 ) ) ;
#11 =( NAMED_UNIT ( * ) PLANE_ANGLE_UNIT ( ) SI_UNIT ( $, .RADIAN. ) );
#12 = CARTESIAN_POINT ( 'NONE',  ( 0.000000000000000000, 2.000000000000000000, 0.000000000000000000 ) ) ;
#13 = CARTESIAN_POINT ( 'NONE',  ( 0.000000000000000000, 0.000000000000000000, -0.3125000000000000000 ) ) ;
#14 = CARTESIAN_POINT ( 'NONE',  ( 3.827021247335478926E-17, 0.000000000000000000, 0.3125000000000000000 ) ) ;
#15 = PLANE ( 'NONE',  #198 ) ;
#16 =( LENGTH_UNIT ( ) NAMED_UNIT ( * ) SI_UNIT ( $, .METRE. ) );
#17 = CARTESIAN_POINT ( 'NONE',  ( 0.000000000000000000, 0.000000000000000000, 0.000000000000000000 ) ) ;
#18 = CARTESIAN_POINT ( 'NONE',  ( 0.000000000000000000, 0.000000000000000000, 0.000000000000000000 ) ) ;
#19 = DIRECTION ( 'NONE',  ( -0.000000000000000000, -1.000000000000000000, -0.000000000000000000 ) ) ;
#20 =( GEOMETRIC_REPRESENTATION_CONTEXT ( 3 ) GLOBAL_UNCERTAINTY_ASSIGNED_CONTEXT ( ( #136 ) ) GLOBAL_UNIT_ASSIGNED_CONTEXT ( ( #230, #11, #161 ) ) REPRESENTATION_CONTEXT ( 'NONE', 'WORKASPACE' ) );
#21 = DIRECTION ( 'NONE',  ( 1.000000000000000000, 0.000000000000000000, 0.000000000000000000 ) ) ;
#22 = EDGE_CURVE ( 'NONE', #203, #177, #126, .T. ) ;
#23 = UNCERTAINTY_MEASURE_WITH_UNIT (LENGTH_MEASURE( 1.000000000000000082E-05 ), #209, 'distance_accuracy_value', 'NONE');
#24 = SURFACE_STYLE_FILL_AREA ( #302 ) ;
#25 = UNCERTAINTY_MEASURE_WITH_UNIT (LENGTH_MEASURE( 1.000000000000000082E-05 ), #114, 'distance_accuracy_value', 'NONE');
#26 = AXIS2_PLACEMENT_3D ( 'NONE', #18, #170, #95 ) ;
#27 = FILL_AREA_STYLE_COLOUR ( '', #244 ) ;
#28 = EDGE_CURVE ( 'NONE', #203, #162, #201, .T. ) ;
#29 = FACE_OUTER_BOUND ( 'NONE', #61, .T. ) ;
#30 = DIRECTION ( 'NONE',  ( -0.000000000000000000, -1.000000000000000000, -0.000000000000000000 ) ) ;
#31 =( LENGTH_UNIT ( ) NAMED_UNIT ( * ) SI_UNIT ( $, .METRE. ) );
#32 = ORIENTED_EDGE ( 'NONE', *, *, #44, .F. ) ;
#33 = ORIENTED_EDGE ( 'NONE', *, *, #7, .T. ) ;
#34 = CIRCLE ( 'NONE', #193, 0.3125000000000000000 ) ;
#35 =( NAMED_UNIT ( * ) SI_UNIT ( $, .STERADIAN. ) SOLID_ANGLE_UNIT ( ) );
#36 = VERTEX_POINT ( 'NONE', #103 ) ;
#37 = DIRECTION ( 'NONE',  ( -0.000000000000000000, -1.000000000000000000, -0.000000000000000000 ) ) ;
#38 = FACE_OUTER_BOUND ( 'NONE', #85, .T. ) ;
#39 = CARTESIAN_POINT ( 'NONE',  ( -6.123233995736766036E-17, 4.000000000000000000, 0.000000000000000000 ) ) ;
#40 = AXIS2_PLACEMENT_3D ( 'NONE', #49, #166, #191 ) ;
#41 = SURFACE_SIDE_STYLE ('',( #167 ) ) ;
#42 = LINE ( 'NONE', #107, #55 ) ;
#43 =( NAMED_UNIT ( * ) PLANE_ANGLE_UNIT ( ) SI_UNIT ( $, .RADIAN. ) );
#44 = EDGE_CURVE ( 'NONE', #246, #243, #285, .T. ) ;
#45 =( LENGTH_UNIT ( ) NAMED_UNIT ( * ) SI_UNIT ( $, .METRE. ) );
#46 = DIRECTION ( 'NONE',  ( 3.061616997868383018E-17, -1.000000000000000000, 0.000000000000000000 ) ) ;
#47 = CARTESIAN_POINT ( 'NONE',  ( -6.123233995736766036E-17, 4.000000000000000000, 0.000000000000000000 ) ) ;
#48 =( NAMED_UNIT ( * ) SI_UNIT ( $, .STERADIAN. ) SOLID_ANGLE_UNIT ( ) );
#49 = CARTESIAN_POINT ( 'NONE',  ( 0.000000000000000000, 2.000000000000000000, 0.000000000000000000 ) ) ;
#50 = CARTESIAN_POINT ( 'NONE',  ( 0.3125000000000000000, 4.000000000000000000, 3.827021247335478926E-17 ) ) ;
#51 = LENGTH_MEASURE_WITH_UNIT ( LENGTH_MEASURE( 0.02539999999999999897 ), #185 );
#52 = EDGE_CURVE ( 'NONE', #243, #246, #89, .T. ) ;
#53 = DIRECTION ( 'NONE',  ( -3.061616997868383018E-17, 1.000000000000000000, -0.000000000000000000 ) ) ;
#54 = ORIENTED_EDGE ( 'NONE', *, *, #52, .T. ) ;
#55 = VECTOR ( 'NONE', #247, 39.37007874015748143 ) ;
#56 = CARTESIAN_POINT ( 'NONE',  ( 0.000000000000000000, 0.000000000000000000, 0.000000000000000000 ) ) ;
#57 = SURFACE_SIDE_STYLE ('',( #301 ) ) ;
#58 = DIMENSIONAL_EXPONENTS ( 1.000000000000000000, 0.000000000000000000, 0.000000000000000000, 0.000000000000000000, 0.000000000000000000, 0.000000000000000000, 0.000000000000000000 ) ;
#59 = DIRECTION ( 'NONE',  ( -0.000000000000000000, -1.000000000000000000, -0.000000000000000000 ) ) ;
#60 = EDGE_CURVE ( 'NONE', #36, #162, #122, .T. ) ;
#61 = EDGE_LOOP ( 'NONE', ( #105, #294, #225, #81 ) ) ;
#62 = CARTESIAN_POINT ( 'NONE',  ( 0.000000000000000000, 2.000000000000000000, 0.000000000000000000 ) ) ;
#63 = CARTESIAN_POINT ( 'NONE',  ( 3.827021247335478926E-17, 2.000000000000000000, 0.3125000000000000000 ) ) ;
#64 = AXIS2_PLACEMENT_3D ( 'NONE', #39, #131, #88 ) ;
#65 = PRESENTATION_LAYER_ASSIGNMENT (  '', '', ( #245 ) ) ;
#66 = CARTESIAN_POINT ( 'NONE',  ( 1.464609162755720320E-34, 2.000000000000000000, 0.000000000000000000 ) ) ;
#67 = DIRECTION ( 'NONE',  ( 0.000000000000000000, 0.000000000000000000, -1.000000000000000000 ) ) ;
#68 = CARTESIAN_POINT ( 'NONE',  ( 0.000000000000000000, 0.000000000000000000, 0.000000000000000000 ) ) ;
#69 = DIRECTION ( 'NONE',  ( -3.061616997868383018E-17, 1.000000000000000000, -0.000000000000000000 ) ) ;
#70 = FACE_OUTER_BOUND ( 'NONE', #231, .T. ) ;
#71 = AXIS2_PLACEMENT_3D ( 'NONE', #56, #37, #1 ) ;
#72 = AXIS2_PLACEMENT_3D ( 'NONE', #62, #172, #168 ) ;
#73 = FILL_AREA_STYLE_COLOUR ( '', #260 ) ;
#74 = CARTESIAN_POINT ( 'NONE',  ( 0.000000000000000000, 0.000000000000000000, -0.3125000000000000000 ) ) ;
#75 = COLOUR_RGB ( '',1.000000000000000000, 0.000000000000000000, 0.000000000000000000 ) ;
#76 = SURFACE_SIDE_STYLE ('',( #287 ) ) ;
#77 = ADVANCED_FACE ( 'NONE', ( #169 ), #189, .T. ) ;
#78 = VECTOR ( 'NONE', #242, 39.37007874015748143 ) ;
#79 = AXIS2_PLACEMENT_3D ( 'NONE', #236, #123, #153 ) ;
#80 = CARTESIAN_POINT ( 'NONE',  ( 0.000000000000000000, 2.000000000000000000, 0.000000000000000000 ) ) ;
#81 = ORIENTED_EDGE ( 'NONE', *, *, #7, .F. ) ;
#82 = ORIENTED_EDGE ( 'NONE', *, *, #22, .F. ) ;
#83 = CIRCLE ( 'NONE', #40, 0.3125000000000000000 ) ;
#84 = DIRECTION ( 'NONE',  ( 1.000000000000000000, 3.061616997868383018E-17, 0.000000000000000000 ) ) ;
#85 = EDGE_LOOP ( 'NONE', ( #181, #33 ) ) ;
#86 = PLANE ( 'NONE',  #171 ) ;
#87 = SURFACE_STYLE_USAGE ( .BOTH. , #57 ) ;
#88 = DIRECTION ( 'NONE',  ( -1.000000000000000000, 0.000000000000000000, 0.000000000000000000 ) ) ;
#89 = CIRCLE ( 'NONE', #101, 0.3125000000000000000 ) ;
#90 = VECTOR ( 'NONE', #233, 39.37007874015748143 ) ;
#91 = PRESENTATION_STYLE_ASSIGNMENT (( #232 ) ) ;
#92 =( NAMED_UNIT ( * ) PLANE_ANGLE_UNIT ( ) SI_UNIT ( $, .RADIAN. ) );
#93 =( NAMED_UNIT ( * ) SI_UNIT ( $, .STERADIAN. ) SOLID_ANGLE_UNIT ( ) );
#94 = LINE ( 'NONE', #13, #267 ) ;
#95 = DIRECTION ( 'NONE',  ( 0.000000000000000000, 0.000000000000000000, -1.000000000000000000 ) ) ;
#96 = PRESENTATION_LAYER_ASSIGNMENT (  '', '', ( #173 ) ) ;
#97 = MECHANICAL_DESIGN_GEOMETRIC_PRESENTATION_REPRESENTATION (  '', ( #173 ), #147 ) ;
#98 = EDGE_CURVE ( 'NONE', #177, #203, #83, .T. ) ;
#99 =( NAMED_UNIT ( * ) SI_UNIT ( $, .STERADIAN. ) SOLID_ANGLE_UNIT ( ) );
#100 = PRODUCT_CONTEXT ( 'NONE', #307, 'mechanical' ) ;
#101 = AXIS2_PLACEMENT_3D ( 'NONE', #80, #104, #159 ) ;
#102 =( GEOMETRIC_REPRESENTATION_CONTEXT ( 3 ) GLOBAL_UNCERTAINTY_ASSIGNED_CONTEXT ( ( #304 ) ) GLOBAL_UNIT_ASSIGNED_CONTEXT ( ( #144, #207, #297 ) ) REPRESENTATION_CONTEXT ( 'NONE', 'WORKASPACE' ) );
#103 = CARTESIAN_POINT ( 'NONE',  ( -0.3125000000000001665, 4.000000000000000000, 0.000000000000000000 ) ) ;
#104 = DIRECTION ( 'NONE',  ( -0.000000000000000000, -1.000000000000000000, -0.000000000000000000 ) ) ;
#105 = ORIENTED_EDGE ( 'NONE', *, *, #28, .F. ) ;
#106 = MANIFOLD_SOLID_BREP ( 'Revolve - Tool Body (Straight Shanked)', #157 ) ;
#107 = CARTESIAN_POINT ( 'NONE',  ( 3.827021247335478926E-17, 0.000000000000000000, 0.3125000000000000000 ) ) ;
#108 = VERTEX_POINT ( 'NONE', #74 ) ;
#109 =( LENGTH_UNIT ( ) NAMED_UNIT ( * ) SI_UNIT ( $, .METRE. ) );
#110 = PRODUCT_DEFINITION_CONTEXT ( 'detailed design', #284, 'design' ) ;
#111 = SURFACE_SIDE_STYLE ('',( #279 ) ) ;
#112 = LENGTH_MEASURE_WITH_UNIT ( LENGTH_MEASURE( 0.02539999999999999897 ), #109 );
#113 = SURFACE_STYLE_FILL_AREA ( #188 ) ;
#114 =( CONVERSION_BASED_UNIT ( 'INCH', #299 ) LENGTH_UNIT ( ) NAMED_UNIT ( #58 ) );
#115 = STYLED_ITEM ( 'NONE', ( #271 ), #176 ) ;
#116 = FILL_AREA_STYLE_COLOUR ( '', #127 ) ;
#117 = DIRECTION ( 'NONE',  ( 0.000000000000000000, 0.000000000000000000, -1.000000000000000000 ) ) ;
#118 =( NAMED_UNIT ( * ) PLANE_ANGLE_UNIT ( ) SI_UNIT ( $, .RADIAN. ) );
#119 = ADVANCED_FACE ( 'NONE', ( #29 ), #281, .T. ) ;
#120 = SURFACE_STYLE_USAGE ( .BOTH. , #111 ) ;
#121 = UNCERTAINTY_MEASURE_WITH_UNIT (LENGTH_MEASURE( 1.000000000000000082E-05 ), #300, 'distance_accuracy_value', 'NONE');
#122 = CIRCLE ( 'NONE', #280, 0.3125000000000000555 ) ;
#123 = DIRECTION ( 'NONE',  ( -3.061616997868383018E-17, 1.000000000000000000, -0.000000000000000000 ) ) ;
#124 = ADVANCED_FACE ( 'NONE', ( #149 ), #217, .T. ) ;
#125 = SHAPE_DEFINITION_REPRESENTATION ( #151, #129 ) ;
#126 = CIRCLE ( 'NONE', #216, 0.3125000000000000000 ) ;
#127 = COLOUR_RGB ( '',0.7921568627450980005, 0.8196078431372548767, 0.9333333333333333481 ) ;
#128 = FILL_AREA_STYLE ('',( #27 ) ) ;
#129 = ADVANCED_BREP_SHAPE_REPRESENTATION ( '83314', ( #210, #106, #288 ), #20 ) ;
#130 = DIMENSIONAL_EXPONENTS ( 1.000000000000000000, 0.000000000000000000, 0.000000000000000000, 0.000000000000000000, 0.000000000000000000, 0.000000000000000000, 0.000000000000000000 ) ;
#131 = DIRECTION ( 'NONE',  ( -3.061616997868383018E-17, 1.000000000000000000, -0.000000000000000000 ) ) ;
#132 = ORIENTED_EDGE ( 'NONE', *, *, #213, .F. ) ;
#133 = ORIENTED_EDGE ( 'NONE', *, *, #98, .T. ) ;
#134 = DIRECTION ( 'NONE',  ( -0.000000000000000000, -1.000000000000000000, -0.000000000000000000 ) ) ;
#135 = EDGE_LOOP ( 'NONE', ( #54, #4, #296, #132 ) ) ;
#136 = UNCERTAINTY_MEASURE_WITH_UNIT (LENGTH_MEASURE( 1.000000000000000082E-05 ), #230, 'distance_accuracy_value', 'NONE');
#137 = CARTESIAN_POINT ( 'NONE',  ( 0.3125000000000000000, 4.000000000000000000, 0.000000000000000000 ) ) ;
#138 = ORIENTED_EDGE ( 'NONE', *, *, #146, .T. ) ;
#139 = MECHANICAL_DESIGN_GEOMETRIC_PRESENTATION_REPRESENTATION (  '', ( #292 ), #253 ) ;
#140 = AXIS2_PLACEMENT_3D ( 'NONE', #17, #134, #117 ) ;
#141 = FACE_OUTER_BOUND ( 'NONE', #205, .T. ) ;
#142 = FACE_OUTER_BOUND ( 'NONE', #291, .T. ) ;
#143 =( LENGTH_UNIT ( ) NAMED_UNIT ( * ) SI_UNIT ( $, .METRE. ) );
#144 =( CONVERSION_BASED_UNIT ( 'INCH', #204 ) LENGTH_UNIT ( ) NAMED_UNIT ( #238 ) );
#145 = SURFACE_SIDE_STYLE ('',( #113 ) ) ;
#146 = EDGE_CURVE ( 'NONE', #108, #156, #34, .T. ) ;
#147 =( GEOMETRIC_REPRESENTATION_CONTEXT ( 3 ) GLOBAL_UNCERTAINTY_ASSIGNED_CONTEXT ( ( #306 ) ) GLOBAL_UNIT_ASSIGNED_CONTEXT ( ( #196, #261, #99 ) ) REPRESENTATION_CONTEXT ( 'NONE', 'WORKASPACE' ) );
#148 = DIMENSIONAL_EXPONENTS ( 1.000000000000000000, 0.000000000000000000, 0.000000000000000000, 0.000000000000000000, 0.000000000000000000, 0.000000000000000000, 0.000000000000000000 ) ;
#149 = FACE_OUTER_BOUND ( 'NONE', #135, .T. ) ;
#150 = PRESENTATION_LAYER_ASSIGNMENT (  '', '', ( #292 ) ) ;
#151 = PRODUCT_DEFINITION_SHAPE ( 'NONE', 'NONE',  #303 ) ;
#152 = PRODUCT_DEFINITION_FORMATION_WITH_SPECIFIED_SOURCE ( 'ANY', '', #263, .NOT_KNOWN. ) ;
#153 = DIRECTION ( 'NONE',  ( -1.000000000000000000, 0.000000000000000000, 0.000000000000000000 ) ) ;
#154 = DIRECTION ( 'NONE',  ( -1.000000000000000000, 0.000000000000000000, 0.000000000000000000 ) ) ;
#155 = ORIENTED_EDGE ( 'NONE', *, *, #98, .F. ) ;
#156 = VERTEX_POINT ( 'NONE', #14 ) ;
#157 = CLOSED_SHELL ( 'NONE', ( #219, #192, #119, #226 ) ) ;
#158 = CYLINDRICAL_SURFACE ( 'NONE', #140, 0.3125000000000000000 ) ;
#159 = DIRECTION ( 'NONE',  ( 0.000000000000000000, 0.000000000000000000, -1.000000000000000000 ) ) ;
#160 = EDGE_CURVE ( 'NONE', #156, #108, #222, .T. ) ;
#161 =( NAMED_UNIT ( * ) SI_UNIT ( $, .STERADIAN. ) SOLID_ANGLE_UNIT ( ) );
#162 = VERTEX_POINT ( 'NONE', #50 ) ;
#163 = FILL_AREA_STYLE ('',( #116 ) ) ;
#164 = FILL_AREA_STYLE ('',( #212 ) ) ;
#165 = COLOUR_RGB ( '',1.000000000000000000, 0.000000000000000000, 0.000000000000000000 ) ;
#166 = DIRECTION ( 'NONE',  ( -3.061616997868383018E-17, 1.000000000000000000, -0.000000000000000000 ) ) ;
#167 = SURFACE_STYLE_FILL_AREA ( #163 ) ;
#168 = DIRECTION ( 'NONE',  ( 0.000000000000000000, -0.000000000000000000, 1.000000000000000000 ) ) ;
#169 = FACE_OUTER_BOUND ( 'NONE', #250, .T. ) ;
#170 = DIRECTION ( 'NONE',  ( 0.000000000000000000, -1.000000000000000000, -0.000000000000000000 ) ) ;
#171 = AXIS2_PLACEMENT_3D ( 'NONE', #66, #190, #182 ) ;
#172 = DIRECTION ( 'NONE',  ( 0.000000000000000000, 1.000000000000000000, 0.000000000000000000 ) ) ;
#173 = STYLED_ITEM ( 'NONE', ( #298 ), #106 ) ;
#174 = MECHANICAL_DESIGN_GEOMETRIC_PRESENTATION_REPRESENTATION (  '', ( #245 ), #186 ) ;
#175 = SURFACE_STYLE_USAGE ( .BOTH. , #76 ) ;
#176 = ADVANCED_FACE ( 'NONE', ( #142 ), #184, .T. ) ;
#177 = VERTEX_POINT ( 'NONE', #274 ) ;
#178 =( CONVERSION_BASED_UNIT ( 'INCH', #259 ) LENGTH_UNIT ( ) NAMED_UNIT ( #215 ) );
#179 = ORIENTED_EDGE ( 'NONE', *, *, #44, .T. ) ;
#180 = APPLICATION_PROTOCOL_DEFINITION ( 'draft international standard', 'automotive_design', 1998, #307 ) ;
#181 = ORIENTED_EDGE ( 'NONE', *, *, #60, .T. ) ;
#182 = DIRECTION ( 'NONE',  ( -1.000000000000000000, -3.061616997868383018E-17, 0.000000000000000000 ) ) ;
#183 = PRESENTATION_STYLE_ASSIGNMENT (( #87 ) ) ;
#184 = PLANE ( 'NONE',  #72 ) ;
#185 =( LENGTH_UNIT ( ) NAMED_UNIT ( * ) SI_UNIT ( $, .METRE. ) );
#186 =( GEOMETRIC_REPRESENTATION_CONTEXT ( 3 ) GLOBAL_UNCERTAINTY_ASSIGNED_CONTEXT ( ( #121 ) ) GLOBAL_UNIT_ASSIGNED_CONTEXT ( ( #300, #92, #48 ) ) REPRESENTATION_CONTEXT ( 'NONE', 'WORKASPACE' ) );
#187 = CARTESIAN_POINT ( 'NONE',  ( 0.3125000000000000000, 2.000000000000000000, 3.827021247335478926E-17 ) ) ;
#188 = FILL_AREA_STYLE ('',( #73 ) ) ;
#189 = PLANE ( 'NONE',  #26 ) ;
#190 = DIRECTION ( 'NONE',  ( -3.061616997868383018E-17, 1.000000000000000000, 0.000000000000000000 ) ) ;
#191 = DIRECTION ( 'NONE',  ( -1.000000000000000000, 0.000000000000000000, 0.000000000000000000 ) ) ;
#192 = ADVANCED_FACE ( 'NONE', ( #295 ), #86, .F. ) ;
#193 = AXIS2_PLACEMENT_3D ( 'NONE', #197, #199, #257 ) ;
#194 = CARTESIAN_POINT ( 'NONE',  ( -6.123233995736766036E-17, 4.000000000000000000, 0.000000000000000000 ) ) ;
#195 = PRESENTATION_LAYER_ASSIGNMENT (  '', '', ( #115 ) ) ;
#196 =( CONVERSION_BASED_UNIT ( 'INCH', #51 ) LENGTH_UNIT ( ) NAMED_UNIT ( #148 ) );
#197 = CARTESIAN_POINT ( 'NONE',  ( 0.000000000000000000, 0.000000000000000000, 0.000000000000000000 ) ) ;
#198 = AXIS2_PLACEMENT_3D ( 'NONE', #137, #46, #84 ) ;
#199 = DIRECTION ( 'NONE',  ( -0.000000000000000000, -1.000000000000000000, -0.000000000000000000 ) ) ;
#200 = CARTESIAN_POINT ( 'NONE',  ( 0.000000000000000000, 2.000000000000000000, 0.000000000000000000 ) ) ;
#201 = LINE ( 'NONE', #268, #78 ) ;
#202 =( GEOMETRIC_REPRESENTATION_CONTEXT ( 3 ) GLOBAL_UNCERTAINTY_ASSIGNED_CONTEXT ( ( #277 ) ) GLOBAL_UNIT_ASSIGNED_CONTEXT ( ( #178, #269, #35 ) ) REPRESENTATION_CONTEXT ( 'NONE', 'WORKASPACE' ) );
#203 = VERTEX_POINT ( 'NONE', #187 ) ;
#204 = LENGTH_MEASURE_WITH_UNIT ( LENGTH_MEASURE( 0.02539999999999999897 ), #252 );
#205 = EDGE_LOOP ( 'NONE', ( #224, #179, #266, #2 ) ) ;
#206 = DIRECTION ( 'NONE',  ( -1.000000000000000000, 0.000000000000000000, 0.000000000000000000 ) ) ;
#207 =( NAMED_UNIT ( * ) PLANE_ANGLE_UNIT ( ) SI_UNIT ( $, .RADIAN. ) );
#208 = AXIS2_PLACEMENT_3D ( 'NONE', #255, #19, #67 ) ;
#209 =( CONVERSION_BASED_UNIT ( 'INCH', #237 ) LENGTH_UNIT ( ) NAMED_UNIT ( #130 ) );
#210 = MANIFOLD_SOLID_BREP ( 'Revolve - Cutting Edge', #218 ) ;
#211 = LENGTH_MEASURE_WITH_UNIT ( LENGTH_MEASURE( 0.02539999999999999897 ), #45 );
#212 = FILL_AREA_STYLE_COLOUR ( '', #223 ) ;
#213 = EDGE_CURVE ( 'NONE', #243, #108, #94, .T. ) ;
#214 = FILL_AREA_STYLE_COLOUR ( '', #165 ) ;
#215 = DIMENSIONAL_EXPONENTS ( 1.000000000000000000, 0.000000000000000000, 0.000000000000000000, 0.000000000000000000, 0.000000000000000000, 0.000000000000000000, 0.000000000000000000 ) ;
#216 = AXIS2_PLACEMENT_3D ( 'NONE', #12, #53, #154 ) ;
#217 = CYLINDRICAL_SURFACE ( 'NONE', #71, 0.3125000000000000000 ) ;
#218 = CLOSED_SHELL ( 'NONE', ( #124, #176, #265, #77 ) ) ;
#219 = ADVANCED_FACE ( 'NONE', ( #70 ), #227, .T. ) ;
#220 = APPLICATION_PROTOCOL_DEFINITION ( 'draft international standard', 'automotive_design', 1998, #284 ) ;
#221 = EDGE_LOOP ( 'NONE', ( #155, #82 ) ) ;
#222 = CIRCLE ( 'NONE', #208, 0.3125000000000000000 ) ;
#223 = COLOUR_RGB ( '',1.000000000000000000, 0.000000000000000000, 0.000000000000000000 ) ;
#224 = ORIENTED_EDGE ( 'NONE', *, *, #290, .F. ) ;
#225 = ORIENTED_EDGE ( 'NONE', *, *, #309, .T. ) ;
#226 = ADVANCED_FACE ( 'NONE', ( #38 ), #15, .F. ) ;
#227 = CYLINDRICAL_SURFACE ( 'NONE', #79, 0.3125000000000000000 ) ;
#228 = FILL_AREA_STYLE_COLOUR ( '', #75 ) ;
#229 = CIRCLE ( 'NONE', #64, 0.3125000000000000555 ) ;
#230 =( CONVERSION_BASED_UNIT ( 'INCH', #112 ) LENGTH_UNIT ( ) NAMED_UNIT ( #240 ) );
#231 = EDGE_LOOP ( 'NONE', ( #133, #6, #270, #248 ) ) ;
#232 = SURFACE_STYLE_USAGE ( .BOTH. , #41 ) ;
#233 = DIRECTION ( 'NONE',  ( -3.061616997868383018E-17, 1.000000000000000000, -0.000000000000000000 ) ) ;
#234 = LINE ( 'NONE', #249, #90 ) ;
#235 = MECHANICAL_DESIGN_GEOMETRIC_PRESENTATION_REPRESENTATION (  '', ( #115 ), #102 ) ;
#236 = CARTESIAN_POINT ( 'NONE',  ( -6.123233995736766036E-17, 4.000000000000000000, 0.000000000000000000 ) ) ;
#237 = LENGTH_MEASURE_WITH_UNIT ( LENGTH_MEASURE( 0.02539999999999999897 ), #16 );
#238 = DIMENSIONAL_EXPONENTS ( 1.000000000000000000, 0.000000000000000000, 0.000000000000000000, 0.000000000000000000, 0.000000000000000000, 0.000000000000000000, 0.000000000000000000 ) ;
#239 = PRESENTATION_LAYER_ASSIGNMENT (  '', '', ( #251 ) ) ;
#240 = DIMENSIONAL_EXPONENTS ( 1.000000000000000000, 0.000000000000000000, 0.000000000000000000, 0.000000000000000000, 0.000000000000000000, 0.000000000000000000, 0.000000000000000000 ) ;
#241 = STYLED_ITEM ( 'NONE', ( #183 ), #265 ) ;
#242 = DIRECTION ( 'NONE',  ( -3.061616997868383018E-17, 1.000000000000000000, -0.000000000000000000 ) ) ;
#243 = VERTEX_POINT ( 'NONE', #8 ) ;
#244 = COLOUR_RGB ( '',1.000000000000000000, 0.000000000000000000, 0.000000000000000000 ) ;
#245 = STYLED_ITEM ( 'NONE', ( #91 ), #210 ) ;
#246 = VERTEX_POINT ( 'NONE', #63 ) ;
#247 = DIRECTION ( 'NONE',  ( -0.000000000000000000, -1.000000000000000000, -0.000000000000000000 ) ) ;
#248 = ORIENTED_EDGE ( 'NONE', *, *, #309, .F. ) ;
#249 = CARTESIAN_POINT ( 'NONE',  ( -0.3125000000000000555, 4.000000000000000000, 0.000000000000000000 ) ) ;
#250 = EDGE_LOOP ( 'NONE', ( #138, #264 ) ) ;
#251 = STYLED_ITEM ( 'NONE', ( #305 ), #124 ) ;
#252 =( LENGTH_UNIT ( ) NAMED_UNIT ( * ) SI_UNIT ( $, .METRE. ) );
#253 =( GEOMETRIC_REPRESENTATION_CONTEXT ( 3 ) GLOBAL_UNCERTAINTY_ASSIGNED_CONTEXT ( ( #23 ) ) GLOBAL_UNIT_ASSIGNED_CONTEXT ( ( #209, #118, #93 ) ) REPRESENTATION_CONTEXT ( 'NONE', 'WORKASPACE' ) );
#254 =( NAMED_UNIT ( * ) SI_UNIT ( $, .STERADIAN. ) SOLID_ANGLE_UNIT ( ) );
#255 = CARTESIAN_POINT ( 'NONE',  ( 0.000000000000000000, 0.000000000000000000, 0.000000000000000000 ) ) ;
#256 = DIRECTION ( 'NONE',  ( 0.000000000000000000, 0.000000000000000000, 1.000000000000000000 ) ) ;
#257 = DIRECTION ( 'NONE',  ( 0.000000000000000000, 0.000000000000000000, -1.000000000000000000 ) ) ;
#258 = SURFACE_STYLE_USAGE ( .BOTH. , #145 ) ;
#259 = LENGTH_MEASURE_WITH_UNIT ( LENGTH_MEASURE( 0.02539999999999999897 ), #31 );
#260 = COLOUR_RGB ( '',0.7921568627450980005, 0.8196078431372548767, 0.9333333333333333481 ) ;
#261 =( NAMED_UNIT ( * ) PLANE_ANGLE_UNIT ( ) SI_UNIT ( $, .RADIAN. ) );
#262 = DIMENSIONAL_EXPONENTS ( 1.000000000000000000, 0.000000000000000000, 0.000000000000000000, 0.000000000000000000, 0.000000000000000000, 0.000000000000000000, 0.000000000000000000 ) ;
#263 = PRODUCT ( '83314', '83314', '', ( #100 ) ) ;
#264 = ORIENTED_EDGE ( 'NONE', *, *, #160, .T. ) ;
#265 = ADVANCED_FACE ( 'NONE', ( #141 ), #158, .T. ) ;
#266 = ORIENTED_EDGE ( 'NONE', *, *, #213, .T. ) ;
#267 = VECTOR ( 'NONE', #30, 39.37007874015748143 ) ;
#268 = CARTESIAN_POINT ( 'NONE',  ( 0.3124999999999999445, 4.000000000000000000, 3.827021247335478926E-17 ) ) ;
#269 =( NAMED_UNIT ( * ) PLANE_ANGLE_UNIT ( ) SI_UNIT ( $, .RADIAN. ) );
#270 = ORIENTED_EDGE ( 'NONE', *, *, #60, .F. ) ;
#271 = PRESENTATION_STYLE_ASSIGNMENT (( #120 ) ) ;
#272 = PRESENTATION_STYLE_ASSIGNMENT (( #276 ) ) ;
#273 = AXIS2_PLACEMENT_3D ( 'NONE', #200, #59, #289 ) ;
#274 = CARTESIAN_POINT ( 'NONE',  ( -0.3125000000000000000, 2.000000000000000000, 0.000000000000000000 ) ) ;
#275 = PRESENTATION_LAYER_ASSIGNMENT (  '', '', ( #241 ) ) ;
#276 = SURFACE_STYLE_USAGE ( .BOTH. , #278 ) ;
#277 = UNCERTAINTY_MEASURE_WITH_UNIT (LENGTH_MEASURE( 1.000000000000000082E-05 ), #178, 'distance_accuracy_value', 'NONE');
#278 = SURFACE_SIDE_STYLE ('',( #24 ) ) ;
#279 = SURFACE_STYLE_FILL_AREA ( #10 ) ;
#280 = AXIS2_PLACEMENT_3D ( 'NONE', #47, #69, #206 ) ;
#281 = CYLINDRICAL_SURFACE ( 'NONE', #308, 0.3125000000000000000 ) ;
#282 =( GEOMETRIC_REPRESENTATION_CONTEXT ( 3 ) GLOBAL_UNCERTAINTY_ASSIGNED_CONTEXT ( ( #25 ) ) GLOBAL_UNIT_ASSIGNED_CONTEXT ( ( #114, #43, #254 ) ) REPRESENTATION_CONTEXT ( 'NONE', 'WORKASPACE' ) );
#283 = DIRECTION ( 'NONE',  ( -1.000000000000000000, 0.000000000000000000, 0.000000000000000000 ) ) ;
#284 = APPLICATION_CONTEXT ( 'automotive_design' ) ;
#285 = CIRCLE ( 'NONE', #273, 0.3125000000000000000 ) ;
#286 = DIRECTION ( 'NONE',  ( -3.061616997868383018E-17, 1.000000000000000000, -0.000000000000000000 ) ) ;
#287 = SURFACE_STYLE_FILL_AREA ( #128 ) ;
#288 = AXIS2_PLACEMENT_3D ( 'NONE', #68, #256, #21 ) ;
#289 = DIRECTION ( 'NONE',  ( 0.000000000000000000, 0.000000000000000000, -1.000000000000000000 ) ) ;
#290 = EDGE_CURVE ( 'NONE', #246, #156, #42, .T. ) ;
#291 = EDGE_LOOP ( 'NONE', ( #9, #32 ) ) ;
#292 = STYLED_ITEM ( 'NONE', ( #272 ), #77 ) ;
#293 = MECHANICAL_DESIGN_GEOMETRIC_PRESENTATION_REPRESENTATION (  '', ( #241 ), #282 ) ;
#294 = ORIENTED_EDGE ( 'NONE', *, *, #22, .T. ) ;
#295 = FACE_OUTER_BOUND ( 'NONE', #221, .T. ) ;
#296 = ORIENTED_EDGE ( 'NONE', *, *, #146, .F. ) ;
#297 =( NAMED_UNIT ( * ) SI_UNIT ( $, .STERADIAN. ) SOLID_ANGLE_UNIT ( ) );
#298 = PRESENTATION_STYLE_ASSIGNMENT (( #258 ) ) ;
#299 = LENGTH_MEASURE_WITH_UNIT ( LENGTH_MEASURE( 0.02539999999999999897 ), #143 );
#300 =( CONVERSION_BASED_UNIT ( 'INCH', #211 ) LENGTH_UNIT ( ) NAMED_UNIT ( #262 ) );
#301 = SURFACE_STYLE_FILL_AREA ( #164 ) ;
#302 = FILL_AREA_STYLE ('',( #214 ) ) ;
#303 = PRODUCT_DEFINITION ( 'UNKNOWN', '', #152, #110 ) ;
#304 = UNCERTAINTY_MEASURE_WITH_UNIT (LENGTH_MEASURE( 1.000000000000000082E-05 ), #144, 'distance_accuracy_value', 'NONE');
#305 = PRESENTATION_STYLE_ASSIGNMENT (( #175 ) ) ;
#306 = UNCERTAINTY_MEASURE_WITH_UNIT (LENGTH_MEASURE( 1.000000000000000082E-05 ), #196, 'distance_accuracy_value', 'NONE');
#307 = APPLICATION_CONTEXT ( 'automotive_design' ) ;
#308 = AXIS2_PLACEMENT_3D ( 'NONE', #194, #286, #283 ) ;
#309 = EDGE_CURVE ( 'NONE', #177, #36, #234, .T. ) ;
ENDSEC;
END-ISO-10303-21;
