ISO-10303-21;
HEADER;
FILE_DESCRIPTION (( 'STEP AP214' ),
    '1' );
FILE_NAME ('84307.STEP',
    '2023-06-23T12:13:59',
    ( '' ),
    ( '' ),
    'SwSTEP 2.0',
    'SolidWorks 2023',
    '' );
FILE_SCHEMA (( 'AUTOMOTIVE_DESIGN' ));
ENDSEC;

DATA;
#1 = DIRECTION ( 'NONE',  ( 4.082155997157844435E-17, 1.000000000000000000, -0.000000000000000000 ) ) ;
#2 = ADVANCED_FACE ( 'NONE', ( #303 ), #65, .T. ) ;
#3 = STYLED_ITEM ( 'NONE', ( #73 ), #49 ) ;
#4 = COLOUR_RGB ( '',0.7921568627450980005, 0.8196078431372548767, 0.9333333333333333481 ) ;
#5 = ADVANCED_FACE ( 'NONE', ( #132 ), #299, .F. ) ;
#6 = CARTESIAN_POINT ( 'NONE',  ( 0.000000000000000000, 0.5000000000000000000, -0.1875000000000000278 ) ) ;
#7 = SURFACE_STYLE_USAGE ( .BOTH. , #238 ) ;
#8 = ORIENTED_EDGE ( 'NONE', *, *, #85, .T. ) ;
#9 = SURFACE_STYLE_FILL_AREA ( #141 ) ;
#10 = DIRECTION ( 'NONE',  ( -1.000000000000000000, 0.000000000000000000, 0.000000000000000000 ) ) ;
#11 = CARTESIAN_POINT ( 'NONE',  ( 0.000000000000000000, 0.000000000000000000, 0.000000000000000000 ) ) ;
#12 = UNCERTAINTY_MEASURE_WITH_UNIT (LENGTH_MEASURE( 1.000000000000000082E-05 ), #122, 'distance_accuracy_value', 'NONE');
#13 = DIRECTION ( 'NONE',  ( -0.000000000000000000, -1.000000000000000000, -0.000000000000000000 ) ) ;
#14 = EDGE_LOOP ( 'NONE', ( #243, #24, #93, #199 ) ) ;
#15 = FACE_OUTER_BOUND ( 'NONE', #14, .T. ) ;
#16 = CARTESIAN_POINT ( 'NONE',  ( 0.000000000000000000, 0.000000000000000000, -0.1875000000000000278 ) ) ;
#17 = EDGE_LOOP ( 'NONE', ( #206, #263 ) ) ;
#18 = AXIS2_PLACEMENT_3D ( 'NONE', #188, #54, #160 ) ;
#19 =( GEOMETRIC_REPRESENTATION_CONTEXT ( 3 ) GLOBAL_UNCERTAINTY_ASSIGNED_CONTEXT ( ( #172 ) ) GLOBAL_UNIT_ASSIGNED_CONTEXT ( ( #266, #29, #129 ) ) REPRESENTATION_CONTEXT ( 'NONE', 'WORKASPACE' ) );
#20 = CYLINDRICAL_SURFACE ( 'NONE', #151, 0.1874999999999999722 ) ;
#21 = LENGTH_MEASURE_WITH_UNIT ( LENGTH_MEASURE( 0.02539999999999999897 ), #148 );
#22 = CARTESIAN_POINT ( 'NONE',  ( 6.123233995736766036E-17, 2.000000000000000000, 0.000000000000000000 ) ) ;
#23 = AXIS2_PLACEMENT_3D ( 'NONE', #284, #175, #205 ) ;
#24 = ORIENTED_EDGE ( 'NONE', *, *, #240, .T. ) ;
#25 = ORIENTED_EDGE ( 'NONE', *, *, #253, .T. ) ;
#26 = SURFACE_STYLE_FILL_AREA ( #231 ) ;
#27 = SURFACE_STYLE_FILL_AREA ( #187 ) ;
#28 = FILL_AREA_STYLE_COLOUR ( '', #50 ) ;
#29 =( NAMED_UNIT ( * ) PLANE_ANGLE_UNIT ( ) SI_UNIT ( $, .RADIAN. ) );
#30 = LENGTH_MEASURE_WITH_UNIT ( LENGTH_MEASURE( 0.02539999999999999897 ), #96 );
#31 = MECHANICAL_DESIGN_GEOMETRIC_PRESENTATION_REPRESENTATION (  '', ( #192 ), #86 ) ;
#32 = CIRCLE ( 'NONE', #83, 0.1875000000000000278 ) ;
#33 =( LENGTH_UNIT ( ) NAMED_UNIT ( * ) SI_UNIT ( $, .METRE. ) );
#34 =( CONVERSION_BASED_UNIT ( 'INCH', #56 ) LENGTH_UNIT ( ) NAMED_UNIT ( #215 ) );
#35 = PRODUCT_DEFINITION ( 'UNKNOWN', '', #115, #201 ) ;
#36 =( NAMED_UNIT ( * ) SI_UNIT ( $, .STERADIAN. ) SOLID_ANGLE_UNIT ( ) );
#37 = ORIENTED_EDGE ( 'NONE', *, *, #301, .F. ) ;
#38 = COLOUR_RGB ( '',1.000000000000000000, 0.000000000000000000, 0.000000000000000000 ) ;
#39 = UNCERTAINTY_MEASURE_WITH_UNIT (LENGTH_MEASURE( 1.000000000000000082E-05 ), #34, 'distance_accuracy_value', 'NONE');
#40 = PRESENTATION_STYLE_ASSIGNMENT (( #170 ) ) ;
#41 = DIMENSIONAL_EXPONENTS ( 1.000000000000000000, 0.000000000000000000, 0.000000000000000000, 0.000000000000000000, 0.000000000000000000, 0.000000000000000000, 0.000000000000000000 ) ;
#42 = DIRECTION ( 'NONE',  ( 0.000000000000000000, 0.000000000000000000, -1.000000000000000000 ) ) ;
#43 = LENGTH_MEASURE_WITH_UNIT ( LENGTH_MEASURE( 0.02539999999999999897 ), #257 );
#44 = CARTESIAN_POINT ( 'NONE',  ( -0.1874999999999999167, 2.000000000000000000, 0.000000000000000000 ) ) ;
#45 = VERTEX_POINT ( 'NONE', #6 ) ;
#46 =( GEOMETRIC_REPRESENTATION_CONTEXT ( 3 ) GLOBAL_UNCERTAINTY_ASSIGNED_CONTEXT ( ( #195 ) ) GLOBAL_UNIT_ASSIGNED_CONTEXT ( ( #189, #288, #173 ) ) REPRESENTATION_CONTEXT ( 'NONE', 'WORKASPACE' ) );
#47 = CYLINDRICAL_SURFACE ( 'NONE', #209, 0.1874999999999999722 ) ;
#48 =( NAMED_UNIT ( * ) SI_UNIT ( $, .STERADIAN. ) SOLID_ANGLE_UNIT ( ) );
#49 = ADVANCED_FACE ( 'NONE', ( #150 ), #174, .T. ) ;
#50 = COLOUR_RGB ( '',1.000000000000000000, 0.000000000000000000, 0.000000000000000000 ) ;
#51 = EDGE_CURVE ( 'NONE', #98, #245, #259, .T. ) ;
#52 = MECHANICAL_DESIGN_GEOMETRIC_PRESENTATION_REPRESENTATION (  '', ( #69 ), #255 ) ;
#53 = AXIS2_PLACEMENT_3D ( 'NONE', #285, #194, #294 ) ;
#54 = DIRECTION ( 'NONE',  ( -0.000000000000000000, -1.000000000000000000, -0.000000000000000000 ) ) ;
#55 =( NAMED_UNIT ( * ) SI_UNIT ( $, .STERADIAN. ) SOLID_ANGLE_UNIT ( ) );
#56 = LENGTH_MEASURE_WITH_UNIT ( LENGTH_MEASURE( 0.02539999999999999897 ), #81 );
#57 = SURFACE_STYLE_USAGE ( .BOTH. , #217 ) ;
#58 = EDGE_CURVE ( 'NONE', #45, #165, #251, .T. ) ;
#59 = CLOSED_SHELL ( 'NONE', ( #254, #49, #308, #2 ) ) ;
#60 =( GEOMETRIC_REPRESENTATION_CONTEXT ( 3 ) GLOBAL_UNCERTAINTY_ASSIGNED_CONTEXT ( ( #246 ) ) GLOBAL_UNIT_ASSIGNED_CONTEXT ( ( #295, #247, #274 ) ) REPRESENTATION_CONTEXT ( 'NONE', 'WORKASPACE' ) );
#61 = FACE_OUTER_BOUND ( 'NONE', #304, .T. ) ;
#62 = SURFACE_SIDE_STYLE ('',( #267 ) ) ;
#63 = CARTESIAN_POINT ( 'NONE',  ( 0.1875000000000000278, 2.000000000000000000, 2.296212748401287109E-17 ) ) ;
#64 = CARTESIAN_POINT ( 'NONE',  ( 0.000000000000000000, 0.000000000000000000, 0.000000000000000000 ) ) ;
#65 = PLANE ( 'NONE',  #144 ) ;
#66 =( NAMED_UNIT ( * ) PLANE_ANGLE_UNIT ( ) SI_UNIT ( $, .RADIAN. ) );
#67 = EDGE_CURVE ( 'NONE', #98, #45, #168, .T. ) ;
#68 = AXIS2_PLACEMENT_3D ( 'NONE', #128, #147, #10 ) ;
#69 = STYLED_ITEM ( 'NONE', ( #244 ), #308 ) ;
#70 = MANIFOLD_SOLID_BREP ( 'Revolve - Cutting Edge', #59 ) ;
#71 = PRESENTATION_LAYER_ASSIGNMENT (  '', '', ( #192 ) ) ;
#72 = CARTESIAN_POINT ( 'NONE',  ( 0.1875000000000000555, 2.000000000000000000, 2.296212748401286801E-17 ) ) ;
#73 = PRESENTATION_STYLE_ASSIGNMENT (( #154 ) ) ;
#74 = FACE_OUTER_BOUND ( 'NONE', #164, .T. ) ;
#75 = ORIENTED_EDGE ( 'NONE', *, *, #67, .T. ) ;
#76 = AXIS2_PLACEMENT_3D ( 'NONE', #90, #211, #116 ) ;
#77 = SURFACE_STYLE_FILL_AREA ( #196 ) ;
#78 = ORIENTED_EDGE ( 'NONE', *, *, #301, .T. ) ;
#79 = LENGTH_MEASURE_WITH_UNIT ( LENGTH_MEASURE( 0.02539999999999999897 ), #33 );
#80 = FILL_AREA_STYLE_COLOUR ( '', #213 ) ;
#81 =( LENGTH_UNIT ( ) NAMED_UNIT ( * ) SI_UNIT ( $, .METRE. ) );
#82 = ORIENTED_EDGE ( 'NONE', *, *, #92, .F. ) ;
#83 = AXIS2_PLACEMENT_3D ( 'NONE', #286, #13, #198 ) ;
#84 = ORIENTED_EDGE ( 'NONE', *, *, #240, .F. ) ;
#85 = EDGE_CURVE ( 'NONE', #229, #95, #185, .T. ) ;
#86 =( GEOMETRIC_REPRESENTATION_CONTEXT ( 3 ) GLOBAL_UNCERTAINTY_ASSIGNED_CONTEXT ( ( #12 ) ) GLOBAL_UNIT_ASSIGNED_CONTEXT ( ( #122, #66, #48 ) ) REPRESENTATION_CONTEXT ( 'NONE', 'WORKASPACE' ) );
#87 = ORIENTED_EDGE ( 'NONE', *, *, #227, .T. ) ;
#88 = DIRECTION ( 'NONE',  ( -1.000000000000000000, 0.000000000000000000, 0.000000000000000000 ) ) ;
#89 = AXIS2_PLACEMENT_3D ( 'NONE', #269, #219, #106 ) ;
#90 = CARTESIAN_POINT ( 'NONE',  ( 6.123233995736766036E-17, 2.000000000000000000, 0.000000000000000000 ) ) ;
#91 = SURFACE_STYLE_FILL_AREA ( #140 ) ;
#92 = EDGE_CURVE ( 'NONE', #136, #95, #166, .T. ) ;
#93 = ORIENTED_EDGE ( 'NONE', *, *, #181, .F. ) ;
#94 = CARTESIAN_POINT ( 'NONE',  ( -0.1875000000000000278, 0.5000000000000001110, 0.000000000000000000 ) ) ;
#95 = VERTEX_POINT ( 'NONE', #145 ) ;
#96 =( LENGTH_UNIT ( ) NAMED_UNIT ( * ) SI_UNIT ( $, .METRE. ) );
#97 = CLOSED_SHELL ( 'NONE', ( #101, #171, #142, #5 ) ) ;
#98 = VERTEX_POINT ( 'NONE', #121 ) ;
#99 = PRESENTATION_LAYER_ASSIGNMENT (  '', '', ( #3 ) ) ;
#100 = SHAPE_DEFINITION_REPRESENTATION ( #111, #278 ) ;
#101 = ADVANCED_FACE ( 'NONE', ( #15 ), #47, .T. ) ;
#102 = DIRECTION ( 'NONE',  ( 0.000000000000000000, 1.000000000000000000, 0.000000000000000000 ) ) ;
#103 = CYLINDRICAL_SURFACE ( 'NONE', #108, 0.1875000000000000278 ) ;
#104 = DIRECTION ( 'NONE',  ( 4.082155997157844435E-17, 1.000000000000000000, -0.000000000000000000 ) ) ;
#105 = ORIENTED_EDGE ( 'NONE', *, *, #51, .F. ) ;
#106 = DIRECTION ( 'NONE',  ( 0.000000000000000000, 0.000000000000000000, -1.000000000000000000 ) ) ;
#107 = MECHANICAL_DESIGN_GEOMETRIC_PRESENTATION_REPRESENTATION (  '', ( #3 ), #242 ) ;
#108 = AXIS2_PLACEMENT_3D ( 'NONE', #109, #241, #180 ) ;
#109 = CARTESIAN_POINT ( 'NONE',  ( 0.000000000000000000, 0.000000000000000000, 0.000000000000000000 ) ) ;
#110 = LENGTH_MEASURE_WITH_UNIT ( LENGTH_MEASURE( 0.02539999999999999897 ), #292 );
#111 = PRODUCT_DEFINITION_SHAPE ( 'NONE', 'NONE',  #35 ) ;
#112 = DIRECTION ( 'NONE',  ( 4.082155997157844435E-17, 1.000000000000000000, -0.000000000000000000 ) ) ;
#113 = PLANE ( 'NONE',  #225 ) ;
#114 = AXIS2_PLACEMENT_3D ( 'NONE', #159, #233, #139 ) ;
#115 = PRODUCT_DEFINITION_FORMATION_WITH_SPECIFIED_SOURCE ( 'ANY', '', #183, .NOT_KNOWN. ) ;
#116 = DIRECTION ( 'NONE',  ( -1.000000000000000000, 0.000000000000000000, 0.000000000000000000 ) ) ;
#117 = DIRECTION ( 'NONE',  ( -1.000000000000000000, 0.000000000000000000, 0.000000000000000000 ) ) ;
#118 = DIRECTION ( 'NONE',  ( -0.000000000000000000, -1.000000000000000000, -0.000000000000000000 ) ) ;
#119 = CARTESIAN_POINT ( 'NONE',  ( 0.000000000000000000, 0.5000000000000000000, 0.000000000000000000 ) ) ;
#120 = STYLED_ITEM ( 'NONE', ( #239 ), #2 ) ;
#121 = CARTESIAN_POINT ( 'NONE',  ( 2.296212748401287726E-17, 0.5000000000000000000, 0.1875000000000000278 ) ) ;
#122 =( CONVERSION_BASED_UNIT ( 'INCH', #43 ) LENGTH_UNIT ( ) NAMED_UNIT ( #305 ) );
#123 = APPLICATION_PROTOCOL_DEFINITION ( 'draft international standard', 'automotive_design', 1998, #276 ) ;
#124 =( NAMED_UNIT ( * ) PLANE_ANGLE_UNIT ( ) SI_UNIT ( $, .RADIAN. ) );
#125 = UNCERTAINTY_MEASURE_WITH_UNIT (LENGTH_MEASURE( 1.000000000000000082E-05 ), #252, 'distance_accuracy_value', 'NONE');
#126 = VECTOR ( 'NONE', #112, 39.37007874015748143 ) ;
#127 = CARTESIAN_POINT ( 'NONE',  ( 0.1875000000000000278, 0.5000000000000001110, 2.296212748401287109E-17 ) ) ;
#128 = CARTESIAN_POINT ( 'NONE',  ( 0.000000000000000000, 0.5000000000000001110, 0.000000000000000000 ) ) ;
#129 =( NAMED_UNIT ( * ) SI_UNIT ( $, .STERADIAN. ) SOLID_ANGLE_UNIT ( ) );
#130 = DIRECTION ( 'NONE',  ( 0.000000000000000000, 0.000000000000000000, 1.000000000000000000 ) ) ;
#131 = VECTOR ( 'NONE', #204, 39.37007874015748143 ) ;
#132 = FACE_OUTER_BOUND ( 'NONE', #17, .T. ) ;
#133 = FILL_AREA_STYLE_COLOUR ( '', #134 ) ;
#134 = COLOUR_RGB ( '',1.000000000000000000, 0.000000000000000000, 0.000000000000000000 ) ;
#135 = STYLED_ITEM ( 'NONE', ( #143 ), #254 ) ;
#136 = VERTEX_POINT ( 'NONE', #63 ) ;
#137 = ORIENTED_EDGE ( 'NONE', *, *, #67, .F. ) ;
#138 = FILL_AREA_STYLE_COLOUR ( '', #38 ) ;
#139 = DIRECTION ( 'NONE',  ( 1.000000000000000000, -4.082155997157844435E-17, 0.000000000000000000 ) ) ;
#140 = FILL_AREA_STYLE ('',( #28 ) ) ;
#141 = FILL_AREA_STYLE ('',( #256 ) ) ;
#142 = ADVANCED_FACE ( 'NONE', ( #61 ), #20, .T. ) ;
#143 = PRESENTATION_STYLE_ASSIGNMENT (( #7 ) ) ;
#144 = AXIS2_PLACEMENT_3D ( 'NONE', #64, #156, #42 ) ;
#145 = CARTESIAN_POINT ( 'NONE',  ( -0.1874999999999998890, 2.000000000000000000, 0.000000000000000000 ) ) ;
#146 = PRESENTATION_LAYER_ASSIGNMENT (  '', '', ( #297 ) ) ;
#147 = DIRECTION ( 'NONE',  ( 4.082155997157844435E-17, 1.000000000000000000, -0.000000000000000000 ) ) ;
#148 =( LENGTH_UNIT ( ) NAMED_UNIT ( * ) SI_UNIT ( $, .METRE. ) );
#149 =( NAMED_UNIT ( * ) PLANE_ANGLE_UNIT ( ) SI_UNIT ( $, .RADIAN. ) );
#150 = FACE_OUTER_BOUND ( 'NONE', #265, .T. ) ;
#151 = AXIS2_PLACEMENT_3D ( 'NONE', #157, #250, #161 ) ;
#152 = SURFACE_STYLE_USAGE ( .BOTH. , #62 ) ;
#153 =( NAMED_UNIT ( * ) PLANE_ANGLE_UNIT ( ) SI_UNIT ( $, .RADIAN. ) );
#154 = SURFACE_STYLE_USAGE ( .BOTH. , #223 ) ;
#155 = EDGE_CURVE ( 'NONE', #293, #229, #202, .T. ) ;
#156 = DIRECTION ( 'NONE',  ( 0.000000000000000000, -1.000000000000000000, -0.000000000000000000 ) ) ;
#157 = CARTESIAN_POINT ( 'NONE',  ( 6.123233995736766036E-17, 2.000000000000000000, 0.000000000000000000 ) ) ;
#158 = DIRECTION ( 'NONE',  ( -0.000000000000000000, -1.000000000000000000, -0.000000000000000000 ) ) ;
#159 = CARTESIAN_POINT ( 'NONE',  ( 0.1875000000000000278, 2.000000000000000000, 0.000000000000000000 ) ) ;
#160 = DIRECTION ( 'NONE',  ( 0.000000000000000000, 0.000000000000000000, -1.000000000000000000 ) ) ;
#161 = DIRECTION ( 'NONE',  ( -1.000000000000000000, 0.000000000000000000, 0.000000000000000000 ) ) ;
#162 = EDGE_CURVE ( 'NONE', #229, #293, #237, .T. ) ;
#163 =( GEOMETRIC_REPRESENTATION_CONTEXT ( 3 ) GLOBAL_UNCERTAINTY_ASSIGNED_CONTEXT ( ( #39 ) ) GLOBAL_UNIT_ASSIGNED_CONTEXT ( ( #34, #149, #36 ) ) REPRESENTATION_CONTEXT ( 'NONE', 'WORKASPACE' ) );
#164 = EDGE_LOOP ( 'NONE', ( #87, #281, #37, #232 ) ) ;
#165 = VERTEX_POINT ( 'NONE', #184 ) ;
#166 = CIRCLE ( 'NONE', #186, 0.1874999999999999445 ) ;
#167 = PRESENTATION_LAYER_ASSIGNMENT (  '', '', ( #135 ) ) ;
#168 = CIRCLE ( 'NONE', #18, 0.1875000000000000278 ) ;
#169 = SURFACE_STYLE_USAGE ( .BOTH. , #280 ) ;
#170 = SURFACE_STYLE_USAGE ( .BOTH. , #272 ) ;
#171 = ADVANCED_FACE ( 'NONE', ( #260 ), #113, .F. ) ;
#172 = UNCERTAINTY_MEASURE_WITH_UNIT (LENGTH_MEASURE( 1.000000000000000082E-05 ), #266, 'distance_accuracy_value', 'NONE');
#173 =( NAMED_UNIT ( * ) SI_UNIT ( $, .STERADIAN. ) SOLID_ANGLE_UNIT ( ) );
#174 = PLANE ( 'NONE',  #261 ) ;
#175 = DIRECTION ( 'NONE',  ( 4.082155997157844435E-17, 1.000000000000000000, -0.000000000000000000 ) ) ;
#176 = FILL_AREA_STYLE ('',( #80 ) ) ;
#177 =( NAMED_UNIT ( * ) SI_UNIT ( $, .STERADIAN. ) SOLID_ANGLE_UNIT ( ) );
#178 = CIRCLE ( 'NONE', #53, 0.1875000000000000278 ) ;
#179 = FACE_OUTER_BOUND ( 'NONE', #283, .T. ) ;
#180 = DIRECTION ( 'NONE',  ( 0.000000000000000000, 0.000000000000000000, -1.000000000000000000 ) ) ;
#181 = EDGE_CURVE ( 'NONE', #95, #136, #306, .T. ) ;
#182 = PRESENTATION_STYLE_ASSIGNMENT (( #57 ) ) ;
#183 = PRODUCT ( '84307', '84307', '', ( #290 ) ) ;
#184 = CARTESIAN_POINT ( 'NONE',  ( 0.000000000000000000, 0.000000000000000000, -0.1875000000000000278 ) ) ;
#185 = LINE ( 'NONE', #44, #126 ) ;
#186 = AXIS2_PLACEMENT_3D ( 'NONE', #22, #104, #88 ) ;
#187 = FILL_AREA_STYLE ('',( #133 ) ) ;
#188 = CARTESIAN_POINT ( 'NONE',  ( 0.000000000000000000, 0.5000000000000000000, 0.000000000000000000 ) ) ;
#189 =( CONVERSION_BASED_UNIT ( 'INCH', #30 ) LENGTH_UNIT ( ) NAMED_UNIT ( #289 ) );
#190 = CIRCLE ( 'NONE', #248, 0.1875000000000000278 ) ;
#191 = CARTESIAN_POINT ( 'NONE',  ( 2.296212748401287726E-17, 0.000000000000000000, 0.1875000000000000278 ) ) ;
#192 = STYLED_ITEM ( 'NONE', ( #182 ), #70 ) ;
#193 = VECTOR ( 'NONE', #1, 39.37007874015748143 ) ;
#194 = DIRECTION ( 'NONE',  ( -0.000000000000000000, -1.000000000000000000, -0.000000000000000000 ) ) ;
#195 = UNCERTAINTY_MEASURE_WITH_UNIT (LENGTH_MEASURE( 1.000000000000000082E-05 ), #189, 'distance_accuracy_value', 'NONE');
#196 = FILL_AREA_STYLE ('',( #298 ) ) ;
#197 =( CONVERSION_BASED_UNIT ( 'INCH', #110 ) LENGTH_UNIT ( ) NAMED_UNIT ( #309 ) );
#198 = DIRECTION ( 'NONE',  ( 0.000000000000000000, 0.000000000000000000, -1.000000000000000000 ) ) ;
#199 = ORIENTED_EDGE ( 'NONE', *, *, #85, .F. ) ;
#200 = DIRECTION ( 'NONE',  ( 1.000000000000000000, 0.000000000000000000, 0.000000000000000000 ) ) ;
#201 = PRODUCT_DEFINITION_CONTEXT ( 'detailed design', #276, 'design' ) ;
#202 = CIRCLE ( 'NONE', #68, 0.1875000000000000278 ) ;
#203 = LENGTH_MEASURE_WITH_UNIT ( LENGTH_MEASURE( 0.02539999999999999897 ), #222 );
#204 = DIRECTION ( 'NONE',  ( -0.000000000000000000, -1.000000000000000000, -0.000000000000000000 ) ) ;
#205 = DIRECTION ( 'NONE',  ( -1.000000000000000000, 0.000000000000000000, 0.000000000000000000 ) ) ;
#206 = ORIENTED_EDGE ( 'NONE', *, *, #181, .T. ) ;
#207 = CARTESIAN_POINT ( 'NONE',  ( 1.562249773606102102E-34, 0.5000000000000000000, 0.000000000000000000 ) ) ;
#208 = ORIENTED_EDGE ( 'NONE', *, *, #253, .F. ) ;
#209 = AXIS2_PLACEMENT_3D ( 'NONE', #235, #264, #117 ) ;
#210 = DIRECTION ( 'NONE',  ( -1.000000000000000000, 4.082155997157844435E-17, 0.000000000000000000 ) ) ;
#211 = DIRECTION ( 'NONE',  ( 4.082155997157844435E-17, 1.000000000000000000, -0.000000000000000000 ) ) ;
#212 = VECTOR ( 'NONE', #158, 39.37007874015748143 ) ;
#213 = COLOUR_RGB ( '',1.000000000000000000, 0.000000000000000000, 0.000000000000000000 ) ;
#214 = PRODUCT_RELATED_PRODUCT_CATEGORY ( 'part', '', ( #183 ) ) ;
#215 = DIMENSIONAL_EXPONENTS ( 1.000000000000000000, 0.000000000000000000, 0.000000000000000000, 0.000000000000000000, 0.000000000000000000, 0.000000000000000000, 0.000000000000000000 ) ;
#216 = PRESENTATION_LAYER_ASSIGNMENT (  '', '', ( #120 ) ) ;
#217 = SURFACE_SIDE_STYLE ('',( #9 ) ) ;
#218 = AXIS2_PLACEMENT_3D ( 'NONE', #11, #130, #200 ) ;
#219 = DIRECTION ( 'NONE',  ( -0.000000000000000000, -1.000000000000000000, -0.000000000000000000 ) ) ;
#220 = ORIENTED_EDGE ( 'NONE', *, *, #227, .F. ) ;
#221 = DIMENSIONAL_EXPONENTS ( 1.000000000000000000, 0.000000000000000000, 0.000000000000000000, 0.000000000000000000, 0.000000000000000000, 0.000000000000000000, 0.000000000000000000 ) ;
#222 =( LENGTH_UNIT ( ) NAMED_UNIT ( * ) SI_UNIT ( $, .METRE. ) );
#223 = SURFACE_SIDE_STYLE ('',( #91 ) ) ;
#224 = DIMENSIONAL_EXPONENTS ( 1.000000000000000000, 0.000000000000000000, 0.000000000000000000, 0.000000000000000000, 0.000000000000000000, 0.000000000000000000, 0.000000000000000000 ) ;
#225 = AXIS2_PLACEMENT_3D ( 'NONE', #207, #258, #210 ) ;
#226 = LINE ( 'NONE', #72, #193 ) ;
#227 = EDGE_CURVE ( 'NONE', #45, #98, #190, .T. ) ;
#228 = ORIENTED_EDGE ( 'NONE', *, *, #155, .T. ) ;
#229 = VERTEX_POINT ( 'NONE', #94 ) ;
#230 = EDGE_LOOP ( 'NONE', ( #277, #271 ) ) ;
#231 = FILL_AREA_STYLE ('',( #138 ) ) ;
#232 = ORIENTED_EDGE ( 'NONE', *, *, #58, .F. ) ;
#233 = DIRECTION ( 'NONE',  ( -4.082155997157844435E-17, -1.000000000000000000, 0.000000000000000000 ) ) ;
#234 = DIRECTION ( 'NONE',  ( 0.000000000000000000, 0.000000000000000000, -1.000000000000000000 ) ) ;
#235 = CARTESIAN_POINT ( 'NONE',  ( 6.123233995736766036E-17, 2.000000000000000000, 0.000000000000000000 ) ) ;
#236 = CARTESIAN_POINT ( 'NONE',  ( 0.000000000000000000, 0.5000000000000000000, 0.000000000000000000 ) ) ;
#237 = CIRCLE ( 'NONE', #23, 0.1875000000000000278 ) ;
#238 = SURFACE_SIDE_STYLE ('',( #26 ) ) ;
#239 = PRESENTATION_STYLE_ASSIGNMENT (( #169 ) ) ;
#240 = EDGE_CURVE ( 'NONE', #293, #136, #226, .T. ) ;
#241 = DIRECTION ( 'NONE',  ( -0.000000000000000000, -1.000000000000000000, -0.000000000000000000 ) ) ;
#242 =( GEOMETRIC_REPRESENTATION_CONTEXT ( 3 ) GLOBAL_UNCERTAINTY_ASSIGNED_CONTEXT ( ( #125 ) ) GLOBAL_UNIT_ASSIGNED_CONTEXT ( ( #252, #153, #55 ) ) REPRESENTATION_CONTEXT ( 'NONE', 'WORKASPACE' ) );
#243 = ORIENTED_EDGE ( 'NONE', *, *, #162, .T. ) ;
#244 = PRESENTATION_STYLE_ASSIGNMENT (( #152 ) ) ;
#245 = VERTEX_POINT ( 'NONE', #191 ) ;
#246 = UNCERTAINTY_MEASURE_WITH_UNIT (LENGTH_MEASURE( 1.000000000000000082E-05 ), #295, 'distance_accuracy_value', 'NONE');
#247 =( NAMED_UNIT ( * ) PLANE_ANGLE_UNIT ( ) SI_UNIT ( $, .RADIAN. ) );
#248 = AXIS2_PLACEMENT_3D ( 'NONE', #236, #118, #234 ) ;
#249 = MECHANICAL_DESIGN_GEOMETRIC_PRESENTATION_REPRESENTATION (  '', ( #297 ), #163 ) ;
#250 = DIRECTION ( 'NONE',  ( 4.082155997157844435E-17, 1.000000000000000000, -0.000000000000000000 ) ) ;
#251 = LINE ( 'NONE', #16, #131 ) ;
#252 =( CONVERSION_BASED_UNIT ( 'INCH', #21 ) LENGTH_UNIT ( ) NAMED_UNIT ( #224 ) );
#253 = EDGE_CURVE ( 'NONE', #245, #165, #178, .T. ) ;
#254 = ADVANCED_FACE ( 'NONE', ( #74 ), #282, .T. ) ;
#255 =( GEOMETRIC_REPRESENTATION_CONTEXT ( 3 ) GLOBAL_UNCERTAINTY_ASSIGNED_CONTEXT ( ( #291 ) ) GLOBAL_UNIT_ASSIGNED_CONTEXT ( ( #197, #124, #177 ) ) REPRESENTATION_CONTEXT ( 'NONE', 'WORKASPACE' ) );
#256 = FILL_AREA_STYLE_COLOUR ( '', #279 ) ;
#257 =( LENGTH_UNIT ( ) NAMED_UNIT ( * ) SI_UNIT ( $, .METRE. ) );
#258 = DIRECTION ( 'NONE',  ( 4.082155997157844435E-17, 1.000000000000000000, -0.000000000000000000 ) ) ;
#259 = LINE ( 'NONE', #275, #212 ) ;
#260 = FACE_OUTER_BOUND ( 'NONE', #230, .T. ) ;
#261 = AXIS2_PLACEMENT_3D ( 'NONE', #119, #102, #300 ) ;
#262 = MECHANICAL_DESIGN_GEOMETRIC_PRESENTATION_REPRESENTATION (  '', ( #135 ), #46 ) ;
#263 = ORIENTED_EDGE ( 'NONE', *, *, #92, .T. ) ;
#264 = DIRECTION ( 'NONE',  ( 4.082155997157844435E-17, 1.000000000000000000, -0.000000000000000000 ) ) ;
#265 = EDGE_LOOP ( 'NONE', ( #220, #137 ) ) ;
#266 =( CONVERSION_BASED_UNIT ( 'INCH', #79 ) LENGTH_UNIT ( ) NAMED_UNIT ( #41 ) );
#267 = SURFACE_STYLE_FILL_AREA ( #176 ) ;
#268 = MANIFOLD_SOLID_BREP ( 'Revolve - Tool Body (Straight Shanked)', #97 ) ;
#269 = CARTESIAN_POINT ( 'NONE',  ( 0.000000000000000000, 0.000000000000000000, 0.000000000000000000 ) ) ;
#270 = APPLICATION_CONTEXT ( 'automotive_design' ) ;
#271 = ORIENTED_EDGE ( 'NONE', *, *, #155, .F. ) ;
#272 = SURFACE_SIDE_STYLE ('',( #77 ) ) ;
#273 = APPLICATION_PROTOCOL_DEFINITION ( 'draft international standard', 'automotive_design', 1998, #270 ) ;
#274 =( NAMED_UNIT ( * ) SI_UNIT ( $, .STERADIAN. ) SOLID_ANGLE_UNIT ( ) );
#275 = CARTESIAN_POINT ( 'NONE',  ( 2.296212748401287726E-17, 0.000000000000000000, 0.1875000000000000278 ) ) ;
#276 = APPLICATION_CONTEXT ( 'automotive_design' ) ;
#277 = ORIENTED_EDGE ( 'NONE', *, *, #162, .F. ) ;
#278 = ADVANCED_BREP_SHAPE_REPRESENTATION ( '84307', ( #70, #268, #218 ), #60 ) ;
#279 = COLOUR_RGB ( '',0.7921568627450980005, 0.8196078431372548767, 0.9333333333333333481 ) ;
#280 = SURFACE_SIDE_STYLE ('',( #27 ) ) ;
#281 = ORIENTED_EDGE ( 'NONE', *, *, #51, .T. ) ;
#282 = CYLINDRICAL_SURFACE ( 'NONE', #89, 0.1875000000000000278 ) ;
#283 = EDGE_LOOP ( 'NONE', ( #105, #75, #287, #208 ) ) ;
#284 = CARTESIAN_POINT ( 'NONE',  ( 0.000000000000000000, 0.5000000000000001110, 0.000000000000000000 ) ) ;
#285 = CARTESIAN_POINT ( 'NONE',  ( 0.000000000000000000, 0.000000000000000000, 0.000000000000000000 ) ) ;
#286 = CARTESIAN_POINT ( 'NONE',  ( 0.000000000000000000, 0.000000000000000000, 0.000000000000000000 ) ) ;
#287 = ORIENTED_EDGE ( 'NONE', *, *, #58, .T. ) ;
#288 =( NAMED_UNIT ( * ) PLANE_ANGLE_UNIT ( ) SI_UNIT ( $, .RADIAN. ) );
#289 = DIMENSIONAL_EXPONENTS ( 1.000000000000000000, 0.000000000000000000, 0.000000000000000000, 0.000000000000000000, 0.000000000000000000, 0.000000000000000000, 0.000000000000000000 ) ;
#290 = PRODUCT_CONTEXT ( 'NONE', #270, 'mechanical' ) ;
#291 = UNCERTAINTY_MEASURE_WITH_UNIT (LENGTH_MEASURE( 1.000000000000000082E-05 ), #197, 'distance_accuracy_value', 'NONE');
#292 =( LENGTH_UNIT ( ) NAMED_UNIT ( * ) SI_UNIT ( $, .METRE. ) );
#293 = VERTEX_POINT ( 'NONE', #127 ) ;
#294 = DIRECTION ( 'NONE',  ( 0.000000000000000000, 0.000000000000000000, -1.000000000000000000 ) ) ;
#295 =( CONVERSION_BASED_UNIT ( 'INCH', #203 ) LENGTH_UNIT ( ) NAMED_UNIT ( #221 ) );
#296 = MECHANICAL_DESIGN_GEOMETRIC_PRESENTATION_REPRESENTATION (  '', ( #120 ), #19 ) ;
#297 = STYLED_ITEM ( 'NONE', ( #40 ), #268 ) ;
#298 = FILL_AREA_STYLE_COLOUR ( '', #4 ) ;
#299 = PLANE ( 'NONE',  #114 ) ;
#300 = DIRECTION ( 'NONE',  ( 0.000000000000000000, -0.000000000000000000, 1.000000000000000000 ) ) ;
#301 = EDGE_CURVE ( 'NONE', #165, #245, #32, .T. ) ;
#302 = EDGE_LOOP ( 'NONE', ( #78, #25 ) ) ;
#303 = FACE_OUTER_BOUND ( 'NONE', #302, .T. ) ;
#304 = EDGE_LOOP ( 'NONE', ( #84, #228, #8, #82 ) ) ;
#305 = DIMENSIONAL_EXPONENTS ( 1.000000000000000000, 0.000000000000000000, 0.000000000000000000, 0.000000000000000000, 0.000000000000000000, 0.000000000000000000, 0.000000000000000000 ) ;
#306 = CIRCLE ( 'NONE', #76, 0.1874999999999999445 ) ;
#307 = PRESENTATION_LAYER_ASSIGNMENT (  '', '', ( #69 ) ) ;
#308 = ADVANCED_FACE ( 'NONE', ( #179 ), #103, .T. ) ;
#309 = DIMENSIONAL_EXPONENTS ( 1.000000000000000000, 0.000000000000000000, 0.000000000000000000, 0.000000000000000000, 0.000000000000000000, 0.000000000000000000, 0.000000000000000000 ) ;
ENDSEC;
END-ISO-10303-21;
