ISO-10303-21;
HEADER;
FILE_DESCRIPTION (( 'STEP AP214' ),
    '1' );
FILE_NAME ('Micro_RMEM-020-2.STEP',
    '2021-09-02T00:21:26',
    ( '' ),
    ( '' ),
    'SwSTEP 2.0',
    'SolidWorks 2020',
    '' );
FILE_SCHEMA (( 'AUTOMOTIVE_DESIGN' ));
ENDSEC;

DATA;
#1 = CARTESIAN_POINT ( 'NONE',  ( 2.892860668945878169E-17, 0.0000000000000000000, 0.2362200000000000133 ) ) ;
#2 = FILL_AREA_STYLE_COLOUR ( '', #93 ) ;
#3 = EDGE_CURVE ( 'NONE', #85, #296, #81, .T. ) ;
#4 = MECHANICAL_DESIGN_GEOMETRIC_PRESENTATION_REPRESENTATION (  '', ( #83 ), #270 ) ;
#5 = DIRECTION ( 'NONE',  ( 0.0000000000000000000, 0.0000000000000000000, -1.000000000000000000 ) ) ;
#6 = DIRECTION ( 'NONE',  ( 0.0000000000000000000, 0.0000000000000000000, -1.000000000000000000 ) ) ;
#7 = FACE_OUTER_BOUND ( 'NONE', #39, .T. ) ;
#8 = AXIS2_PLACEMENT_3D ( 'NONE', #75, #253, #156 ) ;
#9 = EDGE_CURVE ( 'NONE', #269, #46, #276, .T. ) ;
#10 = EDGE_LOOP ( 'NONE', ( #197, #90, #119, #214 ) ) ;
#11 = DIRECTION ( 'NONE',  ( -1.224646799147353207E-16, -0.0000000000000000000, -1.000000000000000000 ) ) ;
#12 = DIMENSIONAL_EXPONENTS ( 1.000000000000000000, 0.0000000000000000000, 0.0000000000000000000, 0.0000000000000000000, 0.0000000000000000000, 0.0000000000000000000, 0.0000000000000000000 ) ;
#13 = ORIENTED_EDGE ( 'NONE', *, *, #43, .F. ) ;
#14 = CIRCLE ( 'NONE', #177, 0.04405499999999973326 ) ;
#15 = CARTESIAN_POINT ( 'NONE',  ( -0.03933062999999999837, 0.0000000000000000000, 9.633226027589770864E-18 ) ) ;
#16 = CARTESIAN_POINT ( 'NONE',  ( 5.898649710075393742E-34, 0.0000000000000000000, 4.816613013794885432E-18 ) ) ;
#17 = ORIENTED_EDGE ( 'NONE', *, *, #9, .T. ) ;
#18 = AXIS2_PLACEMENT_3D ( 'NONE', #136, #248, #160 ) ;
#19 = DIRECTION ( 'NONE',  ( -1.224646799147353207E-16, -0.0000000000000000000, -1.000000000000000000 ) ) ;
#20 = UNCERTAINTY_MEASURE_WITH_UNIT (LENGTH_MEASURE( 1.000000000000000082E-05 ), #96, 'distance_accuracy_value', 'NONE');
#21 = FACE_OUTER_BOUND ( 'NONE', #10, .T. ) ;
#22 = VECTOR ( 'NONE', #87, 39.37007874015747433 ) ;
#23 =( LENGTH_UNIT ( ) NAMED_UNIT ( * ) SI_UNIT ( $, .METRE. ) );
#24 = EDGE_CURVE ( 'NONE', #35, #46, #86, .T. ) ;
#25 = APPLICATION_CONTEXT ( 'automotive_design' ) ;
#26 = LENGTH_MEASURE_WITH_UNIT ( LENGTH_MEASURE( 0.02539999999999999897 ), #23 );
#27 = DIRECTION ( 'NONE',  ( -1.224646799147353207E-16, -0.0000000000000000000, -1.000000000000000000 ) ) ;
#28 = AXIS2_PLACEMENT_3D ( 'NONE', #74, #5, #92 ) ;
#29 = ADVANCED_FACE ( 'NONE', ( #37 ), #247, .T. ) ;
#30 = DIRECTION ( 'NONE',  ( 1.000000000000000000, 0.0000000000000000000, 0.0000000000000000000 ) ) ;
#31 = CIRCLE ( 'NONE', #89, 0.03933062999999999837 ) ;
#32 = DIRECTION ( 'NONE',  ( -0.0000000000000000000, -0.0000000000000000000, -1.000000000000000000 ) ) ;
#33 = ORIENTED_EDGE ( 'NONE', *, *, #3, .T. ) ;
#34 = DIRECTION ( 'NONE',  ( 1.000000000000000000, 0.0000000000000000000, -0.0000000000000000000 ) ) ;
#35 = VERTEX_POINT ( 'NONE', #111 ) ;
#36 = MECHANICAL_DESIGN_GEOMETRIC_PRESENTATION_REPRESENTATION (  '', ( #265 ), #271 ) ;
#37 = FACE_OUTER_BOUND ( 'NONE', #125, .T. ) ;
#38 =( NAMED_UNIT ( * ) PLANE_ANGLE_UNIT ( ) SI_UNIT ( $, .RADIAN. ) );
#39 = EDGE_LOOP ( 'NONE', ( #153, #33 ) ) ;
#40 = DIRECTION ( 'NONE',  ( 1.000000000000000000, 0.0000000000000000000, 0.0000000000000000000 ) ) ;
#41 = EDGE_LOOP ( 'NONE', ( #224, #244, #69, #240 ) ) ;
#42 = DIMENSIONAL_EXPONENTS ( 1.000000000000000000, 0.0000000000000000000, 0.0000000000000000000, 0.0000000000000000000, 0.0000000000000000000, 0.0000000000000000000, 0.0000000000000000000 ) ;
#43 = EDGE_CURVE ( 'NONE', #241, #35, #31, .T. ) ;
#44 = CARTESIAN_POINT ( 'NONE',  ( -0.03933062999999999837, 0.0000000000000000000, 4.816613013794885432E-18 ) ) ;
#45 = AXIS2_PLACEMENT_3D ( 'NONE', #67, #222, #225 ) ;
#46 = VERTEX_POINT ( 'NONE', #15 ) ;
#47 = CARTESIAN_POINT ( 'NONE',  ( 0.05905500000000000332, 7.232151672364695422E-18, 1.481062999999999574 ) ) ;
#48 = ORIENTED_EDGE ( 'NONE', *, *, #203, .F. ) ;
#49 = DIRECTION ( 'NONE',  ( 1.000000000000000000, 0.0000000000000000000, 0.0000000000000000000 ) ) ;
#50 = EDGE_CURVE ( 'NONE', #46, #269, #148, .T. ) ;
#51 = LINE ( 'NONE', #299, #230 ) ;
#52 = CARTESIAN_POINT ( 'NONE',  ( -0.05905500000000000332, 0.0000000000000000000, 1.481062999999999574 ) ) ;
#53 = DIRECTION ( 'NONE',  ( 1.000000000000000000, 0.0000000000000000000, 0.0000000000000000000 ) ) ;
#54 = VECTOR ( 'NONE', #278, 39.37007874015748143 ) ;
#55 = CARTESIAN_POINT ( 'NONE',  ( -0.04405499999999973326, 0.0000000000000000000, 1.496062999999999921 ) ) ;
#56 = DIRECTION ( 'NONE',  ( 1.224646799147353207E-16, 0.0000000000000000000, 1.000000000000000000 ) ) ;
#57 = EDGE_CURVE ( 'NONE', #85, #58, #176, .T. ) ;
#58 = VERTEX_POINT ( 'NONE', #47 ) ;
#59 =( GEOMETRIC_REPRESENTATION_CONTEXT ( 3 ) GLOBAL_UNCERTAINTY_ASSIGNED_CONTEXT ( ( #231 ) ) GLOBAL_UNIT_ASSIGNED_CONTEXT ( ( #140, #284, #61 ) ) REPRESENTATION_CONTEXT ( 'NONE', 'WORKASPACE' ) );
#60 = CIRCLE ( 'NONE', #126, 0.05905500000000000332 ) ;
#61 =( NAMED_UNIT ( * ) SI_UNIT ( $, .STERADIAN. ) SOLID_ANGLE_UNIT ( ) );
#62 = EDGE_LOOP ( 'NONE', ( #48, #123, #88, #110 ) ) ;
#63 = CARTESIAN_POINT ( 'NONE',  ( 0.0000000000000000000, 0.0000000000000000000, 0.0000000000000000000 ) ) ;
#64 = PRODUCT_CONTEXT ( 'NONE', #25, 'mechanical' ) ;
#65 = CARTESIAN_POINT ( 'NONE',  ( 2.892860668945878169E-17, 0.0000000000000000000, 0.2362200000000000133 ) ) ;
#66 = VECTOR ( 'NONE', #32, 39.37007874015748143 ) ;
#67 = CARTESIAN_POINT ( 'NONE',  ( 0.0000000000000000000, 0.0000000000000000000, 1.496062999999999921 ) ) ;
#68 = VERTEX_POINT ( 'NONE', #127 ) ;
#69 = ORIENTED_EDGE ( 'NONE', *, *, #161, .T. ) ;
#70 = EDGE_CURVE ( 'NONE', #35, #68, #107, .T. ) ;
#71 = CARTESIAN_POINT ( 'NONE',  ( 0.0000000000000000000, 0.0000000000000000000, 0.0000000000000000000 ) ) ;
#72 = CARTESIAN_POINT ( 'NONE',  ( 0.03933063000000001919, 0.0000000000000000000, 0.2362200000000000133 ) ) ;
#73 = ADVANCED_FACE ( 'NONE', ( #171 ), #118, .T. ) ;
#74 = CARTESIAN_POINT ( 'NONE',  ( 0.0000000000000000000, 0.0000000000000000000, 1.496062999999999921 ) ) ;
#75 = CARTESIAN_POINT ( 'NONE',  ( 0.0000000000000000000, 0.0000000000000000000, 0.0000000000000000000 ) ) ;
#76 = EDGE_CURVE ( 'NONE', #296, #193, #272, .T. ) ;
#77 = CARTESIAN_POINT ( 'NONE',  ( 0.0000000000000000000, 0.0000000000000000000, 1.496062999999999921 ) ) ;
#78 = FACE_OUTER_BOUND ( 'NONE', #243, .T. ) ;
#79 = FACE_OUTER_BOUND ( 'NONE', #62, .T. ) ;
#80 = EDGE_CURVE ( 'NONE', #241, #269, #112, .T. ) ;
#81 = CIRCLE ( 'NONE', #109, 0.04405499999999973326 ) ;
#82 = LENGTH_MEASURE_WITH_UNIT ( LENGTH_MEASURE( 0.02539999999999999897 ), #261 );
#83 = STYLED_ITEM ( 'NONE', ( #121 ), #180 ) ;
#84 = DIRECTION ( 'NONE',  ( 1.000000000000000000, 0.0000000000000000000, 0.0000000000000000000 ) ) ;
#85 = VERTEX_POINT ( 'NONE', #114 ) ;
#86 = LINE ( 'NONE', #44, #207 ) ;
#87 = DIRECTION ( 'NONE',  ( -0.1736481776669311639, 2.126576849575783008E-17, 0.9848077530122080203 ) ) ;
#88 = ORIENTED_EDGE ( 'NONE', *, *, #223, .T. ) ;
#89 = AXIS2_PLACEMENT_3D ( 'NONE', #65, #200, #91 ) ;
#90 = ORIENTED_EDGE ( 'NONE', *, *, #103, .F. ) ;
#91 = DIRECTION ( 'NONE',  ( -1.000000000000000000, 0.0000000000000000000, 0.0000000000000000000 ) ) ;
#92 = DIRECTION ( 'NONE',  ( -1.000000000000000000, 0.0000000000000000000, 0.0000000000000000000 ) ) ;
#93 = COLOUR_RGB ( '',0.7921568627450980005, 0.8196078431372548767, 0.9333333333333333481 ) ;
#94 = ADVANCED_FACE ( 'NONE', ( #181 ), #250, .T. ) ;
#95 = SURFACE_STYLE_USAGE ( .BOTH. , #134 ) ;
#96 =( CONVERSION_BASED_UNIT ( 'INCH', #26 ) LENGTH_UNIT ( ) NAMED_UNIT ( #12 ) );
#97 = COLOUR_RGB ( '',0.7921568627450980005, 0.8196078431372548767, 0.9333333333333333481 ) ;
#98 = DIRECTION ( 'NONE',  ( -0.0000000000000000000, -0.0000000000000000000, -1.000000000000000000 ) ) ;
#99 = DIRECTION ( 'NONE',  ( 1.000000000000000000, 0.0000000000000000000, 0.0000000000000000000 ) ) ;
#100 = CYLINDRICAL_SURFACE ( 'NONE', #120, 0.03933062999999999837 ) ;
#101 = FILL_AREA_STYLE ('',( #211 ) ) ;
#102 = DIRECTION ( 'NONE',  ( 1.224646799147353207E-16, 0.0000000000000000000, 1.000000000000000000 ) ) ;
#103 = EDGE_CURVE ( 'NONE', #296, #85, #14, .T. ) ;
#104 = ORIENTED_EDGE ( 'NONE', *, *, #161, .F. ) ;
#105 = CIRCLE ( 'NONE', #135, 0.05905500000000000332 ) ;
#106 = ORIENTED_EDGE ( 'NONE', *, *, #70, .F. ) ;
#107 = LINE ( 'NONE', #292, #22 ) ;
#108 = CARTESIAN_POINT ( 'NONE',  ( 0.0000000000000000000, 0.0000000000000000000, 1.496062999999999921 ) ) ;
#109 = AXIS2_PLACEMENT_3D ( 'NONE', #199, #175, #152 ) ;
#110 = ORIENTED_EDGE ( 'NONE', *, *, #170, .F. ) ;
#111 = CARTESIAN_POINT ( 'NONE',  ( -0.03933062999999997061, 6.024382343079790427E-18, 0.2362200000000000133 ) ) ;
#112 = LINE ( 'NONE', #252, #139 ) ;
#113 = ADVANCED_FACE ( 'NONE', ( #206 ), #115, .T. ) ;
#114 = CARTESIAN_POINT ( 'NONE',  ( 0.04405499999999973326, 6.313666573004162521E-18, 1.496062999999999921 ) ) ;
#115 = CYLINDRICAL_SURFACE ( 'NONE', #18, 0.05905500000000000332 ) ;
#116 =( NAMED_UNIT ( * ) PLANE_ANGLE_UNIT ( ) SI_UNIT ( $, .RADIAN. ) );
#117 = DIRECTION ( 'NONE',  ( -1.000000000000000000, 0.0000000000000000000, 0.0000000000000000000 ) ) ;
#118 = CONICAL_SURFACE ( 'NONE', #242, 0.04405499999999973326, 0.7853981633974491672 ) ;
#119 = ORIENTED_EDGE ( 'NONE', *, *, #76, .T. ) ;
#120 = AXIS2_PLACEMENT_3D ( 'NONE', #168, #238, #233 ) ;
#121 = PRESENTATION_STYLE_ASSIGNMENT (( #236 ) ) ;
#122 = PRODUCT ( 'Micro_RMEM-020-2', 'Micro_RMEM-020-2', '', ( #64 ) ) ;
#123 = ORIENTED_EDGE ( 'NONE', *, *, #70, .T. ) ;
#124 = CARTESIAN_POINT ( 'NONE',  ( 0.0000000000000000000, 0.0000000000000000000, 1.481062999999999574 ) ) ;
#125 = EDGE_LOOP ( 'NONE', ( #130, #293, #185, #104 ) ) ;
#126 = AXIS2_PLACEMENT_3D ( 'NONE', #283, #11, #99 ) ;
#127 = CARTESIAN_POINT ( 'NONE',  ( -0.05905499999999996169, 0.0000000000000000000, 0.3480824609844124784 ) ) ;
#128 = ORIENTED_EDGE ( 'NONE', *, *, #3, .F. ) ;
#129 = ORIENTED_EDGE ( 'NONE', *, *, #50, .F. ) ;
#130 = ORIENTED_EDGE ( 'NONE', *, *, #229, .T. ) ;
#131 = PRESENTATION_LAYER_ASSIGNMENT (  '', '', ( #83 ) ) ;
#132 =( LENGTH_UNIT ( ) NAMED_UNIT ( * ) SI_UNIT ( $, .METRE. ) );
#133 = DIRECTION ( 'NONE',  ( -1.224646799147353207E-16, -0.0000000000000000000, -1.000000000000000000 ) ) ;
#134 = SURFACE_SIDE_STYLE ('',( #274 ) ) ;
#135 = AXIS2_PLACEMENT_3D ( 'NONE', #178, #255, #53 ) ;
#136 = CARTESIAN_POINT ( 'NONE',  ( 0.0000000000000000000, 0.0000000000000000000, 1.496062999999999921 ) ) ;
#137 = DIRECTION ( 'NONE',  ( -1.000000000000000000, 0.0000000000000000000, 0.0000000000000000000 ) ) ;
#138 = CARTESIAN_POINT ( 'NONE',  ( 0.05905500000000000332, 7.232151672364695422E-18, 1.496062999999999921 ) ) ;
#139 = VECTOR ( 'NONE', #208, 39.37007874015748143 ) ;
#140 =( CONVERSION_BASED_UNIT ( 'INCH', #82 ) LENGTH_UNIT ( ) NAMED_UNIT ( #226 ) );
#141 = SURFACE_SIDE_STYLE ('',( #164 ) ) ;
#142 = AXIS2_PLACEMENT_3D ( 'NONE', #16, #297, #246 ) ;
#143 = AXIS2_PLACEMENT_3D ( 'NONE', #71, #202, #279 ) ;
#144 = ORIENTED_EDGE ( 'NONE', *, *, #80, .F. ) ;
#145 = ORIENTED_EDGE ( 'NONE', *, *, #24, .T. ) ;
#146 = DIRECTION ( 'NONE',  ( 0.0000000000000000000, 0.0000000000000000000, 1.000000000000000000 ) ) ;
#147 = EDGE_LOOP ( 'NONE', ( #144, #290, #145, #220 ) ) ;
#148 = CIRCLE ( 'NONE', #287, 0.03933062999999999837 ) ;
#149 = ADVANCED_FACE ( 'NONE', ( #21 ), #182, .T. ) ;
#150 = EDGE_LOOP ( 'NONE', ( #106, #13, #239, #219 ) ) ;
#151 =( NAMED_UNIT ( * ) SI_UNIT ( $, .STERADIAN. ) SOLID_ANGLE_UNIT ( ) );
#152 = DIRECTION ( 'NONE',  ( 1.000000000000000000, 0.0000000000000000000, 0.0000000000000000000 ) ) ;
#153 = ORIENTED_EDGE ( 'NONE', *, *, #103, .T. ) ;
#154 = VECTOR ( 'NONE', #228, 39.37007874015748143 ) ;
#155 = EDGE_LOOP ( 'NONE', ( #128, #267, #266, #289 ) ) ;
#156 = DIRECTION ( 'NONE',  ( 1.000000000000000000, 0.0000000000000000000, -0.0000000000000000000 ) ) ;
#157 = FACE_OUTER_BOUND ( 'NONE', #237, .T. ) ;
#158 = PLANE ( 'NONE',  #8 ) ;
#159 = PRESENTATION_LAYER_ASSIGNMENT (  '', '', ( #265 ) ) ;
#160 = DIRECTION ( 'NONE',  ( -1.000000000000000000, 0.0000000000000000000, 0.0000000000000000000 ) ) ;
#161 = EDGE_CURVE ( 'NONE', #193, #68, #51, .T. ) ;
#162 = CARTESIAN_POINT ( 'NONE',  ( 0.03933062999999999837, 4.816613013794885432E-18, 0.0000000000000000000 ) ) ;
#163 = AXIS2_PLACEMENT_3D ( 'NONE', #179, #27, #183 ) ;
#164 = SURFACE_STYLE_FILL_AREA ( #101 ) ;
#165 = PRODUCT_DEFINITION ( 'UNKNOWN', '', #218, #251 ) ;
#166 = FACE_OUTER_BOUND ( 'NONE', #150, .T. ) ;
#167 = AXIS2_PLACEMENT_3D ( 'NONE', #215, #188, #34 ) ;
#168 = CARTESIAN_POINT ( 'NONE',  ( 0.0000000000000000000, 0.0000000000000000000, 0.0000000000000000000 ) ) ;
#169 = CARTESIAN_POINT ( 'NONE',  ( 0.04405499999999973326, 5.395181473643630390E-18, 1.496062999999999921 ) ) ;
#170 = EDGE_CURVE ( 'NONE', #241, #295, #232, .T. ) ;
#171 = FACE_OUTER_BOUND ( 'NONE', #155, .T. ) ;
#172 = LENGTH_MEASURE_WITH_UNIT ( LENGTH_MEASURE( 0.02539999999999999897 ), #132 );
#173 = CARTESIAN_POINT ( 'NONE',  ( 5.898649710075393742E-34, 0.0000000000000000000, 4.816613013794885432E-18 ) ) ;
#174 =( CONVERSION_BASED_UNIT ( 'INCH', #172 ) LENGTH_UNIT ( ) NAMED_UNIT ( #42 ) );
#175 = DIRECTION ( 'NONE',  ( 0.0000000000000000000, 0.0000000000000000000, 1.000000000000000000 ) ) ;
#176 = LINE ( 'NONE', #169, #277 ) ;
#177 = AXIS2_PLACEMENT_3D ( 'NONE', #77, #273, #49 ) ;
#178 = CARTESIAN_POINT ( 'NONE',  ( 0.0000000000000000000, 0.0000000000000000000, 1.481062999999999574 ) ) ;
#179 = CARTESIAN_POINT ( 'NONE',  ( 4.262780716838941549E-17, 0.0000000000000000000, 0.3480824609844124784 ) ) ;
#180 = ADVANCED_BREP_SHAPE_REPRESENTATION ( 'Micro_RMEM-020-2', ( #234, #209 ), #59 ) ;
#181 = FACE_OUTER_BOUND ( 'NONE', #147, .T. ) ;
#182 = CONICAL_SURFACE ( 'NONE', #28, 0.04405499999999973326, 0.7853981633974491672 ) ;
#183 = DIRECTION ( 'NONE',  ( 1.000000000000000000, 0.0000000000000000000, 0.0000000000000000000 ) ) ;
#184 = CARTESIAN_POINT ( 'NONE',  ( 0.05905500000000004496, 7.232151672364700045E-18, 0.3480824609844124784 ) ) ;
#185 = ORIENTED_EDGE ( 'NONE', *, *, #223, .F. ) ;
#186 = AXIS2_PLACEMENT_3D ( 'NONE', #187, #56, #286 ) ;
#187 = CARTESIAN_POINT ( 'NONE',  ( 2.892860668945878169E-17, 0.0000000000000000000, 0.2362200000000000133 ) ) ;
#188 = DIRECTION ( 'NONE',  ( 0.0000000000000000000, 0.0000000000000000000, 1.000000000000000000 ) ) ;
#189 = ADVANCED_FACE ( 'NONE', ( #157 ), #158, .F. ) ;
#190 = ORIENTED_EDGE ( 'NONE', *, *, #80, .T. ) ;
#191 = LINE ( 'NONE', #138, #66 ) ;
#192 = CIRCLE ( 'NONE', #163, 0.05905500000000000332 ) ;
#193 = VERTEX_POINT ( 'NONE', #52 ) ;
#194 = ORIENTED_EDGE ( 'NONE', *, *, #50, .T. ) ;
#195 = DIRECTION ( 'NONE',  ( -1.000000000000000000, 0.0000000000000000000, 1.224646799147352961E-16 ) ) ;
#196 = DIRECTION ( 'NONE',  ( 0.0000000000000000000, 0.0000000000000000000, -1.000000000000000000 ) ) ;
#197 = ORIENTED_EDGE ( 'NONE', *, *, #57, .F. ) ;
#198 = CIRCLE ( 'NONE', #281, 0.03933062999999999837 ) ;
#199 = CARTESIAN_POINT ( 'NONE',  ( 0.0000000000000000000, 0.0000000000000000000, 1.496062999999999921 ) ) ;
#200 = DIRECTION ( 'NONE',  ( -1.224646799147353207E-16, -0.0000000000000000000, -1.000000000000000000 ) ) ;
#201 = FILL_AREA_STYLE ('',( #2 ) ) ;
#202 = DIRECTION ( 'NONE',  ( -1.224646799147353207E-16, -0.0000000000000000000, -1.000000000000000000 ) ) ;
#203 = EDGE_CURVE ( 'NONE', #35, #241, #198, .T. ) ;
#204 = CARTESIAN_POINT ( 'NONE',  ( 2.892860668945878169E-17, 0.0000000000000000000, 0.2362200000000000133 ) ) ;
#205 = CLOSED_SHELL ( 'NONE', ( #285, #245, #73, #29, #113, #249, #149, #235, #94, #189 ) ) ;
#206 = FACE_OUTER_BOUND ( 'NONE', #41, .T. ) ;
#207 = VECTOR ( 'NONE', #133, 39.37007874015748143 ) ;
#208 = DIRECTION ( 'NONE',  ( -1.224646799147353207E-16, -0.0000000000000000000, -1.000000000000000000 ) ) ;
#209 = AXIS2_PLACEMENT_3D ( 'NONE', #63, #146, #40 ) ;
#210 =( NAMED_UNIT ( * ) SI_UNIT ( $, .STERADIAN. ) SOLID_ANGLE_UNIT ( ) );
#211 = FILL_AREA_STYLE_COLOUR ( '', #97 ) ;
#212 = APPLICATION_PROTOCOL_DEFINITION ( 'draft international standard', 'automotive_design', 1998, #25 ) ;
#213 = CONICAL_SURFACE ( 'NONE', #186, 0.03933062999999999837, 0.1745329251994338637 ) ;
#214 = ORIENTED_EDGE ( 'NONE', *, *, #268, .F. ) ;
#215 = CARTESIAN_POINT ( 'NONE',  ( 0.0000000000000000000, 0.0000000000000000000, 1.496062999999999921 ) ) ;
#216 = ORIENTED_EDGE ( 'NONE', *, *, #203, .T. ) ;
#217 = AXIS2_PLACEMENT_3D ( 'NONE', #204, #102, #30 ) ;
#218 = PRODUCT_DEFINITION_FORMATION_WITH_SPECIFIED_SOURCE ( 'ANY', '', #122, .NOT_KNOWN. ) ;
#219 = ORIENTED_EDGE ( 'NONE', *, *, #275, .T. ) ;
#220 = ORIENTED_EDGE ( 'NONE', *, *, #9, .F. ) ;
#221 = ORIENTED_EDGE ( 'NONE', *, *, #24, .F. ) ;
#222 = DIRECTION ( 'NONE',  ( -0.0000000000000000000, -0.0000000000000000000, -1.000000000000000000 ) ) ;
#223 = EDGE_CURVE ( 'NONE', #68, #295, #192, .T. ) ;
#224 = ORIENTED_EDGE ( 'NONE', *, *, #260, .F. ) ;
#225 = DIRECTION ( 'NONE',  ( -1.000000000000000000, 0.0000000000000000000, 0.0000000000000000000 ) ) ;
#226 = DIMENSIONAL_EXPONENTS ( 1.000000000000000000, 0.0000000000000000000, 0.0000000000000000000, 0.0000000000000000000, 0.0000000000000000000, 0.0000000000000000000, 0.0000000000000000000 ) ;
#227 = CARTESIAN_POINT ( 'NONE',  ( -0.04405499999999973326, 0.0000000000000000000, 1.496062999999999921 ) ) ;
#228 = DIRECTION ( 'NONE',  ( -0.7071067811865482389, 0.0000000000000000000, -0.7071067811865469066 ) ) ;
#229 = EDGE_CURVE ( 'NONE', #193, #58, #105, .T. ) ;
#230 = VECTOR ( 'NONE', #98, 39.37007874015748143 ) ;
#231 = UNCERTAINTY_MEASURE_WITH_UNIT (LENGTH_MEASURE( 1.000000000000000082E-05 ), #140, 'distance_accuracy_value', 'NONE');
#232 = LINE ( 'NONE', #72, #54 ) ;
#233 = DIRECTION ( 'NONE',  ( -1.000000000000000000, 0.0000000000000000000, 1.224646799147352961E-16 ) ) ;
#234 = MANIFOLD_SOLID_BREP ( 'Cut-Revolve1', #205 ) ;
#235 = ADVANCED_FACE ( 'NONE', ( #166 ), #294, .T. ) ;
#236 = SURFACE_STYLE_USAGE ( .BOTH. , #141 ) ;
#237 = EDGE_LOOP ( 'NONE', ( #194, #17 ) ) ;
#238 = DIRECTION ( 'NONE',  ( -1.224646799147353207E-16, -0.0000000000000000000, -1.000000000000000000 ) ) ;
#239 = ORIENTED_EDGE ( 'NONE', *, *, #170, .T. ) ;
#240 = ORIENTED_EDGE ( 'NONE', *, *, #275, .F. ) ;
#241 = VERTEX_POINT ( 'NONE', #280 ) ;
#242 = AXIS2_PLACEMENT_3D ( 'NONE', #108, #196, #137 ) ;
#243 = EDGE_LOOP ( 'NONE', ( #216, #190, #129, #221 ) ) ;
#244 = ORIENTED_EDGE ( 'NONE', *, *, #268, .T. ) ;
#245 = ADVANCED_FACE ( 'NONE', ( #79 ), #213, .T. ) ;
#246 = DIRECTION ( 'NONE',  ( -1.000000000000000000, 0.0000000000000000000, 1.224646799147352961E-16 ) ) ;
#247 = CYLINDRICAL_SURFACE ( 'NONE', #45, 0.05905500000000000332 ) ;
#248 = DIRECTION ( 'NONE',  ( -0.0000000000000000000, -0.0000000000000000000, -1.000000000000000000 ) ) ;
#249 = ADVANCED_FACE ( 'NONE', ( #7 ), #258, .T. ) ;
#250 = CYLINDRICAL_SURFACE ( 'NONE', #143, 0.03933062999999999837 ) ;
#251 = PRODUCT_DEFINITION_CONTEXT ( 'detailed design', #282, 'design' ) ;
#252 = CARTESIAN_POINT ( 'NONE',  ( 0.03933062999999999837, 4.816613013794885432E-18, -4.816613013794885432E-18 ) ) ;
#253 = DIRECTION ( 'NONE',  ( 0.0000000000000000000, 0.0000000000000000000, 1.000000000000000000 ) ) ;
#254 = UNCERTAINTY_MEASURE_WITH_UNIT (LENGTH_MEASURE( 1.000000000000000082E-05 ), #174, 'distance_accuracy_value', 'NONE');
#255 = DIRECTION ( 'NONE',  ( 0.0000000000000000000, 0.0000000000000000000, -1.000000000000000000 ) ) ;
#256 = CIRCLE ( 'NONE', #259, 0.05905500000000000332 ) ;
#257 = PRODUCT_RELATED_PRODUCT_CATEGORY ( 'part', '', ( #122 ) ) ;
#258 = PLANE ( 'NONE',  #167 ) ;
#259 = AXIS2_PLACEMENT_3D ( 'NONE', #124, #6, #84 ) ;
#260 = EDGE_CURVE ( 'NONE', #58, #295, #191, .T. ) ;
#261 =( LENGTH_UNIT ( ) NAMED_UNIT ( * ) SI_UNIT ( $, .METRE. ) );
#262 = DIRECTION ( 'NONE',  ( -1.224646799147353207E-16, -0.0000000000000000000, -1.000000000000000000 ) ) ;
#263 = PRODUCT_DEFINITION_SHAPE ( 'NONE', 'NONE',  #165 ) ;
#264 = DIRECTION ( 'NONE',  ( 0.7071067811865482389, 8.659560562354941486E-17, -0.7071067811865469066 ) ) ;
#265 = STYLED_ITEM ( 'NONE', ( #298 ), #234 ) ;
#266 = ORIENTED_EDGE ( 'NONE', *, *, #229, .F. ) ;
#267 = ORIENTED_EDGE ( 'NONE', *, *, #57, .T. ) ;
#268 = EDGE_CURVE ( 'NONE', #58, #193, #256, .T. ) ;
#269 = VERTEX_POINT ( 'NONE', #162 ) ;
#270 =( GEOMETRIC_REPRESENTATION_CONTEXT ( 3 ) GLOBAL_UNCERTAINTY_ASSIGNED_CONTEXT ( ( #254 ) ) GLOBAL_UNIT_ASSIGNED_CONTEXT ( ( #174, #38, #151 ) ) REPRESENTATION_CONTEXT ( 'NONE', 'WORKASPACE' ) );
#271 =( GEOMETRIC_REPRESENTATION_CONTEXT ( 3 ) GLOBAL_UNCERTAINTY_ASSIGNED_CONTEXT ( ( #20 ) ) GLOBAL_UNIT_ASSIGNED_CONTEXT ( ( #96, #116, #210 ) ) REPRESENTATION_CONTEXT ( 'NONE', 'WORKASPACE' ) );
#272 = LINE ( 'NONE', #227, #154 ) ;
#273 = DIRECTION ( 'NONE',  ( 0.0000000000000000000, 0.0000000000000000000, 1.000000000000000000 ) ) ;
#274 = SURFACE_STYLE_FILL_AREA ( #201 ) ;
#275 = EDGE_CURVE ( 'NONE', #295, #68, #60, .T. ) ;
#276 = CIRCLE ( 'NONE', #142, 0.03933062999999999837 ) ;
#277 = VECTOR ( 'NONE', #264, 39.37007874015748143 ) ;
#278 = DIRECTION ( 'NONE',  ( 0.1736481776669313581, 0.0000000000000000000, 0.9848077530122077983 ) ) ;
#279 = DIRECTION ( 'NONE',  ( -1.000000000000000000, 0.0000000000000000000, 1.224646799147352961E-16 ) ) ;
#280 = CARTESIAN_POINT ( 'NONE',  ( 0.03933063000000001919, 0.0000000000000000000, 0.2362200000000000133 ) ) ;
#281 = AXIS2_PLACEMENT_3D ( 'NONE', #1, #19, #117 ) ;
#282 = APPLICATION_CONTEXT ( 'automotive_design' ) ;
#283 = CARTESIAN_POINT ( 'NONE',  ( 4.262780716838941549E-17, 0.0000000000000000000, 0.3480824609844124784 ) ) ;
#284 =( NAMED_UNIT ( * ) PLANE_ANGLE_UNIT ( ) SI_UNIT ( $, .RADIAN. ) );
#285 = ADVANCED_FACE ( 'NONE', ( #78 ), #100, .T. ) ;
#286 = DIRECTION ( 'NONE',  ( 1.000000000000000000, 0.0000000000000000000, 0.0000000000000000000 ) ) ;
#287 = AXIS2_PLACEMENT_3D ( 'NONE', #173, #262, #195 ) ;
#288 = SHAPE_DEFINITION_REPRESENTATION ( #263, #180 ) ;
#289 = ORIENTED_EDGE ( 'NONE', *, *, #76, .F. ) ;
#290 = ORIENTED_EDGE ( 'NONE', *, *, #43, .T. ) ;
#291 = APPLICATION_PROTOCOL_DEFINITION ( 'draft international standard', 'automotive_design', 1998, #282 ) ;
#292 = CARTESIAN_POINT ( 'NONE',  ( -0.03933062999999997061, 4.816613013794885432E-18, 0.2362200000000000133 ) ) ;
#293 = ORIENTED_EDGE ( 'NONE', *, *, #260, .T. ) ;
#294 = CONICAL_SURFACE ( 'NONE', #217, 0.03933062999999999837, 0.1745329251994338637 ) ;
#295 = VERTEX_POINT ( 'NONE', #184 ) ;
#296 = VERTEX_POINT ( 'NONE', #55 ) ;
#297 = DIRECTION ( 'NONE',  ( -1.224646799147353207E-16, -0.0000000000000000000, -1.000000000000000000 ) ) ;
#298 = PRESENTATION_STYLE_ASSIGNMENT (( #95 ) ) ;
#299 = CARTESIAN_POINT ( 'NONE',  ( -0.05905500000000000332, 0.0000000000000000000, 1.496062999999999921 ) ) ;
ENDSEC;
END-ISO-10303-21;
