ISO-10303-21;
HEADER;
FILE_DESCRIPTION (( 'STEP AP214' ),
    '1' );
FILE_NAME ('Micro_RDD-30.STEP',
    '2021-08-31T15:20:34',
    ( '' ),
    ( '' ),
    'SwSTEP 2.0',
    'SolidWorks 2020',
    '' );
FILE_SCHEMA (( 'AUTOMOTIVE_DESIGN' ));
ENDSEC;

DATA;
#1 = CARTESIAN_POINT ( 'NONE',  ( 0.0000000000000000000, 0.0000000000000000000, 0.0000000000000000000 ) ) ;
#2 = DIRECTION ( 'NONE',  ( 1.000000000000000000, 0.0000000000000000000, 0.0000000000000000000 ) ) ;
#3 = LINE ( 'NONE', #85, #19 ) ;
#4 = CIRCLE ( 'NONE', #304, 0.04750000000000064587 ) ;
#5 = AXIS2_PLACEMENT_3D ( 'NONE', #224, #255, #12 ) ;
#6 = ORIENTED_EDGE ( 'NONE', *, *, #153, .F. ) ;
#7 = EDGE_LOOP ( 'NONE', ( #213, #252, #49, #38 ) ) ;
#8 = ADVANCED_FACE ( 'NONE', ( #42 ), #136, .T. ) ;
#9 = EDGE_CURVE ( 'NONE', #307, #111, #217, .T. ) ;
#10 = DIRECTION ( 'NONE',  ( 0.1736481776669313859, 0.0000000000000000000, 0.9848077530122077983 ) ) ;
#11 = CIRCLE ( 'NONE', #45, 0.06250000000000002776 ) ;
#12 = DIRECTION ( 'NONE',  ( -1.000000000000000000, 0.0000000000000000000, 0.0000000000000000000 ) ) ;
#13 = VERTEX_POINT ( 'NONE', #113 ) ;
#14 = EDGE_CURVE ( 'NONE', #89, #34, #44, .T. ) ;
#15 = ORIENTED_EDGE ( 'NONE', *, *, #262, .F. ) ;
#16 = DIRECTION ( 'NONE',  ( -1.000000000000000000, 0.0000000000000000000, 0.0000000000000000000 ) ) ;
#17 = CIRCLE ( 'NONE', #247, 0.06250000000000002776 ) ;
#18 = VECTOR ( 'NONE', #139, 39.37007874015748854 ) ;
#19 = VECTOR ( 'NONE', #90, 39.37007874015748854 ) ;
#20 = FILL_AREA_STYLE ('',( #95 ) ) ;
#21 = EDGE_LOOP ( 'NONE', ( #261, #282, #187, #216 ) ) ;
#22 = CARTESIAN_POINT ( 'NONE',  ( 4.821444091131313077E-15, 0.0000000000000000000, 39.37007874015748143 ) ) ;
#23 = DIRECTION ( 'NONE',  ( -1.224646799147353454E-16, -0.0000000000000000000, -1.000000000000000000 ) ) ;
#24 = DIRECTION ( 'NONE',  ( 1.000000000000000000, 0.0000000000000000000, 0.0000000000000000000 ) ) ;
#25 = ADVANCED_FACE ( 'NONE', ( #94 ), #59, .T. ) ;
#26 = LINE ( 'NONE', #1, #253 ) ;
#27 = CARTESIAN_POINT ( 'NONE',  ( -0.04750000000000064587, 0.0000000000000000000, 1.500000000000000222 ) ) ;
#28 = UNCERTAINTY_MEASURE_WITH_UNIT (LENGTH_MEASURE( 1.000000000000000082E-05 ), #231, 'distance_accuracy_value', 'NONE');
#29 = CONICAL_SURFACE ( 'NONE', #194, 95.04777804618574066, 1.178097245096175749 ) ;
#30 = CARTESIAN_POINT ( 'NONE',  ( 6.123233995736767268E-17, 0.0000000000000000000, 0.5000000000000000000 ) ) ;
#31 = DIRECTION ( 'NONE',  ( -1.000000000000000000, 0.0000000000000000000, 0.0000000000000000000 ) ) ;
#32 = EDGE_LOOP ( 'NONE', ( #181, #129, #225, #96 ) ) ;
#33 = AXIS2_PLACEMENT_3D ( 'NONE', #30, #303, #77 ) ;
#34 = VERTEX_POINT ( 'NONE', #161 ) ;
#35 = MECHANICAL_DESIGN_GEOMETRIC_PRESENTATION_REPRESENTATION (  '', ( #183 ), #298 ) ;
#36 = ORIENTED_EDGE ( 'NONE', *, *, #52, .F. ) ;
#37 = APPLICATION_PROTOCOL_DEFINITION ( 'draft international standard', 'automotive_design', 1998, #146 ) ;
#38 = ORIENTED_EDGE ( 'NONE', *, *, #299, .T. ) ;
#39 = AXIS2_PLACEMENT_3D ( 'NONE', #267, #239, #236 ) ;
#40 = AXIS2_PLACEMENT_3D ( 'NONE', #265, #186, #268 ) ;
#41 = DIRECTION ( 'NONE',  ( 0.0000000000000000000, 0.0000000000000000000, 1.000000000000000000 ) ) ;
#42 = FACE_OUTER_BOUND ( 'NONE', #32, .T. ) ;
#43 =( CONVERSION_BASED_UNIT ( 'INCH', #207 ) LENGTH_UNIT ( ) NAMED_UNIT ( #223 ) );
#44 = LINE ( 'NONE', #76, #312 ) ;
#45 = AXIS2_PLACEMENT_3D ( 'NONE', #200, #61, #180 ) ;
#46 = PRODUCT_CONTEXT ( 'NONE', #146, 'mechanical' ) ;
#47 = CARTESIAN_POINT ( 'NONE',  ( 0.0000000000000000000, 0.0000000000000000000, 1.500000000000000222 ) ) ;
#48 = SURFACE_STYLE_USAGE ( .BOTH. , #164 ) ;
#49 = ORIENTED_EDGE ( 'NONE', *, *, #321, .T. ) ;
#50 = DIRECTION ( 'NONE',  ( 1.000000000000000000, 0.0000000000000000000, 0.0000000000000000000 ) ) ;
#51 = ADVANCED_FACE ( 'NONE', ( #264 ), #140, .T. ) ;
#52 = EDGE_CURVE ( 'NONE', #13, #116, #292, .T. ) ;
#53 = AXIS2_PLACEMENT_3D ( 'NONE', #193, #56, #302 ) ;
#54 = CYLINDRICAL_SURFACE ( 'NONE', #53, 0.06250000000000002776 ) ;
#55 = DIMENSIONAL_EXPONENTS ( 1.000000000000000000, 0.0000000000000000000, 0.0000000000000000000, 0.0000000000000000000, 0.0000000000000000000, 0.0000000000000000000, 0.0000000000000000000 ) ;
#56 = DIRECTION ( 'NONE',  ( -0.0000000000000000000, -0.0000000000000000000, -1.000000000000000000 ) ) ;
#57 = ADVANCED_FACE ( 'NONE', ( #241 ), #127, .T. ) ;
#58 = DIRECTION ( 'NONE',  ( -1.224646799147353454E-16, -0.0000000000000000000, -1.000000000000000000 ) ) ;
#59 = CONICAL_SURFACE ( 'NONE', #138, 0.04750000000000064587, 0.7853981633974466137 ) ;
#60 = DIRECTION ( 'NONE',  ( 0.0000000000000000000, 0.0000000000000000000, 1.000000000000000000 ) ) ;
#61 = DIRECTION ( 'NONE',  ( 0.0000000000000000000, 0.0000000000000000000, -1.000000000000000000 ) ) ;
#62 = EDGE_CURVE ( 'NONE', #116, #92, #83, .T. ) ;
#63 = STYLED_ITEM ( 'NONE', ( #106 ), #254 ) ;
#64 = EDGE_LOOP ( 'NONE', ( #208, #86 ) ) ;
#65 = CARTESIAN_POINT ( 'NONE',  ( -0.06243749999999993749, 7.650215473423623230E-18, 0.5000000000000000000 ) ) ;
#66 = LENGTH_MEASURE_WITH_UNIT ( LENGTH_MEASURE( 0.02539999999999999897 ), #150 );
#67 = SURFACE_STYLE_FILL_AREA ( #20 ) ;
#68 = CLOSED_SHELL ( 'NONE', ( #122, #250, #214, #289, #8, #159, #51, #25, #135, #57, #288 ) ) ;
#69 = ORIENTED_EDGE ( 'NONE', *, *, #238, .T. ) ;
#70 =( NAMED_UNIT ( * ) SI_UNIT ( $, .STERADIAN. ) SOLID_ANGLE_UNIT ( ) );
#71 = ORIENTED_EDGE ( 'NONE', *, *, #87, .T. ) ;
#72 = EDGE_CURVE ( 'NONE', #307, #116, #165, .T. ) ;
#73 = VERTEX_POINT ( 'NONE', #297 ) ;
#74 =( GEOMETRIC_REPRESENTATION_CONTEXT ( 3 ) GLOBAL_UNCERTAINTY_ASSIGNED_CONTEXT ( ( #28 ) ) GLOBAL_UNIT_ASSIGNED_CONTEXT ( ( #231, #156, #91 ) ) REPRESENTATION_CONTEXT ( 'NONE', 'WORKASPACE' ) );
#75 = DIRECTION ( 'NONE',  ( -1.000000000000000000, 0.0000000000000000000, 1.367291288120251888E-16 ) ) ;
#76 = CARTESIAN_POINT ( 'NONE',  ( 0.06250000000000002776, 7.654042494670959086E-18, 1.500000000000000222 ) ) ;
#77 = DIRECTION ( 'NONE',  ( 1.000000000000000000, 0.0000000000000000000, 0.0000000000000000000 ) ) ;
#78 = AXIS2_PLACEMENT_3D ( 'NONE', #101, #60, #2 ) ;
#79 = FACE_OUTER_BOUND ( 'NONE', #158, .T. ) ;
#80 = DIRECTION ( 'NONE',  ( -1.000000000000000000, 0.0000000000000000000, 1.367291288120251888E-16 ) ) ;
#81 = FILL_AREA_STYLE_COLOUR ( '', #195 ) ;
#82 = UNCERTAINTY_MEASURE_WITH_UNIT (LENGTH_MEASURE( 1.000000000000000082E-05 ), #43, 'distance_accuracy_value', 'NONE');
#83 = CIRCLE ( 'NONE', #93, 0.06243749999999999994 ) ;
#84 =( NAMED_UNIT ( * ) PLANE_ANGLE_UNIT ( ) SI_UNIT ( $, .RADIAN. ) );
#85 = CARTESIAN_POINT ( 'NONE',  ( 0.04750000000000064587, 5.817072295950006528E-18, 1.500000000000000222 ) ) ;
#86 = ORIENTED_EDGE ( 'NONE', *, *, #153, .T. ) ;
#87 = EDGE_CURVE ( 'NONE', #111, #92, #145, .T. ) ;
#88 = DIRECTION ( 'NONE',  ( -1.224646799147353454E-16, -0.0000000000000000000, -1.000000000000000000 ) ) ;
#89 = VERTEX_POINT ( 'NONE', #248 ) ;
#90 = DIRECTION ( 'NONE',  ( 0.7071067811865462405, 8.659560562354916834E-17, -0.7071067811865486830 ) ) ;
#91 =( NAMED_UNIT ( * ) SI_UNIT ( $, .STERADIAN. ) SOLID_ANGLE_UNIT ( ) );
#92 = VERTEX_POINT ( 'NONE', #125 ) ;
#93 = AXIS2_PLACEMENT_3D ( 'NONE', #215, #294, #75 ) ;
#94 = FACE_OUTER_BOUND ( 'NONE', #286, .T. ) ;
#95 = FILL_AREA_STYLE_COLOUR ( '', #305 ) ;
#96 = ORIENTED_EDGE ( 'NONE', *, *, #191, .F. ) ;
#97 = ORIENTED_EDGE ( 'NONE', *, *, #321, .F. ) ;
#98 = CONICAL_SURFACE ( 'NONE', #33, 0.06243749999999999301, 0.1745329251994338915 ) ;
#99 = ORIENTED_EDGE ( 'NONE', *, *, #178, .T. ) ;
#100 = FACE_OUTER_BOUND ( 'NONE', #130, .T. ) ;
#101 = CARTESIAN_POINT ( 'NONE',  ( 0.0000000000000000000, 0.0000000000000000000, 1.500000000000000222 ) ) ;
#102 = LINE ( 'NONE', #218, #210 ) ;
#103 = LINE ( 'NONE', #27, #114 ) ;
#104 = DIRECTION ( 'NONE',  ( -1.224646799147353454E-16, -0.0000000000000000000, -1.000000000000000000 ) ) ;
#105 = CIRCLE ( 'NONE', #78, 0.04750000000000064587 ) ;
#106 = PRESENTATION_STYLE_ASSIGNMENT (( #206 ) ) ;
#107 =( NAMED_UNIT ( * ) SI_UNIT ( $, .STERADIAN. ) SOLID_ANGLE_UNIT ( ) );
#108 = ORIENTED_EDGE ( 'NONE', *, *, #14, .F. ) ;
#109 = CIRCLE ( 'NONE', #293, 0.06250000000000002776 ) ;
#110 = SURFACE_STYLE_FILL_AREA ( #131 ) ;
#111 = VERTEX_POINT ( 'NONE', #222 ) ;
#112 = EDGE_CURVE ( 'NONE', #111, #307, #258, .T. ) ;
#113 = CARTESIAN_POINT ( 'NONE',  ( 0.0000000000000000000, 0.0000000000000000000, 0.0000000000000000000 ) ) ;
#114 = VECTOR ( 'NONE', #271, 39.37007874015748854 ) ;
#115 = DIRECTION ( 'NONE',  ( 1.000000000000000000, 0.0000000000000000000, -0.0000000000000000000 ) ) ;
#116 = VERTEX_POINT ( 'NONE', #166 ) ;
#117 = PRODUCT_DEFINITION_SHAPE ( 'NONE', 'NONE',  #279 ) ;
#118 = ORIENTED_EDGE ( 'NONE', *, *, #240, .T. ) ;
#119 = FACE_OUTER_BOUND ( 'NONE', #7, .T. ) ;
#120 = DIRECTION ( 'NONE',  ( 0.9238795325112879597, 0.0000000000000000000, 0.3826834323650865621 ) ) ;
#121 = CARTESIAN_POINT ( 'NONE',  ( 6.123233995736767268E-17, 0.0000000000000000000, 0.5000000000000000000 ) ) ;
#122 = ADVANCED_FACE ( 'NONE', ( #79 ), #276, .T. ) ;
#123 = CONICAL_SURFACE ( 'NONE', #163, 0.06243749999999999301, 0.1745329251994338915 ) ;
#124 = CARTESIAN_POINT ( 'NONE',  ( 6.123233995736767268E-17, 0.0000000000000000000, 0.5000000000000000000 ) ) ;
#125 = CARTESIAN_POINT ( 'NONE',  ( 0.06243749999999999994, 0.0000000000000000000, 0.02586245930066987525 ) ) ;
#126 = DIRECTION ( 'NONE',  ( -1.000000000000000000, 0.0000000000000000000, 1.224646799147353454E-16 ) ) ;
#127 = CONICAL_SURFACE ( 'NONE', #173, 95.04777804618574066, 1.178097245096175749 ) ;
#128 = CIRCLE ( 'NONE', #266, 0.06250000000000002776 ) ;
#129 = ORIENTED_EDGE ( 'NONE', *, *, #14, .T. ) ;
#130 = EDGE_LOOP ( 'NONE', ( #287, #118, #99, #97 ) ) ;
#131 = FILL_AREA_STYLE ('',( #81 ) ) ;
#132 = ORIENTED_EDGE ( 'NONE', *, *, #62, .F. ) ;
#133 = ADVANCED_BREP_SHAPE_REPRESENTATION ( 'Micro_RDD-30', ( #254, #40 ), #74 ) ;
#134 = DIRECTION ( 'NONE',  ( 1.224646799147353454E-16, 0.0000000000000000000, 1.000000000000000000 ) ) ;
#135 = ADVANCED_FACE ( 'NONE', ( #119 ), #98, .T. ) ;
#136 = CYLINDRICAL_SURFACE ( 'NONE', #39, 0.06250000000000002776 ) ;
#137 = DIRECTION ( 'NONE',  ( -1.000000000000000000, 0.0000000000000000000, 0.0000000000000000000 ) ) ;
#138 = AXIS2_PLACEMENT_3D ( 'NONE', #260, #185, #137 ) ;
#139 = DIRECTION ( 'NONE',  ( -0.9238795325112879597, 1.131426112287701740E-16, 0.3826834323650867842 ) ) ;
#140 = PLANE ( 'NONE',  #226 ) ;
#141 = DIRECTION ( 'NONE',  ( -1.000000000000000000, 0.0000000000000000000, 1.224646799147353454E-16 ) ) ;
#142 = VECTOR ( 'NONE', #23, 39.37007874015748143 ) ;
#143 = LINE ( 'NONE', #220, #148 ) ;
#144 = EDGE_CURVE ( 'NONE', #311, #73, #105, .T. ) ;
#145 = LINE ( 'NONE', #246, #272 ) ;
#146 = APPLICATION_CONTEXT ( 'automotive_design' ) ;
#147 = DIRECTION ( 'NONE',  ( 1.000000000000000000, 0.0000000000000000000, -1.379608302175842567E-16 ) ) ;
#148 = VECTOR ( 'NONE', #320, 39.37007874015747433 ) ;
#149 = CARTESIAN_POINT ( 'NONE',  ( 3.167237800064407203E-18, 0.0000000000000000000, 0.02586245930066988219 ) ) ;
#150 =( LENGTH_UNIT ( ) NAMED_UNIT ( * ) SI_UNIT ( $, .METRE. ) );
#151 = CIRCLE ( 'NONE', #157, 0.06243749999999999994 ) ;
#152 = EDGE_LOOP ( 'NONE', ( #108, #318, #212, #256 ) ) ;
#153 = EDGE_CURVE ( 'NONE', #73, #311, #4, .T. ) ;
#154 = LINE ( 'NONE', #280, #232 ) ;
#155 = EDGE_CURVE ( 'NONE', #89, #160, #17, .T. ) ;
#156 =( NAMED_UNIT ( * ) PLANE_ANGLE_UNIT ( ) SI_UNIT ( $, .RADIAN. ) );
#157 = AXIS2_PLACEMENT_3D ( 'NONE', #149, #323, #80 ) ;
#158 = EDGE_LOOP ( 'NONE', ( #228, #71, #132, #204 ) ) ;
#159 = ADVANCED_FACE ( 'NONE', ( #296 ), #54, .T. ) ;
#160 = VERTEX_POINT ( 'NONE', #221 ) ;
#161 = CARTESIAN_POINT ( 'NONE',  ( 0.06250000000000008327, 7.654042494670966789E-18, 0.5003544551137263374 ) ) ;
#162 = CARTESIAN_POINT ( 'NONE',  ( 0.0000000000000000000, 0.0000000000000000000, 0.0000000000000000000 ) ) ;
#163 = AXIS2_PLACEMENT_3D ( 'NONE', #121, #190, #172 ) ;
#164 = SURFACE_SIDE_STYLE ('',( #67 ) ) ;
#165 = LINE ( 'NONE', #242, #142 ) ;
#166 = CARTESIAN_POINT ( 'NONE',  ( -0.06243749999999999994, 7.646388452176287375E-18, 0.02586245930066989260 ) ) ;
#167 = CARTESIAN_POINT ( 'NONE',  ( 6.127574818941430966E-17, 0.0000000000000000000, 0.5003544551137263374 ) ) ;
#168 = AXIS2_PLACEMENT_3D ( 'NONE', #171, #104, #141 ) ;
#169 = CONICAL_SURFACE ( 'NONE', #5, 0.04750000000000064587, 0.7853981633974466137 ) ;
#170 = DIRECTION ( 'NONE',  ( 0.0000000000000000000, 0.0000000000000000000, 1.000000000000000000 ) ) ;
#171 = CARTESIAN_POINT ( 'NONE',  ( 0.0000000000000000000, 0.0000000000000000000, 0.0000000000000000000 ) ) ;
#172 = DIRECTION ( 'NONE',  ( 1.000000000000000000, 0.0000000000000000000, 0.0000000000000000000 ) ) ;
#173 = AXIS2_PLACEMENT_3D ( 'NONE', #22, #134, #188 ) ;
#174 = CARTESIAN_POINT ( 'NONE',  ( -0.04750000000000064587, 0.0000000000000000000, 1.500000000000000222 ) ) ;
#175 = VERTEX_POINT ( 'NONE', #244 ) ;
#176 = CARTESIAN_POINT ( 'NONE',  ( 6.127574818941430966E-17, 0.0000000000000000000, 0.5003544551137263374 ) ) ;
#177 = ORIENTED_EDGE ( 'NONE', *, *, #300, .F. ) ;
#178 = EDGE_CURVE ( 'NONE', #175, #34, #109, .T. ) ;
#179 = AXIS2_PLACEMENT_3D ( 'NONE', #283, #88, #126 ) ;
#180 = DIRECTION ( 'NONE',  ( 1.000000000000000000, 0.0000000000000000000, 0.0000000000000000000 ) ) ;
#181 = ORIENTED_EDGE ( 'NONE', *, *, #262, .T. ) ;
#182 = EDGE_LOOP ( 'NONE', ( #36, #189, #69 ) ) ;
#183 = STYLED_ITEM ( 'NONE', ( #259 ), #133 ) ;
#184 = ORIENTED_EDGE ( 'NONE', *, *, #155, .F. ) ;
#185 = DIRECTION ( 'NONE',  ( 0.0000000000000000000, 0.0000000000000000000, -1.000000000000000000 ) ) ;
#186 = DIRECTION ( 'NONE',  ( 0.0000000000000000000, 0.0000000000000000000, 1.000000000000000000 ) ) ;
#187 = ORIENTED_EDGE ( 'NONE', *, *, #72, .T. ) ;
#188 = DIRECTION ( 'NONE',  ( 1.000000000000000000, 0.0000000000000000000, -1.379608302175842567E-16 ) ) ;
#189 = ORIENTED_EDGE ( 'NONE', *, *, #192, .T. ) ;
#190 = DIRECTION ( 'NONE',  ( 1.224646799147353454E-16, 0.0000000000000000000, 1.000000000000000000 ) ) ;
#191 = EDGE_CURVE ( 'NONE', #160, #175, #102, .T. ) ;
#192 = EDGE_CURVE ( 'NONE', #13, #92, #26, .T. ) ;
#193 = CARTESIAN_POINT ( 'NONE',  ( 0.0000000000000000000, 0.0000000000000000000, 1.500000000000000222 ) ) ;
#194 = AXIS2_PLACEMENT_3D ( 'NONE', #301, #275, #147 ) ;
#195 = COLOUR_RGB ( '',0.7921568627450980005, 0.8196078431372548767, 0.9333333333333333481 ) ;
#196 = PRESENTATION_LAYER_ASSIGNMENT (  '', '', ( #183 ) ) ;
#197 = UNCERTAINTY_MEASURE_WITH_UNIT (LENGTH_MEASURE( 1.000000000000000082E-05 ), #251, 'distance_accuracy_value', 'NONE');
#198 = APPLICATION_CONTEXT ( 'automotive_design' ) ;
#199 = FACE_OUTER_BOUND ( 'NONE', #284, .T. ) ;
#200 = CARTESIAN_POINT ( 'NONE',  ( 0.0000000000000000000, 0.0000000000000000000, 1.485000000000000764 ) ) ;
#201 = DIRECTION ( 'NONE',  ( -1.224646799147353454E-16, -0.0000000000000000000, -1.000000000000000000 ) ) ;
#202 = DIRECTION ( 'NONE',  ( 1.000000000000000000, 0.0000000000000000000, 0.0000000000000000000 ) ) ;
#203 = EDGE_CURVE ( 'NONE', #311, #160, #103, .T. ) ;
#204 = ORIENTED_EDGE ( 'NONE', *, *, #72, .F. ) ;
#205 = AXIS2_PLACEMENT_3D ( 'NONE', #269, #295, #16 ) ;
#206 = SURFACE_STYLE_USAGE ( .BOTH. , #257 ) ;
#207 = LENGTH_MEASURE_WITH_UNIT ( LENGTH_MEASURE( 0.02539999999999999897 ), #313 );
#208 = ORIENTED_EDGE ( 'NONE', *, *, #144, .T. ) ;
#209 = SHAPE_DEFINITION_REPRESENTATION ( #117, #133 ) ;
#210 = VECTOR ( 'NONE', #319, 39.37007874015748143 ) ;
#211 = PRODUCT_DEFINITION_FORMATION_WITH_SPECIFIED_SOURCE ( 'ANY', '', #285, .NOT_KNOWN. ) ;
#212 = ORIENTED_EDGE ( 'NONE', *, *, #191, .T. ) ;
#213 = ORIENTED_EDGE ( 'NONE', *, *, #240, .F. ) ;
#214 = ADVANCED_FACE ( 'NONE', ( #100 ), #123, .T. ) ;
#215 = CARTESIAN_POINT ( 'NONE',  ( 3.167237800064407203E-18, 0.0000000000000000000, 0.02586245930066988219 ) ) ;
#216 = ORIENTED_EDGE ( 'NONE', *, *, #238, .F. ) ;
#217 = CIRCLE ( 'NONE', #205, 0.06243749999999999301 ) ;
#218 = CARTESIAN_POINT ( 'NONE',  ( -0.06250000000000002776, 0.0000000000000000000, 1.500000000000000222 ) ) ;
#219 = CARTESIAN_POINT ( 'NONE',  ( 0.0000000000000000000, 0.0000000000000000000, 1.485000000000000764 ) ) ;
#220 = CARTESIAN_POINT ( 'NONE',  ( -0.06243749999999993749, 7.646388452176285834E-18, 0.5000000000000000000 ) ) ;
#221 = CARTESIAN_POINT ( 'NONE',  ( -0.06250000000000002776, 0.0000000000000000000, 1.485000000000000764 ) ) ;
#222 = CARTESIAN_POINT ( 'NONE',  ( 0.06243750000000005546, 0.0000000000000000000, 0.5000000000000000000 ) ) ;
#223 = DIMENSIONAL_EXPONENTS ( 1.000000000000000000, 0.0000000000000000000, 0.0000000000000000000, 0.0000000000000000000, 0.0000000000000000000, 0.0000000000000000000, 0.0000000000000000000 ) ;
#224 = CARTESIAN_POINT ( 'NONE',  ( 0.0000000000000000000, 0.0000000000000000000, 1.500000000000000222 ) ) ;
#225 = ORIENTED_EDGE ( 'NONE', *, *, #178, .F. ) ;
#226 = AXIS2_PLACEMENT_3D ( 'NONE', #47, #41, #115 ) ;
#227 = FACE_OUTER_BOUND ( 'NONE', #235, .T. ) ;
#228 = ORIENTED_EDGE ( 'NONE', *, *, #9, .T. ) ;
#229 =( LENGTH_UNIT ( ) NAMED_UNIT ( * ) SI_UNIT ( $, .METRE. ) );
#230 = ORIENTED_EDGE ( 'NONE', *, *, #203, .F. ) ;
#231 =( CONVERSION_BASED_UNIT ( 'INCH', #281 ) LENGTH_UNIT ( ) NAMED_UNIT ( #306 ) );
#232 = VECTOR ( 'NONE', #10, 39.37007874015748143 ) ;
#233 = CYLINDRICAL_SURFACE ( 'NONE', #179, 0.06243749999999999301 ) ;
#234 = ORIENTED_EDGE ( 'NONE', *, *, #300, .T. ) ;
#235 = EDGE_LOOP ( 'NONE', ( #6, #234, #15, #230 ) ) ;
#236 = DIRECTION ( 'NONE',  ( -1.000000000000000000, 0.0000000000000000000, 0.0000000000000000000 ) ) ;
#237 = PRESENTATION_LAYER_ASSIGNMENT (  '', '', ( #63 ) ) ;
#238 = EDGE_CURVE ( 'NONE', #92, #116, #151, .T. ) ;
#239 = DIRECTION ( 'NONE',  ( -0.0000000000000000000, -0.0000000000000000000, -1.000000000000000000 ) ) ;
#240 = EDGE_CURVE ( 'NONE', #307, #175, #143, .T. ) ;
#241 = FACE_OUTER_BOUND ( 'NONE', #182, .T. ) ;
#242 = CARTESIAN_POINT ( 'NONE',  ( -0.06243749999999999301, 0.0000000000000000000, 7.646388452176287375E-18 ) ) ;
#243 = DIRECTION ( 'NONE',  ( 1.000000000000000000, 0.0000000000000000000, 0.0000000000000000000 ) ) ;
#244 = CARTESIAN_POINT ( 'NONE',  ( -0.06249999999999996531, 0.0000000000000000000, 0.5003544551137263374 ) ) ;
#245 = DIRECTION ( 'NONE',  ( -1.224646799147353454E-16, -0.0000000000000000000, -1.000000000000000000 ) ) ;
#246 = CARTESIAN_POINT ( 'NONE',  ( 0.06243749999999999301, 7.646388452176285834E-18, -7.646388452176287375E-18 ) ) ;
#247 = AXIS2_PLACEMENT_3D ( 'NONE', #219, #273, #243 ) ;
#248 = CARTESIAN_POINT ( 'NONE',  ( 0.06250000000000002776, 7.654042494670959086E-18, 1.485000000000000764 ) ) ;
#249 = FACE_OUTER_BOUND ( 'NONE', #21, .T. ) ;
#250 = ADVANCED_FACE ( 'NONE', ( #199 ), #29, .T. ) ;
#251 =( CONVERSION_BASED_UNIT ( 'INCH', #66 ) LENGTH_UNIT ( ) NAMED_UNIT ( #55 ) );
#252 = ORIENTED_EDGE ( 'NONE', *, *, #112, .F. ) ;
#253 = VECTOR ( 'NONE', #120, 39.37007874015748854 ) ;
#254 = MANIFOLD_SOLID_BREP ( 'Cut-Revolve1', #68 ) ;
#255 = DIRECTION ( 'NONE',  ( 0.0000000000000000000, 0.0000000000000000000, -1.000000000000000000 ) ) ;
#256 = ORIENTED_EDGE ( 'NONE', *, *, #299, .F. ) ;
#257 = SURFACE_SIDE_STYLE ('',( #110 ) ) ;
#258 = CIRCLE ( 'NONE', #317, 0.06243749999999999301 ) ;
#259 = PRESENTATION_STYLE_ASSIGNMENT (( #48 ) ) ;
#260 = CARTESIAN_POINT ( 'NONE',  ( 0.0000000000000000000, 0.0000000000000000000, 1.500000000000000222 ) ) ;
#261 = ORIENTED_EDGE ( 'NONE', *, *, #87, .F. ) ;
#262 = EDGE_CURVE ( 'NONE', #160, #89, #11, .T. ) ;
#263 =( NAMED_UNIT ( * ) PLANE_ANGLE_UNIT ( ) SI_UNIT ( $, .RADIAN. ) );
#264 = FACE_OUTER_BOUND ( 'NONE', #64, .T. ) ;
#265 = CARTESIAN_POINT ( 'NONE',  ( 0.0000000000000000000, 0.0000000000000000000, 0.0000000000000000000 ) ) ;
#266 = AXIS2_PLACEMENT_3D ( 'NONE', #176, #309, #202 ) ;
#267 = CARTESIAN_POINT ( 'NONE',  ( 0.0000000000000000000, 0.0000000000000000000, 1.500000000000000222 ) ) ;
#268 = DIRECTION ( 'NONE',  ( 1.000000000000000000, 0.0000000000000000000, 0.0000000000000000000 ) ) ;
#269 = CARTESIAN_POINT ( 'NONE',  ( 6.123233995736767268E-17, 0.0000000000000000000, 0.5000000000000000000 ) ) ;
#270 = CARTESIAN_POINT ( 'NONE',  ( 0.0000000000000000000, 0.0000000000000000000, 1.500000000000000222 ) ) ;
#271 = DIRECTION ( 'NONE',  ( -0.7071067811865462405, 0.0000000000000000000, -0.7071067811865486830 ) ) ;
#272 = VECTOR ( 'NONE', #201, 39.37007874015748143 ) ;
#273 = DIRECTION ( 'NONE',  ( 0.0000000000000000000, 0.0000000000000000000, -1.000000000000000000 ) ) ;
#274 = PRODUCT_RELATED_PRODUCT_CATEGORY ( 'part', '', ( #285 ) ) ;
#275 = DIRECTION ( 'NONE',  ( 1.224646799147353454E-16, 0.0000000000000000000, 1.000000000000000000 ) ) ;
#276 = CYLINDRICAL_SURFACE ( 'NONE', #168, 0.06243749999999999301 ) ;
#277 =( GEOMETRIC_REPRESENTATION_CONTEXT ( 3 ) GLOBAL_UNCERTAINTY_ASSIGNED_CONTEXT ( ( #197 ) ) GLOBAL_UNIT_ASSIGNED_CONTEXT ( ( #251, #84, #107 ) ) REPRESENTATION_CONTEXT ( 'NONE', 'WORKASPACE' ) );
#278 = PRODUCT_DEFINITION_CONTEXT ( 'detailed design', #198, 'design' ) ;
#279 = PRODUCT_DEFINITION ( 'UNKNOWN', '', #211, #278 ) ;
#280 = CARTESIAN_POINT ( 'NONE',  ( 0.06243750000000005546, 0.0000000000000000000, 0.5000000000000000000 ) ) ;
#281 = LENGTH_MEASURE_WITH_UNIT ( LENGTH_MEASURE( 0.02539999999999999897 ), #229 );
#282 = ORIENTED_EDGE ( 'NONE', *, *, #112, .T. ) ;
#283 = CARTESIAN_POINT ( 'NONE',  ( 0.0000000000000000000, 0.0000000000000000000, 0.0000000000000000000 ) ) ;
#284 = EDGE_LOOP ( 'NONE', ( #310, #290, #315 ) ) ;
#285 = PRODUCT ( 'Micro_RDD-30', 'Micro_RDD-30', '', ( #46 ) ) ;
#286 = EDGE_LOOP ( 'NONE', ( #177, #308, #316, #184 ) ) ;
#287 = ORIENTED_EDGE ( 'NONE', *, *, #9, .F. ) ;
#288 = ADVANCED_FACE ( 'NONE', ( #249 ), #233, .T. ) ;
#289 = ADVANCED_FACE ( 'NONE', ( #227 ), #169, .T. ) ;
#290 = ORIENTED_EDGE ( 'NONE', *, *, #52, .T. ) ;
#291 = APPLICATION_PROTOCOL_DEFINITION ( 'draft international standard', 'automotive_design', 1998, #198 ) ;
#292 = LINE ( 'NONE', #162, #18 ) ;
#293 = AXIS2_PLACEMENT_3D ( 'NONE', #167, #245, #24 ) ;
#294 = DIRECTION ( 'NONE',  ( -1.224646799147353454E-16, -0.0000000000000000000, -1.000000000000000000 ) ) ;
#295 = DIRECTION ( 'NONE',  ( -1.224646799147353454E-16, -0.0000000000000000000, -1.000000000000000000 ) ) ;
#296 = FACE_OUTER_BOUND ( 'NONE', #152, .T. ) ;
#297 = CARTESIAN_POINT ( 'NONE',  ( 0.04750000000000064587, 6.735557395310483192E-18, 1.500000000000000222 ) ) ;
#298 =( GEOMETRIC_REPRESENTATION_CONTEXT ( 3 ) GLOBAL_UNCERTAINTY_ASSIGNED_CONTEXT ( ( #82 ) ) GLOBAL_UNIT_ASSIGNED_CONTEXT ( ( #43, #263, #70 ) ) REPRESENTATION_CONTEXT ( 'NONE', 'WORKASPACE' ) );
#299 = EDGE_CURVE ( 'NONE', #34, #175, #128, .T. ) ;
#300 = EDGE_CURVE ( 'NONE', #73, #89, #3, .T. ) ;
#301 = CARTESIAN_POINT ( 'NONE',  ( 4.821444091131313077E-15, 0.0000000000000000000, 39.37007874015748143 ) ) ;
#302 = DIRECTION ( 'NONE',  ( -1.000000000000000000, 0.0000000000000000000, 0.0000000000000000000 ) ) ;
#303 = DIRECTION ( 'NONE',  ( 1.224646799147353454E-16, 0.0000000000000000000, 1.000000000000000000 ) ) ;
#304 = AXIS2_PLACEMENT_3D ( 'NONE', #270, #170, #50 ) ;
#305 = COLOUR_RGB ( '',0.7921568627450980005, 0.8196078431372548767, 0.9333333333333333481 ) ;
#306 = DIMENSIONAL_EXPONENTS ( 1.000000000000000000, 0.0000000000000000000, 0.0000000000000000000, 0.0000000000000000000, 0.0000000000000000000, 0.0000000000000000000, 0.0000000000000000000 ) ;
#307 = VERTEX_POINT ( 'NONE', #65 ) ;
#308 = ORIENTED_EDGE ( 'NONE', *, *, #144, .F. ) ;
#309 = DIRECTION ( 'NONE',  ( -1.224646799147353454E-16, -0.0000000000000000000, -1.000000000000000000 ) ) ;
#310 = ORIENTED_EDGE ( 'NONE', *, *, #192, .F. ) ;
#311 = VERTEX_POINT ( 'NONE', #174 ) ;
#312 = VECTOR ( 'NONE', #314, 39.37007874015748143 ) ;
#313 =( LENGTH_UNIT ( ) NAMED_UNIT ( * ) SI_UNIT ( $, .METRE. ) );
#314 = DIRECTION ( 'NONE',  ( -0.0000000000000000000, -0.0000000000000000000, -1.000000000000000000 ) ) ;
#315 = ORIENTED_EDGE ( 'NONE', *, *, #62, .T. ) ;
#316 = ORIENTED_EDGE ( 'NONE', *, *, #203, .T. ) ;
#317 = AXIS2_PLACEMENT_3D ( 'NONE', #124, #58, #31 ) ;
#318 = ORIENTED_EDGE ( 'NONE', *, *, #155, .T. ) ;
#319 = DIRECTION ( 'NONE',  ( -0.0000000000000000000, -0.0000000000000000000, -1.000000000000000000 ) ) ;
#320 = DIRECTION ( 'NONE',  ( -0.1736481776669311916, 2.126576849575783316E-17, 0.9848077530122080203 ) ) ;
#321 = EDGE_CURVE ( 'NONE', #111, #34, #154, .T. ) ;
#322 = MECHANICAL_DESIGN_GEOMETRIC_PRESENTATION_REPRESENTATION (  '', ( #63 ), #277 ) ;
#323 = DIRECTION ( 'NONE',  ( -1.224646799147353454E-16, -0.0000000000000000000, -1.000000000000000000 ) ) ;
ENDSEC;
END-ISO-10303-21;
