ISO-10303-21;
HEADER;
FILE_DESCRIPTION (( 'STEP AP214' ),
    '1' );
FILE_NAME ('23310.STEP',
    '2023-06-22T16:48:21',
    ( '' ),
    ( '' ),
    'SwSTEP 2.0',
    'SolidWorks 2023',
    '' );
FILE_SCHEMA (( 'AUTOMOTIVE_DESIGN' ));
ENDSEC;

DATA;
#1 =( NAMED_UNIT ( * ) PLANE_ANGLE_UNIT ( ) SI_UNIT ( $, .RADIAN. ) );
#2 = APPLICATION_CONTEXT ( 'automotive_design' ) ;
#3 = PRODUCT_DEFINITION_FORMATION_WITH_SPECIFIED_SOURCE ( 'ANY', '', #39, .NOT_KNOWN. ) ;
#4 = SURFACE_SIDE_STYLE ('',( #78 ) ) ;
#5 = VERTEX_POINT ( 'NONE', #65 ) ;
#6 = DIRECTION ( 'NONE',  ( -1.000000000000000000, 0.000000000000000000, 0.000000000000000000 ) ) ;
#7 = MECHANICAL_DESIGN_GEOMETRIC_PRESENTATION_REPRESENTATION (  '', ( #276 ), #236 ) ;
#8 = COLOUR_RGB ( '',1.000000000000000000, 0.000000000000000000, 0.000000000000000000 ) ;
#9 = LENGTH_MEASURE_WITH_UNIT ( LENGTH_MEASURE( 0.02539999999999999897 ), #143 );
#10 = UNCERTAINTY_MEASURE_WITH_UNIT (LENGTH_MEASURE( 1.000000000000000082E-05 ), #172, 'distance_accuracy_value', 'NONE');
#11 = DIRECTION ( 'NONE',  ( 0.000000000000000000, 0.000000000000000000, -1.000000000000000000 ) ) ;
#12 = DIRECTION ( 'NONE',  ( -0.000000000000000000, -1.000000000000000000, -0.000000000000000000 ) ) ;
#13 =( NAMED_UNIT ( * ) SI_UNIT ( $, .STERADIAN. ) SOLID_ANGLE_UNIT ( ) );
#14 = AXIS2_PLACEMENT_3D ( 'NONE', #297, #188, #248 ) ;
#15 = CYLINDRICAL_SURFACE ( 'NONE', #82, 0.3750000000000001110 ) ;
#16 =( NAMED_UNIT ( * ) PLANE_ANGLE_UNIT ( ) SI_UNIT ( $, .RADIAN. ) );
#17 = SURFACE_STYLE_FILL_AREA ( #225 ) ;
#18 = CIRCLE ( 'NONE', #205, 0.3750000000000001665 ) ;
#19 = AXIS2_PLACEMENT_3D ( 'NONE', #133, #104, #262 ) ;
#20 = SURFACE_STYLE_FILL_AREA ( #199 ) ;
#21 = ORIENTED_EDGE ( 'NONE', *, *, #149, .F. ) ;
#22 = CARTESIAN_POINT ( 'NONE',  ( -0.3750000000000002776, 5.000000000000000000, 0.000000000000000000 ) ) ;
#23 = PLANE ( 'NONE',  #151 ) ;
#24 = FACE_OUTER_BOUND ( 'NONE', #293, .T. ) ;
#25 = CIRCLE ( 'NONE', #74, 0.3750000000000000555 ) ;
#26 = ORIENTED_EDGE ( 'NONE', *, *, #47, .F. ) ;
#27 = ORIENTED_EDGE ( 'NONE', *, *, #237, .T. ) ;
#28 = CYLINDRICAL_SURFACE ( 'NONE', #75, 0.3750000000000000555 ) ;
#29 = SHAPE_DEFINITION_REPRESENTATION ( #295, #109 ) ;
#30 = VERTEX_POINT ( 'NONE', #185 ) ;
#31 = AXIS2_PLACEMENT_3D ( 'NONE', #142, #190, #250 ) ;
#32 = FACE_OUTER_BOUND ( 'NONE', #267, .T. ) ;
#33 = EDGE_CURVE ( 'NONE', #111, #79, #224, .T. ) ;
#34 = CARTESIAN_POINT ( 'NONE',  ( 0.000000000000000000, 0.000000000000000000, 0.000000000000000000 ) ) ;
#35 = PLANE ( 'NONE',  #222 ) ;
#36 = DIRECTION ( 'NONE',  ( -4.453261087808557677E-17, 1.000000000000000000, -0.000000000000000000 ) ) ;
#37 = FILL_AREA_STYLE_COLOUR ( '', #257 ) ;
#38 = AXIS2_PLACEMENT_3D ( 'NONE', #67, #161, #234 ) ;
#39 = PRODUCT ( '23310', '23310', '', ( #232 ) ) ;
#40 =( LENGTH_UNIT ( ) NAMED_UNIT ( * ) SI_UNIT ( $, .METRE. ) );
#41 = CARTESIAN_POINT ( 'NONE',  ( 3.718412684285598933E-34, 2.250000000000000000, 0.000000000000000000 ) ) ;
#42 = LENGTH_MEASURE_WITH_UNIT ( LENGTH_MEASURE( 0.02539999999999999897 ), #275 );
#43 = DIMENSIONAL_EXPONENTS ( 1.000000000000000000, 0.000000000000000000, 0.000000000000000000, 0.000000000000000000, 0.000000000000000000, 0.000000000000000000, 0.000000000000000000 ) ;
#44 = MECHANICAL_DESIGN_GEOMETRIC_PRESENTATION_REPRESENTATION (  '', ( #123 ), #206 ) ;
#45 = PRESENTATION_LAYER_ASSIGNMENT (  '', '', ( #193 ) ) ;
#46 = FILL_AREA_STYLE_COLOUR ( '', #258 ) ;
#47 = EDGE_CURVE ( 'NONE', #5, #111, #174, .T. ) ;
#48 =( LENGTH_UNIT ( ) NAMED_UNIT ( * ) SI_UNIT ( $, .METRE. ) );
#49 = ADVANCED_FACE ( 'NONE', ( #229 ), #189, .T. ) ;
#50 = AXIS2_PLACEMENT_3D ( 'NONE', #209, #12, #98 ) ;
#51 = MECHANICAL_DESIGN_GEOMETRIC_PRESENTATION_REPRESENTATION (  '', ( #193 ), #270 ) ;
#52 = ORIENTED_EDGE ( 'NONE', *, *, #308, .F. ) ;
#53 =( NAMED_UNIT ( * ) SI_UNIT ( $, .STERADIAN. ) SOLID_ANGLE_UNIT ( ) );
#54 =( NAMED_UNIT ( * ) SI_UNIT ( $, .STERADIAN. ) SOLID_ANGLE_UNIT ( ) );
#55 = VERTEX_POINT ( 'NONE', #195 ) ;
#56 = UNCERTAINTY_MEASURE_WITH_UNIT (LENGTH_MEASURE( 1.000000000000000082E-05 ), #150, 'distance_accuracy_value', 'NONE');
#57 =( GEOMETRIC_REPRESENTATION_CONTEXT ( 3 ) GLOBAL_UNCERTAINTY_ASSIGNED_CONTEXT ( ( #198 ) ) GLOBAL_UNIT_ASSIGNED_CONTEXT ( ( #287, #272, #54 ) ) REPRESENTATION_CONTEXT ( 'NONE', 'WORKASPACE' ) );
#58 = ORIENTED_EDGE ( 'NONE', *, *, #86, .T. ) ;
#59 =( NAMED_UNIT ( * ) SI_UNIT ( $, .STERADIAN. ) SOLID_ANGLE_UNIT ( ) );
#60 = SURFACE_STYLE_USAGE ( .BOTH. , #271 ) ;
#61 = ORIENTED_EDGE ( 'NONE', *, *, #228, .T. ) ;
#62 = CARTESIAN_POINT ( 'NONE',  ( 0.000000000000000000, 0.000000000000000000, 0.000000000000000000 ) ) ;
#63 =( CONVERSION_BASED_UNIT ( 'INCH', #160 ) LENGTH_UNIT ( ) NAMED_UNIT ( #281 ) );
#64 =( NAMED_UNIT ( * ) PLANE_ANGLE_UNIT ( ) SI_UNIT ( $, .RADIAN. ) );
#65 = CARTESIAN_POINT ( 'NONE',  ( 0.000000000000000000, 2.250000000000000000, -0.3750000000000000555 ) ) ;
#66 = STYLED_ITEM ( 'NONE', ( #299 ), #49 ) ;
#67 = CARTESIAN_POINT ( 'NONE',  ( 0.000000000000000000, 0.000000000000000000, 0.000000000000000000 ) ) ;
#68 = EDGE_CURVE ( 'NONE', #77, #219, #118, .T. ) ;
#69 = MECHANICAL_DESIGN_GEOMETRIC_PRESENTATION_REPRESENTATION (  '', ( #105 ), #57 ) ;
#70 = CARTESIAN_POINT ( 'NONE',  ( 0.3749999999999999445, 5.000000000000000000, 4.592425496802576068E-17 ) ) ;
#71 = CARTESIAN_POINT ( 'NONE',  ( 1.516480271171051896E-32, 2.250000000000000444, 0.000000000000000000 ) ) ;
#72 = PRESENTATION_LAYER_ASSIGNMENT (  '', '', ( #123 ) ) ;
#73 = LENGTH_MEASURE_WITH_UNIT ( LENGTH_MEASURE( 0.02539999999999999897 ), #48 );
#74 = AXIS2_PLACEMENT_3D ( 'NONE', #71, #36, #145 ) ;
#75 = AXIS2_PLACEMENT_3D ( 'NONE', #62, #226, #223 ) ;
#76 = PRESENTATION_STYLE_ASSIGNMENT (( #141 ) ) ;
#77 = VERTEX_POINT ( 'NONE', #296 ) ;
#78 = SURFACE_STYLE_FILL_AREA ( #291 ) ;
#79 = VERTEX_POINT ( 'NONE', #90 ) ;
#80 =( NAMED_UNIT ( * ) SI_UNIT ( $, .STERADIAN. ) SOLID_ANGLE_UNIT ( ) );
#81 = CLOSED_SHELL ( 'NONE', ( #49, #280, #252, #139 ) ) ;
#82 = AXIS2_PLACEMENT_3D ( 'NONE', #264, #200, #126 ) ;
#83 = ORIENTED_EDGE ( 'NONE', *, *, #202, .T. ) ;
#84 = CARTESIAN_POINT ( 'NONE',  ( 0.000000000000000000, 2.250000000000000000, 0.000000000000000000 ) ) ;
#85 = VERTEX_POINT ( 'NONE', #255 ) ;
#86 = EDGE_CURVE ( 'NONE', #55, #77, #25, .T. ) ;
#87 =( NAMED_UNIT ( * ) PLANE_ANGLE_UNIT ( ) SI_UNIT ( $, .RADIAN. ) );
#88 = CARTESIAN_POINT ( 'NONE',  ( 4.592425496802575451E-17, 0.000000000000000000, 0.3750000000000000555 ) ) ;
#89 = CIRCLE ( 'NONE', #187, 0.3750000000000000555 ) ;
#90 = CARTESIAN_POINT ( 'NONE',  ( 4.592425496802575451E-17, 0.000000000000000000, 0.3750000000000000555 ) ) ;
#91 = SURFACE_SIDE_STYLE ('',( #273 ) ) ;
#92 =( CONVERSION_BASED_UNIT ( 'INCH', #247 ) LENGTH_UNIT ( ) NAMED_UNIT ( #43 ) );
#93 = SURFACE_STYLE_USAGE ( .BOTH. , #169 ) ;
#94 = CARTESIAN_POINT ( 'NONE',  ( -1.224646799147353207E-16, 5.000000000000000000, 0.000000000000000000 ) ) ;
#95 = MECHANICAL_DESIGN_GEOMETRIC_PRESENTATION_REPRESENTATION (  '', ( #66 ), #168 ) ;
#96 = DIRECTION ( 'NONE',  ( -1.000000000000000000, -4.453261087808557677E-17, 0.000000000000000000 ) ) ;
#97 = EDGE_CURVE ( 'NONE', #111, #5, #212, .T. ) ;
#98 = DIRECTION ( 'NONE',  ( 0.000000000000000000, 0.000000000000000000, -1.000000000000000000 ) ) ;
#99 = DIMENSIONAL_EXPONENTS ( 1.000000000000000000, 0.000000000000000000, 0.000000000000000000, 0.000000000000000000, 0.000000000000000000, 0.000000000000000000, 0.000000000000000000 ) ;
#100 =( GEOMETRIC_REPRESENTATION_CONTEXT ( 3 ) GLOBAL_UNCERTAINTY_ASSIGNED_CONTEXT ( ( #10 ) ) GLOBAL_UNIT_ASSIGNED_CONTEXT ( ( #172, #1, #53 ) ) REPRESENTATION_CONTEXT ( 'NONE', 'WORKASPACE' ) );
#101 = PRESENTATION_STYLE_ASSIGNMENT (( #266 ) ) ;
#102 = EDGE_CURVE ( 'NONE', #85, #219, #18, .T. ) ;
#103 = MANIFOLD_SOLID_BREP ( 'Revolve - Tool Body (Straight Shanked)', #217 ) ;
#104 = DIRECTION ( 'NONE',  ( -4.453261087808557677E-17, 1.000000000000000000, -0.000000000000000000 ) ) ;
#105 = STYLED_ITEM ( 'NONE', ( #76 ), #252 ) ;
#106 = ORIENTED_EDGE ( 'NONE', *, *, #86, .F. ) ;
#107 =( LENGTH_UNIT ( ) NAMED_UNIT ( * ) SI_UNIT ( $, .METRE. ) );
#108 = ORIENTED_EDGE ( 'NONE', *, *, #68, .T. ) ;
#109 = ADVANCED_BREP_SHAPE_REPRESENTATION ( '23310', ( #215, #103, #14 ), #124 ) ;
#110 = DIRECTION ( 'NONE',  ( 1.000000000000000000, 4.453261087808557677E-17, 0.000000000000000000 ) ) ;
#111 = VERTEX_POINT ( 'NONE', #218 ) ;
#112 = PRODUCT_DEFINITION_CONTEXT ( 'detailed design', #2, 'design' ) ;
#113 = COLOUR_RGB ( '',0.7921568627450980005, 0.8196078431372548767, 0.9333333333333333481 ) ;
#114 = AXIS2_PLACEMENT_3D ( 'NONE', #41, #147, #96 ) ;
#115 = EDGE_LOOP ( 'NONE', ( #83, #204 ) ) ;
#116 = CARTESIAN_POINT ( 'NONE',  ( -0.3750000000000002220, 5.000000000000000000, 0.000000000000000000 ) ) ;
#117 = FILL_AREA_STYLE ('',( #37 ) ) ;
#118 = LINE ( 'NONE', #116, #186 ) ;
#119 = DIRECTION ( 'NONE',  ( -4.453261087808557677E-17, 1.000000000000000000, -0.000000000000000000 ) ) ;
#120 = CARTESIAN_POINT ( 'NONE',  ( 0.000000000000000000, 0.000000000000000000, 0.000000000000000000 ) ) ;
#121 = DIRECTION ( 'NONE',  ( -1.000000000000000000, 0.000000000000000000, 0.000000000000000000 ) ) ;
#122 = FACE_OUTER_BOUND ( 'NONE', #269, .T. ) ;
#123 = STYLED_ITEM ( 'NONE', ( #305 ), #139 ) ;
#124 =( GEOMETRIC_REPRESENTATION_CONTEXT ( 3 ) GLOBAL_UNCERTAINTY_ASSIGNED_CONTEXT ( ( #56 ) ) GLOBAL_UNIT_ASSIGNED_CONTEXT ( ( #150, #16, #253 ) ) REPRESENTATION_CONTEXT ( 'NONE', 'WORKASPACE' ) );
#125 = DIRECTION ( 'NONE',  ( 0.000000000000000000, -1.000000000000000000, -0.000000000000000000 ) ) ;
#126 = DIRECTION ( 'NONE',  ( -1.000000000000000000, 0.000000000000000000, 0.000000000000000000 ) ) ;
#127 = SURFACE_STYLE_FILL_AREA ( #239 ) ;
#128 = CIRCLE ( 'NONE', #38, 0.3750000000000000555 ) ;
#129 = UNCERTAINTY_MEASURE_WITH_UNIT (LENGTH_MEASURE( 1.000000000000000082E-05 ), #63, 'distance_accuracy_value', 'NONE');
#130 = PRODUCT_DEFINITION ( 'UNKNOWN', '', #3, #112 ) ;
#131 = ORIENTED_EDGE ( 'NONE', *, *, #237, .F. ) ;
#132 = UNCERTAINTY_MEASURE_WITH_UNIT (LENGTH_MEASURE( 1.000000000000000082E-05 ), #302, 'distance_accuracy_value', 'NONE');
#133 = CARTESIAN_POINT ( 'NONE',  ( -1.224646799147353207E-16, 5.000000000000000000, 0.000000000000000000 ) ) ;
#134 = FILL_AREA_STYLE_COLOUR ( '', #8 ) ;
#135 = ORIENTED_EDGE ( 'NONE', *, *, #308, .T. ) ;
#136 = DIRECTION ( 'NONE',  ( -4.453261087808557677E-17, 1.000000000000000000, -0.000000000000000000 ) ) ;
#137 = ORIENTED_EDGE ( 'NONE', *, *, #97, .T. ) ;
#138 =( LENGTH_UNIT ( ) NAMED_UNIT ( * ) SI_UNIT ( $, .METRE. ) );
#139 = ADVANCED_FACE ( 'NONE', ( #298 ), #23, .T. ) ;
#140 = EDGE_LOOP ( 'NONE', ( #61, #246 ) ) ;
#141 = SURFACE_STYLE_USAGE ( .BOTH. , #4 ) ;
#142 = CARTESIAN_POINT ( 'NONE',  ( 0.000000000000000000, 2.250000000000000000, 0.000000000000000000 ) ) ;
#143 =( LENGTH_UNIT ( ) NAMED_UNIT ( * ) SI_UNIT ( $, .METRE. ) );
#144 = DIRECTION ( 'NONE',  ( 0.000000000000000000, -0.000000000000000000, 1.000000000000000000 ) ) ;
#145 = DIRECTION ( 'NONE',  ( -1.000000000000000000, 0.000000000000000000, 0.000000000000000000 ) ) ;
#146 = VECTOR ( 'NONE', #241, 39.37007874015748143 ) ;
#147 = DIRECTION ( 'NONE',  ( -4.453261087808557677E-17, 1.000000000000000000, 0.000000000000000000 ) ) ;
#148 = ADVANCED_FACE ( 'NONE', ( #259 ), #216, .F. ) ;
#149 = EDGE_CURVE ( 'NONE', #79, #30, #128, .T. ) ;
#150 =( CONVERSION_BASED_UNIT ( 'INCH', #42 ) LENGTH_UNIT ( ) NAMED_UNIT ( #261 ) );
#151 = AXIS2_PLACEMENT_3D ( 'NONE', #120, #125, #214 ) ;
#152 = LENGTH_MEASURE_WITH_UNIT ( LENGTH_MEASURE( 0.02539999999999999897 ), #40 );
#153 = PRESENTATION_LAYER_ASSIGNMENT (  '', '', ( #284 ) ) ;
#154 = UNCERTAINTY_MEASURE_WITH_UNIT (LENGTH_MEASURE( 1.000000000000000082E-05 ), #92, 'distance_accuracy_value', 'NONE');
#155 = DIRECTION ( 'NONE',  ( -0.000000000000000000, -1.000000000000000000, -0.000000000000000000 ) ) ;
#156 = EDGE_LOOP ( 'NONE', ( #131, #106 ) ) ;
#157 = FACE_OUTER_BOUND ( 'NONE', #140, .T. ) ;
#158 = ORIENTED_EDGE ( 'NONE', *, *, #202, .F. ) ;
#159 = APPLICATION_PROTOCOL_DEFINITION ( 'draft international standard', 'automotive_design', 1998, #2 ) ;
#160 = LENGTH_MEASURE_WITH_UNIT ( LENGTH_MEASURE( 0.02539999999999999897 ), #265 );
#161 = DIRECTION ( 'NONE',  ( -0.000000000000000000, -1.000000000000000000, -0.000000000000000000 ) ) ;
#162 = SURFACE_STYLE_USAGE ( .BOTH. , #91 ) ;
#163 = CARTESIAN_POINT ( 'NONE',  ( -1.224646799147353207E-16, 5.000000000000000000, 0.000000000000000000 ) ) ;
#164 = PRESENTATION_STYLE_ASSIGNMENT (( #60 ) ) ;
#165 = CIRCLE ( 'NONE', #19, 0.3750000000000001665 ) ;
#166 =( NAMED_UNIT ( * ) PLANE_ANGLE_UNIT ( ) SI_UNIT ( $, .RADIAN. ) );
#167 = ADVANCED_FACE ( 'NONE', ( #122 ), #300, .T. ) ;
#168 =( GEOMETRIC_REPRESENTATION_CONTEXT ( 3 ) GLOBAL_UNCERTAINTY_ASSIGNED_CONTEXT ( ( #286 ) ) GLOBAL_UNIT_ASSIGNED_CONTEXT ( ( #192, #64, #59 ) ) REPRESENTATION_CONTEXT ( 'NONE', 'WORKASPACE' ) );
#169 = SURFACE_SIDE_STYLE ('',( #17 ) ) ;
#170 = CIRCLE ( 'NONE', #201, 0.3750000000000000555 ) ;
#171 = CARTESIAN_POINT ( 'NONE',  ( 1.516480271171051896E-32, 2.250000000000000444, 0.000000000000000000 ) ) ;
#172 =( CONVERSION_BASED_UNIT ( 'INCH', #73 ) LENGTH_UNIT ( ) NAMED_UNIT ( #99 ) );
#173 = ORIENTED_EDGE ( 'NONE', *, *, #33, .T. ) ;
#174 = CIRCLE ( 'NONE', #31, 0.3750000000000000555 ) ;
#175 = AXIS2_PLACEMENT_3D ( 'NONE', #244, #179, #110 ) ;
#176 = EDGE_CURVE ( 'NONE', #55, #85, #278, .T. ) ;
#177 = PLANE ( 'NONE',  #175 ) ;
#178 = ORIENTED_EDGE ( 'NONE', *, *, #176, .T. ) ;
#179 = DIRECTION ( 'NONE',  ( 4.453261087808557677E-17, -1.000000000000000000, 0.000000000000000000 ) ) ;
#180 = ORIENTED_EDGE ( 'NONE', *, *, #68, .F. ) ;
#181 = MECHANICAL_DESIGN_GEOMETRIC_PRESENTATION_REPRESENTATION (  '', ( #284 ), #100 ) ;
#182 = SURFACE_STYLE_FILL_AREA ( #203 ) ;
#183 = CARTESIAN_POINT ( 'NONE',  ( 0.000000000000000000, 0.000000000000000000, -0.3750000000000000555 ) ) ;
#184 = LENGTH_MEASURE_WITH_UNIT ( LENGTH_MEASURE( 0.02539999999999999897 ), #107 );
#185 = CARTESIAN_POINT ( 'NONE',  ( 0.000000000000000000, 0.000000000000000000, -0.3750000000000000555 ) ) ;
#186 = VECTOR ( 'NONE', #211, 39.37007874015748143 ) ;
#187 = AXIS2_PLACEMENT_3D ( 'NONE', #171, #136, #6 ) ;
#188 = DIRECTION ( 'NONE',  ( 0.000000000000000000, 0.000000000000000000, 1.000000000000000000 ) ) ;
#189 = CYLINDRICAL_SURFACE ( 'NONE', #197, 0.3750000000000000555 ) ;
#190 = DIRECTION ( 'NONE',  ( -0.000000000000000000, -1.000000000000000000, -0.000000000000000000 ) ) ;
#191 = PRESENTATION_STYLE_ASSIGNMENT (( #93 ) ) ;
#192 =( CONVERSION_BASED_UNIT ( 'INCH', #9 ) LENGTH_UNIT ( ) NAMED_UNIT ( #196 ) );
#193 = STYLED_ITEM ( 'NONE', ( #164 ), #280 ) ;
#194 = ADVANCED_FACE ( 'NONE', ( #306 ), #15, .T. ) ;
#195 = CARTESIAN_POINT ( 'NONE',  ( 0.3750000000000000555, 2.250000000000000444, 4.592425496802576684E-17 ) ) ;
#196 = DIMENSIONAL_EXPONENTS ( 1.000000000000000000, 0.000000000000000000, 0.000000000000000000, 0.000000000000000000, 0.000000000000000000, 0.000000000000000000, 0.000000000000000000 ) ;
#197 = AXIS2_PLACEMENT_3D ( 'NONE', #34, #231, #11 ) ;
#198 = UNCERTAINTY_MEASURE_WITH_UNIT (LENGTH_MEASURE( 1.000000000000000082E-05 ), #287, 'distance_accuracy_value', 'NONE');
#199 = FILL_AREA_STYLE ('',( #307 ) ) ;
#200 = DIRECTION ( 'NONE',  ( -4.453261087808557677E-17, 1.000000000000000000, -0.000000000000000000 ) ) ;
#201 = AXIS2_PLACEMENT_3D ( 'NONE', #283, #155, #242 ) ;
#202 = EDGE_CURVE ( 'NONE', #30, #79, #170, .T. ) ;
#203 = FILL_AREA_STYLE ('',( #134 ) ) ;
#204 = ORIENTED_EDGE ( 'NONE', *, *, #149, .T. ) ;
#205 = AXIS2_PLACEMENT_3D ( 'NONE', #163, #119, #121 ) ;
#206 =( GEOMETRIC_REPRESENTATION_CONTEXT ( 3 ) GLOBAL_UNCERTAINTY_ASSIGNED_CONTEXT ( ( #129 ) ) GLOBAL_UNIT_ASSIGNED_CONTEXT ( ( #63, #166, #13 ) ) REPRESENTATION_CONTEXT ( 'NONE', 'WORKASPACE' ) );
#207 = DIRECTION ( 'NONE',  ( 0.000000000000000000, 1.000000000000000000, 0.000000000000000000 ) ) ;
#208 = FILL_AREA_STYLE_COLOUR ( '', #245 ) ;
#209 = CARTESIAN_POINT ( 'NONE',  ( 0.000000000000000000, 2.250000000000000000, 0.000000000000000000 ) ) ;
#210 = PRESENTATION_LAYER_ASSIGNMENT (  '', '', ( #276 ) ) ;
#211 = DIRECTION ( 'NONE',  ( -4.453261087808557677E-17, 1.000000000000000000, -0.000000000000000000 ) ) ;
#212 = CIRCLE ( 'NONE', #50, 0.3750000000000000555 ) ;
#213 = LINE ( 'NONE', #183, #251 ) ;
#214 = DIRECTION ( 'NONE',  ( 0.000000000000000000, 0.000000000000000000, -1.000000000000000000 ) ) ;
#215 = MANIFOLD_SOLID_BREP ( 'Revolve - Cutting Edge', #81 ) ;
#216 = PLANE ( 'NONE',  #114 ) ;
#217 = CLOSED_SHELL ( 'NONE', ( #167, #148, #194, #260 ) ) ;
#218 = CARTESIAN_POINT ( 'NONE',  ( 4.592425496802575451E-17, 2.250000000000000000, 0.3750000000000000555 ) ) ;
#219 = VERTEX_POINT ( 'NONE', #22 ) ;
#220 = EDGE_LOOP ( 'NONE', ( #243, #173, #158, #52 ) ) ;
#221 = COLOUR_RGB ( '',1.000000000000000000, 0.000000000000000000, 0.000000000000000000 ) ;
#222 = AXIS2_PLACEMENT_3D ( 'NONE', #84, #207, #144 ) ;
#223 = DIRECTION ( 'NONE',  ( 0.000000000000000000, 0.000000000000000000, -1.000000000000000000 ) ) ;
#224 = LINE ( 'NONE', #88, #294 ) ;
#225 = FILL_AREA_STYLE ('',( #238 ) ) ;
#226 = DIRECTION ( 'NONE',  ( -0.000000000000000000, -1.000000000000000000, -0.000000000000000000 ) ) ;
#227 = APPLICATION_PROTOCOL_DEFINITION ( 'draft international standard', 'automotive_design', 1998, #279 ) ;
#228 = EDGE_CURVE ( 'NONE', #219, #85, #165, .T. ) ;
#229 = FACE_OUTER_BOUND ( 'NONE', #220, .T. ) ;
#230 =( NAMED_UNIT ( * ) SI_UNIT ( $, .STERADIAN. ) SOLID_ANGLE_UNIT ( ) );
#231 = DIRECTION ( 'NONE',  ( -0.000000000000000000, -1.000000000000000000, -0.000000000000000000 ) ) ;
#232 = PRODUCT_CONTEXT ( 'NONE', #279, 'mechanical' ) ;
#233 = DIRECTION ( 'NONE',  ( -0.000000000000000000, -1.000000000000000000, -0.000000000000000000 ) ) ;
#234 = DIRECTION ( 'NONE',  ( 0.000000000000000000, 0.000000000000000000, -1.000000000000000000 ) ) ;
#235 = DIRECTION ( 'NONE',  ( -1.000000000000000000, 0.000000000000000000, 0.000000000000000000 ) ) ;
#236 =( GEOMETRIC_REPRESENTATION_CONTEXT ( 3 ) GLOBAL_UNCERTAINTY_ASSIGNED_CONTEXT ( ( #132 ) ) GLOBAL_UNIT_ASSIGNED_CONTEXT ( ( #302, #290, #80 ) ) REPRESENTATION_CONTEXT ( 'NONE', 'WORKASPACE' ) );
#237 = EDGE_CURVE ( 'NONE', #77, #55, #89, .T. ) ;
#238 = FILL_AREA_STYLE_COLOUR ( '', #113 ) ;
#239 = FILL_AREA_STYLE ('',( #46 ) ) ;
#240 = SURFACE_SIDE_STYLE ('',( #20 ) ) ;
#241 = DIRECTION ( 'NONE',  ( -4.453261087808557677E-17, 1.000000000000000000, -0.000000000000000000 ) ) ;
#242 = DIRECTION ( 'NONE',  ( 0.000000000000000000, 0.000000000000000000, -1.000000000000000000 ) ) ;
#243 = ORIENTED_EDGE ( 'NONE', *, *, #47, .T. ) ;
#244 = CARTESIAN_POINT ( 'NONE',  ( 0.3750000000000000555, 5.000000000000000000, 0.000000000000000000 ) ) ;
#245 = COLOUR_RGB ( '',1.000000000000000000, 0.000000000000000000, 0.000000000000000000 ) ;
#246 = ORIENTED_EDGE ( 'NONE', *, *, #102, .T. ) ;
#247 = LENGTH_MEASURE_WITH_UNIT ( LENGTH_MEASURE( 0.02539999999999999897 ), #138 );
#248 = DIRECTION ( 'NONE',  ( 1.000000000000000000, 0.000000000000000000, 0.000000000000000000 ) ) ;
#249 = ORIENTED_EDGE ( 'NONE', *, *, #176, .F. ) ;
#250 = DIRECTION ( 'NONE',  ( 0.000000000000000000, 0.000000000000000000, -1.000000000000000000 ) ) ;
#251 = VECTOR ( 'NONE', #233, 39.37007874015748143 ) ;
#252 = ADVANCED_FACE ( 'NONE', ( #32 ), #28, .T. ) ;
#253 =( NAMED_UNIT ( * ) SI_UNIT ( $, .STERADIAN. ) SOLID_ANGLE_UNIT ( ) );
#254 = ORIENTED_EDGE ( 'NONE', *, *, #102, .F. ) ;
#255 = CARTESIAN_POINT ( 'NONE',  ( 0.3750000000000000555, 5.000000000000000000, 4.592425496802576684E-17 ) ) ;
#256 = EDGE_LOOP ( 'NONE', ( #249, #58, #108, #254 ) ) ;
#257 = COLOUR_RGB ( '',1.000000000000000000, 0.000000000000000000, 0.000000000000000000 ) ;
#258 = COLOUR_RGB ( '',0.7921568627450980005, 0.8196078431372548767, 0.9333333333333333481 ) ;
#259 = FACE_OUTER_BOUND ( 'NONE', #156, .T. ) ;
#260 = ADVANCED_FACE ( 'NONE', ( #157 ), #177, .F. ) ;
#261 = DIMENSIONAL_EXPONENTS ( 1.000000000000000000, 0.000000000000000000, 0.000000000000000000, 0.000000000000000000, 0.000000000000000000, 0.000000000000000000, 0.000000000000000000 ) ;
#262 = DIRECTION ( 'NONE',  ( -1.000000000000000000, 0.000000000000000000, 0.000000000000000000 ) ) ;
#263 = DIMENSIONAL_EXPONENTS ( 1.000000000000000000, 0.000000000000000000, 0.000000000000000000, 0.000000000000000000, 0.000000000000000000, 0.000000000000000000, 0.000000000000000000 ) ;
#264 = CARTESIAN_POINT ( 'NONE',  ( -1.224646799147353207E-16, 5.000000000000000000, 0.000000000000000000 ) ) ;
#265 =( LENGTH_UNIT ( ) NAMED_UNIT ( * ) SI_UNIT ( $, .METRE. ) );
#266 = SURFACE_STYLE_USAGE ( .BOTH. , #303 ) ;
#267 = EDGE_LOOP ( 'NONE', ( #289, #137, #135, #21 ) ) ;
#268 = PRESENTATION_LAYER_ASSIGNMENT (  '', '', ( #105 ) ) ;
#269 = EDGE_LOOP ( 'NONE', ( #27, #178, #309, #180 ) ) ;
#270 =( GEOMETRIC_REPRESENTATION_CONTEXT ( 3 ) GLOBAL_UNCERTAINTY_ASSIGNED_CONTEXT ( ( #154 ) ) GLOBAL_UNIT_ASSIGNED_CONTEXT ( ( #92, #87, #230 ) ) REPRESENTATION_CONTEXT ( 'NONE', 'WORKASPACE' ) );
#271 = SURFACE_SIDE_STYLE ('',( #182 ) ) ;
#272 =( NAMED_UNIT ( * ) PLANE_ANGLE_UNIT ( ) SI_UNIT ( $, .RADIAN. ) );
#273 = SURFACE_STYLE_FILL_AREA ( #117 ) ;
#274 = DIRECTION ( 'NONE',  ( -0.000000000000000000, -1.000000000000000000, -0.000000000000000000 ) ) ;
#275 =( LENGTH_UNIT ( ) NAMED_UNIT ( * ) SI_UNIT ( $, .METRE. ) );
#276 = STYLED_ITEM ( 'NONE', ( #191 ), #103 ) ;
#277 = DIRECTION ( 'NONE',  ( -4.453261087808557677E-17, 1.000000000000000000, -0.000000000000000000 ) ) ;
#278 = LINE ( 'NONE', #70, #146 ) ;
#279 = APPLICATION_CONTEXT ( 'automotive_design' ) ;
#280 = ADVANCED_FACE ( 'NONE', ( #24 ), #35, .T. ) ;
#281 = DIMENSIONAL_EXPONENTS ( 1.000000000000000000, 0.000000000000000000, 0.000000000000000000, 0.000000000000000000, 0.000000000000000000, 0.000000000000000000, 0.000000000000000000 ) ;
#282 = PRESENTATION_LAYER_ASSIGNMENT (  '', '', ( #66 ) ) ;
#283 = CARTESIAN_POINT ( 'NONE',  ( 0.000000000000000000, 0.000000000000000000, 0.000000000000000000 ) ) ;
#284 = STYLED_ITEM ( 'NONE', ( #101 ), #215 ) ;
#285 = PRODUCT_RELATED_PRODUCT_CATEGORY ( 'part', '', ( #39 ) ) ;
#286 = UNCERTAINTY_MEASURE_WITH_UNIT (LENGTH_MEASURE( 1.000000000000000082E-05 ), #192, 'distance_accuracy_value', 'NONE');
#287 =( CONVERSION_BASED_UNIT ( 'INCH', #184 ) LENGTH_UNIT ( ) NAMED_UNIT ( #301 ) );
#288 = SURFACE_STYLE_USAGE ( .BOTH. , #240 ) ;
#289 = ORIENTED_EDGE ( 'NONE', *, *, #33, .F. ) ;
#290 =( NAMED_UNIT ( * ) PLANE_ANGLE_UNIT ( ) SI_UNIT ( $, .RADIAN. ) );
#291 = FILL_AREA_STYLE ('',( #208 ) ) ;
#292 = ORIENTED_EDGE ( 'NONE', *, *, #97, .F. ) ;
#293 = EDGE_LOOP ( 'NONE', ( #26, #292 ) ) ;
#294 = VECTOR ( 'NONE', #274, 39.37007874015748143 ) ;
#295 = PRODUCT_DEFINITION_SHAPE ( 'NONE', 'NONE',  #130 ) ;
#296 = CARTESIAN_POINT ( 'NONE',  ( -0.3750000000000000555, 2.250000000000000444, 0.000000000000000000 ) ) ;
#297 = CARTESIAN_POINT ( 'NONE',  ( 0.000000000000000000, 0.000000000000000000, 0.000000000000000000 ) ) ;
#298 = FACE_OUTER_BOUND ( 'NONE', #115, .T. ) ;
#299 = PRESENTATION_STYLE_ASSIGNMENT (( #162 ) ) ;
#300 = CYLINDRICAL_SURFACE ( 'NONE', #304, 0.3750000000000001110 ) ;
#301 = DIMENSIONAL_EXPONENTS ( 1.000000000000000000, 0.000000000000000000, 0.000000000000000000, 0.000000000000000000, 0.000000000000000000, 0.000000000000000000, 0.000000000000000000 ) ;
#302 =( CONVERSION_BASED_UNIT ( 'INCH', #152 ) LENGTH_UNIT ( ) NAMED_UNIT ( #263 ) );
#303 = SURFACE_SIDE_STYLE ('',( #127 ) ) ;
#304 = AXIS2_PLACEMENT_3D ( 'NONE', #94, #277, #235 ) ;
#305 = PRESENTATION_STYLE_ASSIGNMENT (( #288 ) ) ;
#306 = FACE_OUTER_BOUND ( 'NONE', #256, .T. ) ;
#307 = FILL_AREA_STYLE_COLOUR ( '', #221 ) ;
#308 = EDGE_CURVE ( 'NONE', #5, #30, #213, .T. ) ;
#309 = ORIENTED_EDGE ( 'NONE', *, *, #228, .F. ) ;
ENDSEC;
END-ISO-10303-21;
