ISO-10303-21;
HEADER;
FILE_DESCRIPTION (( 'STEP AP214' ),
    '1' );
FILE_NAME ('Micro_SFP-125-42.STEP',
    '2021-09-02T06:04:01',
    ( '' ),
    ( '' ),
    'SwSTEP 2.0',
    'SolidWorks 2020',
    '' );
FILE_SCHEMA (( 'AUTOMOTIVE_DESIGN' ));
ENDSEC;

DATA;
#1 = ADVANCED_BREP_SHAPE_REPRESENTATION ( 'Micro_SFP-125-42', ( #181, #277 ), #157 ) ;
#2 = DIRECTION ( 'NONE',  ( -1.224646799147353207E-16, -0.0000000000000000000, -1.000000000000000000 ) ) ;
#3 = ADVANCED_FACE ( 'NONE', ( #236 ), #276, .T. ) ;
#4 = VERTEX_POINT ( 'NONE', #26 ) ;
#5 = DIMENSIONAL_EXPONENTS ( 1.000000000000000000, 0.0000000000000000000, 0.0000000000000000000, 0.0000000000000000000, 0.0000000000000000000, 0.0000000000000000000, 0.0000000000000000000 ) ;
#6 = SURFACE_SIDE_STYLE ('',( #27 ) ) ;
#7 = APPLICATION_PROTOCOL_DEFINITION ( 'draft international standard', 'automotive_design', 1998, #273 ) ;
#8 = CARTESIAN_POINT ( 'NONE',  ( 0.1099999999999996397, 1.347111479062084158E-17, 2.000000000000000000 ) ) ;
#9 = DIRECTION ( 'NONE',  ( 0.0000000000000000000, 0.0000000000000000000, 1.000000000000000000 ) ) ;
#10 = EDGE_CURVE ( 'NONE', #217, #131, #85, .T. ) ;
#11 = DIRECTION ( 'NONE',  ( 0.7071067811865434649, 8.659560562354883554E-17, -0.7071067811865515695 ) ) ;
#12 = ORIENTED_EDGE ( 'NONE', *, *, #248, .F. ) ;
#13 = DIRECTION ( 'NONE',  ( 0.0000000000000000000, 0.0000000000000000000, -1.000000000000000000 ) ) ;
#14 = CARTESIAN_POINT ( 'NONE',  ( 0.0000000000000000000, 0.0000000000000000000, 2.000000000000000000 ) ) ;
#15 = EDGE_CURVE ( 'NONE', #21, #131, #185, .T. ) ;
#16 = ORIENTED_EDGE ( 'NONE', *, *, #291, .F. ) ;
#17 = DIRECTION ( 'NONE',  ( -1.000000000000000000, 0.0000000000000000000, 0.0000000000000000000 ) ) ;
#18 = ORIENTED_EDGE ( 'NONE', *, *, #15, .T. ) ;
#19 = AXIS2_PLACEMENT_3D ( 'NONE', #222, #119, #239 ) ;
#20 = VECTOR ( 'NONE', #55, 39.37007874015748143 ) ;
#21 = VERTEX_POINT ( 'NONE', #133 ) ;
#22 = DIRECTION ( 'NONE',  ( -1.224646799147353207E-16, -0.0000000000000000000, -1.000000000000000000 ) ) ;
#23 = STYLED_ITEM ( 'NONE', ( #172 ), #181 ) ;
#24 = DIMENSIONAL_EXPONENTS ( 1.000000000000000000, 0.0000000000000000000, 0.0000000000000000000, 0.0000000000000000000, 0.0000000000000000000, 0.0000000000000000000, 0.0000000000000000000 ) ;
#25 = SURFACE_STYLE_USAGE ( .BOTH. , #282 ) ;
#26 = CARTESIAN_POINT ( 'NONE',  ( -0.1099999999999996397, 0.0000000000000000000, 2.000000000000000000 ) ) ;
#27 = SURFACE_STYLE_FILL_AREA ( #288 ) ;
#28 = AXIS2_PLACEMENT_3D ( 'NONE', #73, #97, #200 ) ;
#29 = EDGE_CURVE ( 'NONE', #63, #126, #44, .T. ) ;
#30 = EDGE_LOOP ( 'NONE', ( #233, #294, #76, #99 ) ) ;
#31 =( LENGTH_UNIT ( ) NAMED_UNIT ( * ) SI_UNIT ( $, .METRE. ) );
#32 = LINE ( 'NONE', #290, #209 ) ;
#33 = EDGE_LOOP ( 'NONE', ( #81, #140 ) ) ;
#34 = DIRECTION ( 'NONE',  ( 1.000000000000000000, 0.0000000000000000000, 0.0000000000000000000 ) ) ;
#35 = COLOUR_RGB ( '',0.7921568627450980005, 0.8196078431372548767, 0.9333333333333333481 ) ;
#36 = CARTESIAN_POINT ( 'NONE',  ( 0.0000000000000000000, 0.0000000000000000000, 2.000000000000000000 ) ) ;
#37 = CARTESIAN_POINT ( 'NONE',  ( -0.1250000000000000000, 0.0000000000000000000, 1.984999999999999432 ) ) ;
#38 = EDGE_LOOP ( 'NONE', ( #39, #243, #60, #102 ) ) ;
#39 = ORIENTED_EDGE ( 'NONE', *, *, #187, .F. ) ;
#40 = ADVANCED_FACE ( 'NONE', ( #188 ), #280, .T. ) ;
#41 = DIRECTION ( 'NONE',  ( -0.0000000000000000000, -0.0000000000000000000, -1.000000000000000000 ) ) ;
#42 = EDGE_CURVE ( 'NONE', #205, #63, #144, .T. ) ;
#43 = DIRECTION ( 'NONE',  ( 1.000000000000000000, 0.0000000000000000000, -0.0000000000000000000 ) ) ;
#44 = CIRCLE ( 'NONE', #162, 0.06243750000000001382 ) ;
#45 = DIRECTION ( 'NONE',  ( 1.000000000000000000, 0.0000000000000000000, -0.0000000000000000000 ) ) ;
#46 = ORIENTED_EDGE ( 'NONE', *, *, #135, .F. ) ;
#47 = DIRECTION ( 'NONE',  ( 1.000000000000000000, 0.0000000000000000000, 0.0000000000000000000 ) ) ;
#48 = CARTESIAN_POINT ( 'NONE',  ( -0.06243750000000001382, 0.0000000000000000000, 7.646388452176288915E-18 ) ) ;
#49 = CARTESIAN_POINT ( 'NONE',  ( 7.406781025733896371E-17, 0.0000000000000000000, 0.6048095688398309466 ) ) ;
#50 = PRODUCT_DEFINITION_SHAPE ( 'NONE', 'NONE',  #122 ) ;
#51 = CARTESIAN_POINT ( 'NONE',  ( 0.0000000000000000000, 0.0000000000000000000, 0.0000000000000000000 ) ) ;
#52 = CIRCLE ( 'NONE', #196, 0.06243750000000001382 ) ;
#53 = DIRECTION ( 'NONE',  ( -1.224646799147353207E-16, -0.0000000000000000000, -1.000000000000000000 ) ) ;
#54 = ORIENTED_EDGE ( 'NONE', *, *, #42, .F. ) ;
#55 = DIRECTION ( 'NONE',  ( -0.7071067811865434649, 0.0000000000000000000, -0.7071067811865515695 ) ) ;
#56 = DIRECTION ( 'NONE',  ( 1.000000000000000000, 0.0000000000000000000, 0.0000000000000000000 ) ) ;
#57 = VECTOR ( 'NONE', #165, 39.37007874015748143 ) ;
#58 = EDGE_LOOP ( 'NONE', ( #91, #152, #82, #275 ) ) ;
#59 = DIRECTION ( 'NONE',  ( 1.000000000000000000, 0.0000000000000000000, 0.0000000000000000000 ) ) ;
#60 = ORIENTED_EDGE ( 'NONE', *, *, #10, .T. ) ;
#61 = CARTESIAN_POINT ( 'NONE',  ( 0.0000000000000000000, 0.0000000000000000000, 2.000000000000000000 ) ) ;
#62 = UNCERTAINTY_MEASURE_WITH_UNIT (LENGTH_MEASURE( 1.000000000000000082E-05 ), #244, 'distance_accuracy_value', 'NONE');
#63 = VERTEX_POINT ( 'NONE', #216 ) ;
#64 = AXIS2_PLACEMENT_3D ( 'NONE', #161, #256, #43 ) ;
#65 = SURFACE_STYLE_USAGE ( .BOTH. , #6 ) ;
#66 = PRESENTATION_LAYER_ASSIGNMENT (  '', '', ( #182 ) ) ;
#67 = CARTESIAN_POINT ( 'NONE',  ( 3.061616997868383018E-17, 0.0000000000000000000, 0.2500000000000000000 ) ) ;
#68 = CARTESIAN_POINT ( 'NONE',  ( -0.06243750000000001382, 0.0000000000000000000, 1.529277690435257783E-17 ) ) ;
#69 = DIRECTION ( 'NONE',  ( -0.0000000000000000000, -0.0000000000000000000, -1.000000000000000000 ) ) ;
#70 = FACE_OUTER_BOUND ( 'NONE', #252, .T. ) ;
#71 = AXIS2_PLACEMENT_3D ( 'NONE', #74, #69, #173 ) ;
#72 = EDGE_LOOP ( 'NONE', ( #155, #208, #46, #293 ) ) ;
#73 = CARTESIAN_POINT ( 'NONE',  ( 3.061616997868383018E-17, 0.0000000000000000000, 0.2500000000000000000 ) ) ;
#74 = CARTESIAN_POINT ( 'NONE',  ( 0.0000000000000000000, 0.0000000000000000000, 2.000000000000000000 ) ) ;
#75 = DIRECTION ( 'NONE',  ( -1.000000000000000000, 0.0000000000000000000, 0.0000000000000000000 ) ) ;
#76 = ORIENTED_EDGE ( 'NONE', *, *, #93, .F. ) ;
#77 = DIRECTION ( 'NONE',  ( -1.000000000000000000, 0.0000000000000000000, 0.0000000000000000000 ) ) ;
#78 = ORIENTED_EDGE ( 'NONE', *, *, #259, .T. ) ;
#79 = AXIS2_PLACEMENT_3D ( 'NONE', #255, #136, #109 ) ;
#80 = DIRECTION ( 'NONE',  ( 0.0000000000000000000, 0.0000000000000000000, 1.000000000000000000 ) ) ;
#81 = ORIENTED_EDGE ( 'NONE', *, *, #248, .T. ) ;
#82 = ORIENTED_EDGE ( 'NONE', *, *, #135, .T. ) ;
#83 = CIRCLE ( 'NONE', #168, 0.1250000000000000000 ) ;
#84 = VECTOR ( 'NONE', #287, 39.37007874015748143 ) ;
#85 = LINE ( 'NONE', #86, #286 ) ;
#86 = CARTESIAN_POINT ( 'NONE',  ( -0.1250000000000000000, 0.0000000000000000000, 2.000000000000000000 ) ) ;
#87 = EDGE_CURVE ( 'NONE', #268, #217, #113, .T. ) ;
#88 = CARTESIAN_POINT ( 'NONE',  ( 9.364125142994975765E-34, 0.0000000000000000000, 7.646388452176288915E-18 ) ) ;
#89 = DIRECTION ( 'NONE',  ( -0.1736481776669311916, 2.126576849575783316E-17, 0.9848077530122080203 ) ) ;
#90 = CARTESIAN_POINT ( 'NONE',  ( 0.1250000000000000000, 1.530808498934191509E-17, 2.000000000000000000 ) ) ;
#91 = ORIENTED_EDGE ( 'NONE', *, *, #259, .F. ) ;
#92 = APPLICATION_PROTOCOL_DEFINITION ( 'draft international standard', 'automotive_design', 1998, #257 ) ;
#93 = EDGE_CURVE ( 'NONE', #217, #268, #224, .T. ) ;
#94 =( LENGTH_UNIT ( ) NAMED_UNIT ( * ) SI_UNIT ( $, .METRE. ) );
#95 = CYLINDRICAL_SURFACE ( 'NONE', #219, 0.06243750000000001382 ) ;
#96 =( NAMED_UNIT ( * ) PLANE_ANGLE_UNIT ( ) SI_UNIT ( $, .RADIAN. ) );
#97 = DIRECTION ( 'NONE',  ( -1.224646799147353207E-16, -0.0000000000000000000, -1.000000000000000000 ) ) ;
#98 = FACE_OUTER_BOUND ( 'NONE', #38, .T. ) ;
#99 = ORIENTED_EDGE ( 'NONE', *, *, #269, .F. ) ;
#100 = CARTESIAN_POINT ( 'NONE',  ( 0.0000000000000000000, 0.0000000000000000000, 0.0000000000000000000 ) ) ;
#101 = DIRECTION ( 'NONE',  ( -0.0000000000000000000, -0.0000000000000000000, -1.000000000000000000 ) ) ;
#102 = ORIENTED_EDGE ( 'NONE', *, *, #15, .F. ) ;
#103 = EDGE_LOOP ( 'NONE', ( #228, #12, #274, #166 ) ) ;
#104 = CARTESIAN_POINT ( 'NONE',  ( -0.1099999999999996397, 0.0000000000000000000, 2.000000000000000000 ) ) ;
#105 = CIRCLE ( 'NONE', #28, 0.06243749999999999994 ) ;
#106 = PRODUCT_RELATED_PRODUCT_CATEGORY ( 'part', '', ( #292 ) ) ;
#107 = AXIS2_PLACEMENT_3D ( 'NONE', #241, #285, #45 ) ;
#108 = AXIS2_PLACEMENT_3D ( 'NONE', #61, #194, #77 ) ;
#109 = DIRECTION ( 'NONE',  ( 1.000000000000000000, 0.0000000000000000000, 0.0000000000000000000 ) ) ;
#110 = PRESENTATION_STYLE_ASSIGNMENT (( #25 ) ) ;
#111 = UNCERTAINTY_MEASURE_WITH_UNIT (LENGTH_MEASURE( 1.000000000000000082E-05 ), #124, 'distance_accuracy_value', 'NONE');
#112 = FILL_AREA_STYLE_COLOUR ( '', #35 ) ;
#113 = CIRCLE ( 'NONE', #145, 0.1250000000000000000 ) ;
#114 = PRODUCT_DEFINITION_FORMATION_WITH_SPECIFIED_SOURCE ( 'ANY', '', #292, .NOT_KNOWN. ) ;
#115 = SURFACE_STYLE_FILL_AREA ( #235 ) ;
#116 =( NAMED_UNIT ( * ) SI_UNIT ( $, .STERADIAN. ) SOLID_ANGLE_UNIT ( ) );
#117 = CARTESIAN_POINT ( 'NONE',  ( -0.06243749999999997219, 1.147723672075910277E-17, 0.2500000000000000000 ) ) ;
#118 = MECHANICAL_DESIGN_GEOMETRIC_PRESENTATION_REPRESENTATION (  '', ( #23 ), #211 ) ;
#119 = DIRECTION ( 'NONE',  ( 0.0000000000000000000, 0.0000000000000000000, -1.000000000000000000 ) ) ;
#120 = CIRCLE ( 'NONE', #138, 0.1099999999999996397 ) ;
#121 = FACE_OUTER_BOUND ( 'NONE', #123, .T. ) ;
#122 = PRODUCT_DEFINITION ( 'UNKNOWN', '', #114, #261 ) ;
#123 = EDGE_LOOP ( 'NONE', ( #142, #240 ) ) ;
#124 =( CONVERSION_BASED_UNIT ( 'INCH', #164 ) LENGTH_UNIT ( ) NAMED_UNIT ( #5 ) );
#125 = CONICAL_SURFACE ( 'NONE', #108, 0.1099999999999996397, 0.7853981633974426169 ) ;
#126 = VERTEX_POINT ( 'NONE', #68 ) ;
#127 = DIRECTION ( 'NONE',  ( 1.000000000000000000, 0.0000000000000000000, 0.0000000000000000000 ) ) ;
#128 = CARTESIAN_POINT ( 'NONE',  ( 0.06243750000000003464, 0.0000000000000000000, 0.2500000000000000000 ) ) ;
#129 = VERTEX_POINT ( 'NONE', #246 ) ;
#130 = PRESENTATION_LAYER_ASSIGNMENT (  '', '', ( #23 ) ) ;
#131 = VERTEX_POINT ( 'NONE', #146 ) ;
#132 = LINE ( 'NONE', #48, #84 ) ;
#133 = CARTESIAN_POINT ( 'NONE',  ( 0.1250000000000000555, 1.530808498934192125E-17, 0.6048095688398309466 ) ) ;
#134 = CONICAL_SURFACE ( 'NONE', #202, 0.06243749999999999994, 0.1745329251994338915 ) ;
#135 = EDGE_CURVE ( 'NONE', #131, #21, #83, .T. ) ;
#136 = DIRECTION ( 'NONE',  ( 1.224646799147353207E-16, 0.0000000000000000000, 1.000000000000000000 ) ) ;
#137 =( LENGTH_UNIT ( ) NAMED_UNIT ( * ) SI_UNIT ( $, .METRE. ) );
#138 = AXIS2_PLACEMENT_3D ( 'NONE', #36, #229, #178 ) ;
#139 =( CONVERSION_BASED_UNIT ( 'INCH', #266 ) LENGTH_UNIT ( ) NAMED_UNIT ( #159 ) );
#140 = ORIENTED_EDGE ( 'NONE', *, *, #193, .T. ) ;
#141 = CARTESIAN_POINT ( 'NONE',  ( 0.0000000000000000000, 0.0000000000000000000, 2.000000000000000000 ) ) ;
#142 = ORIENTED_EDGE ( 'NONE', *, *, #291, .T. ) ;
#143 = DIRECTION ( 'NONE',  ( -1.000000000000000000, 0.0000000000000000000, 0.0000000000000000000 ) ) ;
#144 = LINE ( 'NONE', #245, #57 ) ;
#145 = AXIS2_PLACEMENT_3D ( 'NONE', #192, #197, #34 ) ;
#146 = CARTESIAN_POINT ( 'NONE',  ( -0.1249999999999999306, 0.0000000000000000000, 0.6048095688398309466 ) ) ;
#147 = EDGE_CURVE ( 'NONE', #129, #268, #195, .T. ) ;
#148 = FILL_AREA_STYLE_COLOUR ( '', #230 ) ;
#149 = FACE_OUTER_BOUND ( 'NONE', #227, .T. ) ;
#150 = EDGE_CURVE ( 'NONE', #180, #131, #32, .T. ) ;
#151 = CIRCLE ( 'NONE', #253, 0.1099999999999996397 ) ;
#152 = ORIENTED_EDGE ( 'NONE', *, *, #150, .T. ) ;
#153 = PRODUCT_CONTEXT ( 'NONE', #257, 'mechanical' ) ;
#154 = CARTESIAN_POINT ( 'NONE',  ( 0.06243750000000003464, 0.0000000000000000000, 0.2500000000000000000 ) ) ;
#155 = ORIENTED_EDGE ( 'NONE', *, *, #93, .T. ) ;
#156 = VECTOR ( 'NONE', #11, 39.37007874015748143 ) ;
#157 =( GEOMETRIC_REPRESENTATION_CONTEXT ( 3 ) GLOBAL_UNCERTAINTY_ASSIGNED_CONTEXT ( ( #62 ) ) GLOBAL_UNIT_ASSIGNED_CONTEXT ( ( #244, #163, #260 ) ) REPRESENTATION_CONTEXT ( 'NONE', 'WORKASPACE' ) );
#158 = ADVANCED_FACE ( 'NONE', ( #70 ), #95, .T. ) ;
#159 = DIMENSIONAL_EXPONENTS ( 1.000000000000000000, 0.0000000000000000000, 0.0000000000000000000, 0.0000000000000000000, 0.0000000000000000000, 0.0000000000000000000, 0.0000000000000000000 ) ;
#160 = ADVANCED_FACE ( 'NONE', ( #262 ), #175, .T. ) ;
#161 = CARTESIAN_POINT ( 'NONE',  ( 0.0000000000000000000, 0.0000000000000000000, 2.000000000000000000 ) ) ;
#162 = AXIS2_PLACEMENT_3D ( 'NONE', #88, #22, #297 ) ;
#163 =( NAMED_UNIT ( * ) PLANE_ANGLE_UNIT ( ) SI_UNIT ( $, .RADIAN. ) );
#164 = LENGTH_MEASURE_WITH_UNIT ( LENGTH_MEASURE( 0.02539999999999999897 ), #137 );
#165 = DIRECTION ( 'NONE',  ( -1.224646799147353207E-16, -0.0000000000000000000, -1.000000000000000000 ) ) ;
#166 = ORIENTED_EDGE ( 'NONE', *, *, #87, .F. ) ;
#167 = ADVANCED_FACE ( 'NONE', ( #121 ), #170, .F. ) ;
#168 = AXIS2_PLACEMENT_3D ( 'NONE', #49, #221, #47 ) ;
#169 = AXIS2_PLACEMENT_3D ( 'NONE', #14, #101, #75 ) ;
#170 = PLANE ( 'NONE',  #107 ) ;
#171 = CLOSED_SHELL ( 'NONE', ( #160, #3, #264, #242, #218, #40, #226, #278, #158, #167 ) ) ;
#172 = PRESENTATION_STYLE_ASSIGNMENT (( #65 ) ) ;
#173 = DIRECTION ( 'NONE',  ( -1.000000000000000000, 0.0000000000000000000, 0.0000000000000000000 ) ) ;
#174 = MECHANICAL_DESIGN_GEOMETRIC_PRESENTATION_REPRESENTATION (  '', ( #182 ), #296 ) ;
#175 = CYLINDRICAL_SURFACE ( 'NONE', #189, 0.06243750000000001382 ) ;
#176 = UNCERTAINTY_MEASURE_WITH_UNIT (LENGTH_MEASURE( 1.000000000000000082E-05 ), #139, 'distance_accuracy_value', 'NONE');
#177 = FACE_OUTER_BOUND ( 'NONE', #30, .T. ) ;
#178 = DIRECTION ( 'NONE',  ( 1.000000000000000000, 0.0000000000000000000, 0.0000000000000000000 ) ) ;
#179 = FACE_OUTER_BOUND ( 'NONE', #103, .T. ) ;
#180 = VERTEX_POINT ( 'NONE', #117 ) ;
#181 = MANIFOLD_SOLID_BREP ( 'Cut-Revolve1', #171 ) ;
#182 = STYLED_ITEM ( 'NONE', ( #110 ), #1 ) ;
#183 = ORIENTED_EDGE ( 'NONE', *, *, #284, .F. ) ;
#184 = EDGE_LOOP ( 'NONE', ( #78, #295, #16, #183 ) ) ;
#185 = CIRCLE ( 'NONE', #281, 0.1250000000000000000 ) ;
#186 = AXIS2_PLACEMENT_3D ( 'NONE', #270, #13, #17 ) ;
#187 = EDGE_CURVE ( 'NONE', #268, #21, #214, .T. ) ;
#188 = FACE_OUTER_BOUND ( 'NONE', #33, .T. ) ;
#189 = AXIS2_PLACEMENT_3D ( 'NONE', #51, #53, #267 ) ;
#190 = CIRCLE ( 'NONE', #263, 0.06243749999999999994 ) ;
#191 = DIRECTION ( 'NONE',  ( -1.000000000000000000, 0.0000000000000000000, 1.224646799147353207E-16 ) ) ;
#192 = CARTESIAN_POINT ( 'NONE',  ( 0.0000000000000000000, 0.0000000000000000000, 1.984999999999999432 ) ) ;
#193 = EDGE_CURVE ( 'NONE', #129, #4, #151, .T. ) ;
#194 = DIRECTION ( 'NONE',  ( 0.0000000000000000000, 0.0000000000000000000, -1.000000000000000000 ) ) ;
#195 = LINE ( 'NONE', #8, #156 ) ;
#196 = AXIS2_PLACEMENT_3D ( 'NONE', #212, #258, #191 ) ;
#197 = DIRECTION ( 'NONE',  ( 0.0000000000000000000, 0.0000000000000000000, -1.000000000000000000 ) ) ;
#198 = CARTESIAN_POINT ( 'NONE',  ( 0.0000000000000000000, 0.0000000000000000000, 0.0000000000000000000 ) ) ;
#199 =( NAMED_UNIT ( * ) SI_UNIT ( $, .STERADIAN. ) SOLID_ANGLE_UNIT ( ) );
#200 = DIRECTION ( 'NONE',  ( -1.000000000000000000, 0.0000000000000000000, 0.0000000000000000000 ) ) ;
#201 = VECTOR ( 'NONE', #231, 39.37007874015748143 ) ;
#202 = AXIS2_PLACEMENT_3D ( 'NONE', #249, #250, #127 ) ;
#203 = SHAPE_DEFINITION_REPRESENTATION ( #50, #1 ) ;
#204 = CYLINDRICAL_SURFACE ( 'NONE', #71, 0.1250000000000000000 ) ;
#205 = VERTEX_POINT ( 'NONE', #154 ) ;
#206 = ORIENTED_EDGE ( 'NONE', *, *, #207, .T. ) ;
#207 = EDGE_CURVE ( 'NONE', #205, #21, #251, .T. ) ;
#208 = ORIENTED_EDGE ( 'NONE', *, *, #187, .T. ) ;
#209 = VECTOR ( 'NONE', #89, 39.37007874015747433 ) ;
#210 = CARTESIAN_POINT ( 'NONE',  ( 7.406781025733896371E-17, 0.0000000000000000000, 0.6048095688398309466 ) ) ;
#211 =( GEOMETRIC_REPRESENTATION_CONTEXT ( 3 ) GLOBAL_UNCERTAINTY_ASSIGNED_CONTEXT ( ( #176 ) ) GLOBAL_UNIT_ASSIGNED_CONTEXT ( ( #139, #96, #116 ) ) REPRESENTATION_CONTEXT ( 'NONE', 'WORKASPACE' ) );
#212 = CARTESIAN_POINT ( 'NONE',  ( 9.364125142994975765E-34, 0.0000000000000000000, 7.646388452176288915E-18 ) ) ;
#213 = LENGTH_MEASURE_WITH_UNIT ( LENGTH_MEASURE( 0.02539999999999999897 ), #31 );
#214 = LINE ( 'NONE', #90, #238 ) ;
#215 = ORIENTED_EDGE ( 'NONE', *, *, #29, .F. ) ;
#216 = CARTESIAN_POINT ( 'NONE',  ( 0.06243750000000001382, 7.646388452176288915E-18, 0.0000000000000000000 ) ) ;
#217 = VERTEX_POINT ( 'NONE', #37 ) ;
#218 = ADVANCED_FACE ( 'NONE', ( #98 ), #225, .T. ) ;
#219 = AXIS2_PLACEMENT_3D ( 'NONE', #198, #2, #289 ) ;
#220 = CONICAL_SURFACE ( 'NONE', #186, 0.1099999999999996397, 0.7853981633974426169 ) ;
#221 = DIRECTION ( 'NONE',  ( -1.224646799147353207E-16, -0.0000000000000000000, -1.000000000000000000 ) ) ;
#222 = CARTESIAN_POINT ( 'NONE',  ( 0.0000000000000000000, 0.0000000000000000000, 1.984999999999999432 ) ) ;
#223 =( NAMED_UNIT ( * ) PLANE_ANGLE_UNIT ( ) SI_UNIT ( $, .RADIAN. ) );
#224 = CIRCLE ( 'NONE', #19, 0.1250000000000000000 ) ;
#225 = CYLINDRICAL_SURFACE ( 'NONE', #169, 0.1250000000000000000 ) ;
#226 = ADVANCED_FACE ( 'NONE', ( #179 ), #125, .T. ) ;
#227 = EDGE_LOOP ( 'NONE', ( #272, #283, #206, #18 ) ) ;
#228 = ORIENTED_EDGE ( 'NONE', *, *, #147, .F. ) ;
#229 = DIRECTION ( 'NONE',  ( 0.0000000000000000000, 0.0000000000000000000, 1.000000000000000000 ) ) ;
#230 = COLOUR_RGB ( '',0.7921568627450980005, 0.8196078431372548767, 0.9333333333333333481 ) ;
#231 = DIRECTION ( 'NONE',  ( 0.1736481776669313859, 0.0000000000000000000, 0.9848077530122077983 ) ) ;
#232 = ORIENTED_EDGE ( 'NONE', *, *, #284, .T. ) ;
#233 = ORIENTED_EDGE ( 'NONE', *, *, #193, .F. ) ;
#234 = DIRECTION ( 'NONE',  ( -1.224646799147353207E-16, -0.0000000000000000000, -1.000000000000000000 ) ) ;
#235 = FILL_AREA_STYLE ('',( #112 ) ) ;
#236 = FACE_OUTER_BOUND ( 'NONE', #58, .T. ) ;
#237 = DIRECTION ( 'NONE',  ( -1.224646799147353207E-16, -0.0000000000000000000, -1.000000000000000000 ) ) ;
#238 = VECTOR ( 'NONE', #265, 39.37007874015748143 ) ;
#239 = DIRECTION ( 'NONE',  ( 1.000000000000000000, 0.0000000000000000000, 0.0000000000000000000 ) ) ;
#240 = ORIENTED_EDGE ( 'NONE', *, *, #29, .T. ) ;
#241 = CARTESIAN_POINT ( 'NONE',  ( 0.0000000000000000000, 0.0000000000000000000, 0.0000000000000000000 ) ) ;
#242 = ADVANCED_FACE ( 'NONE', ( #279 ), #204, .T. ) ;
#243 = ORIENTED_EDGE ( 'NONE', *, *, #87, .T. ) ;
#244 =( CONVERSION_BASED_UNIT ( 'INCH', #213 ) LENGTH_UNIT ( ) NAMED_UNIT ( #24 ) );
#245 = CARTESIAN_POINT ( 'NONE',  ( 0.06243750000000001382, 7.646388452176288915E-18, -7.646388452176288915E-18 ) ) ;
#246 = CARTESIAN_POINT ( 'NONE',  ( 0.1099999999999996397, 1.438959988998137757E-17, 2.000000000000000000 ) ) ;
#247 = CARTESIAN_POINT ( 'NONE',  ( 0.1250000000000000000, 1.530808498934191509E-17, 1.984999999999999432 ) ) ;
#248 = EDGE_CURVE ( 'NONE', #4, #129, #120, .T. ) ;
#249 = CARTESIAN_POINT ( 'NONE',  ( 3.061616997868383018E-17, 0.0000000000000000000, 0.2500000000000000000 ) ) ;
#250 = DIRECTION ( 'NONE',  ( 1.224646799147353207E-16, 0.0000000000000000000, 1.000000000000000000 ) ) ;
#251 = LINE ( 'NONE', #128, #201 ) ;
#252 = EDGE_LOOP ( 'NONE', ( #54, #254, #232, #215 ) ) ;
#253 = AXIS2_PLACEMENT_3D ( 'NONE', #141, #80, #59 ) ;
#254 = ORIENTED_EDGE ( 'NONE', *, *, #298, .T. ) ;
#255 = CARTESIAN_POINT ( 'NONE',  ( 3.061616997868383018E-17, 0.0000000000000000000, 0.2500000000000000000 ) ) ;
#256 = DIRECTION ( 'NONE',  ( 0.0000000000000000000, 0.0000000000000000000, 1.000000000000000000 ) ) ;
#257 = APPLICATION_CONTEXT ( 'automotive_design' ) ;
#258 = DIRECTION ( 'NONE',  ( -1.224646799147353207E-16, -0.0000000000000000000, -1.000000000000000000 ) ) ;
#259 = EDGE_CURVE ( 'NONE', #180, #205, #105, .T. ) ;
#260 =( NAMED_UNIT ( * ) SI_UNIT ( $, .STERADIAN. ) SOLID_ANGLE_UNIT ( ) );
#261 = PRODUCT_DEFINITION_CONTEXT ( 'detailed design', #273, 'design' ) ;
#262 = FACE_OUTER_BOUND ( 'NONE', #184, .T. ) ;
#263 = AXIS2_PLACEMENT_3D ( 'NONE', #67, #237, #143 ) ;
#264 = ADVANCED_FACE ( 'NONE', ( #177 ), #220, .T. ) ;
#265 = DIRECTION ( 'NONE',  ( -0.0000000000000000000, -0.0000000000000000000, -1.000000000000000000 ) ) ;
#266 = LENGTH_MEASURE_WITH_UNIT ( LENGTH_MEASURE( 0.02539999999999999897 ), #94 );
#267 = DIRECTION ( 'NONE',  ( -1.000000000000000000, 0.0000000000000000000, 1.224646799147353207E-16 ) ) ;
#268 = VERTEX_POINT ( 'NONE', #247 ) ;
#269 = EDGE_CURVE ( 'NONE', #4, #217, #271, .T. ) ;
#270 = CARTESIAN_POINT ( 'NONE',  ( 0.0000000000000000000, 0.0000000000000000000, 2.000000000000000000 ) ) ;
#271 = LINE ( 'NONE', #104, #20 ) ;
#272 = ORIENTED_EDGE ( 'NONE', *, *, #150, .F. ) ;
#273 = APPLICATION_CONTEXT ( 'automotive_design' ) ;
#274 = ORIENTED_EDGE ( 'NONE', *, *, #269, .T. ) ;
#275 = ORIENTED_EDGE ( 'NONE', *, *, #207, .F. ) ;
#276 = CONICAL_SURFACE ( 'NONE', #79, 0.06243749999999999994, 0.1745329251994338915 ) ;
#277 = AXIS2_PLACEMENT_3D ( 'NONE', #100, #9, #56 ) ;
#278 = ADVANCED_FACE ( 'NONE', ( #149 ), #134, .T. ) ;
#279 = FACE_OUTER_BOUND ( 'NONE', #72, .T. ) ;
#280 = PLANE ( 'NONE',  #64 ) ;
#281 = AXIS2_PLACEMENT_3D ( 'NONE', #210, #234, #299 ) ;
#282 = SURFACE_SIDE_STYLE ('',( #115 ) ) ;
#283 = ORIENTED_EDGE ( 'NONE', *, *, #298, .F. ) ;
#284 = EDGE_CURVE ( 'NONE', #180, #126, #132, .T. ) ;
#285 = DIRECTION ( 'NONE',  ( 0.0000000000000000000, 0.0000000000000000000, 1.000000000000000000 ) ) ;
#286 = VECTOR ( 'NONE', #41, 39.37007874015748143 ) ;
#287 = DIRECTION ( 'NONE',  ( -1.224646799147353207E-16, -0.0000000000000000000, -1.000000000000000000 ) ) ;
#288 = FILL_AREA_STYLE ('',( #148 ) ) ;
#289 = DIRECTION ( 'NONE',  ( -1.000000000000000000, 0.0000000000000000000, 1.224646799147353207E-16 ) ) ;
#290 = CARTESIAN_POINT ( 'NONE',  ( -0.06243749999999997219, 7.646388452176287375E-18, 0.2500000000000000000 ) ) ;
#291 = EDGE_CURVE ( 'NONE', #126, #63, #52, .T. ) ;
#292 = PRODUCT ( 'Micro_SFP-125-42', 'Micro_SFP-125-42', '', ( #153 ) ) ;
#293 = ORIENTED_EDGE ( 'NONE', *, *, #10, .F. ) ;
#294 = ORIENTED_EDGE ( 'NONE', *, *, #147, .T. ) ;
#295 = ORIENTED_EDGE ( 'NONE', *, *, #42, .T. ) ;
#296 =( GEOMETRIC_REPRESENTATION_CONTEXT ( 3 ) GLOBAL_UNCERTAINTY_ASSIGNED_CONTEXT ( ( #111 ) ) GLOBAL_UNIT_ASSIGNED_CONTEXT ( ( #124, #223, #199 ) ) REPRESENTATION_CONTEXT ( 'NONE', 'WORKASPACE' ) );
#297 = DIRECTION ( 'NONE',  ( -1.000000000000000000, 0.0000000000000000000, 1.224646799147353207E-16 ) ) ;
#298 = EDGE_CURVE ( 'NONE', #205, #180, #190, .T. ) ;
#299 = DIRECTION ( 'NONE',  ( 1.000000000000000000, 0.0000000000000000000, 0.0000000000000000000 ) ) ;
ENDSEC;
END-ISO-10303-21;
