ISO-10303-21;
HEADER;
FILE_DESCRIPTION (( 'STEP AP214' ),
    '1' );
FILE_NAME ('83199.STEP',
    '2023-06-23T08:28:00',
    ( '' ),
    ( '' ),
    'SwSTEP 2.0',
    'SolidWorks 2023',
    '' );
FILE_SCHEMA (( 'AUTOMOTIVE_DESIGN' ));
ENDSEC;

DATA;
#1 = VERTEX_POINT ( 'NONE', #118 ) ;
#2 = PRODUCT_DEFINITION_FORMATION_WITH_SPECIFIED_SOURCE ( 'ANY', '', #212, .NOT_KNOWN. ) ;
#3 = FILL_AREA_STYLE_COLOUR ( '', #4 ) ;
#4 = COLOUR_RGB ( '',0.7921568627450980005, 0.8196078431372548767, 0.9333333333333333481 ) ;
#5 = SURFACE_STYLE_USAGE ( .BOTH. , #291 ) ;
#6 = DIMENSIONAL_EXPONENTS ( 1.000000000000000000, 0.000000000000000000, 0.000000000000000000, 0.000000000000000000, 0.000000000000000000, 0.000000000000000000, 0.000000000000000000 ) ;
#7 = EDGE_LOOP ( 'NONE', ( #51, #221 ) ) ;
#8 = CARTESIAN_POINT ( 'NONE',  ( -6.123233995736766036E-17, 2.500000000000000000, 0.000000000000000000 ) ) ;
#9 = EDGE_CURVE ( 'NONE', #77, #261, #57, .T. ) ;
#10 = PRESENTATION_LAYER_ASSIGNMENT (  '', '', ( #88 ) ) ;
#11 = LENGTH_MEASURE_WITH_UNIT ( LENGTH_MEASURE( 0.02539999999999999897 ), #156 );
#12 = AXIS2_PLACEMENT_3D ( 'NONE', #61, #257, #110 ) ;
#13 = STYLED_ITEM ( 'NONE', ( #300 ), #285 ) ;
#14 = SURFACE_SIDE_STYLE ('',( #141 ) ) ;
#15 = DIRECTION ( 'NONE',  ( -1.000000000000000000, 0.000000000000000000, 0.000000000000000000 ) ) ;
#16 = DIRECTION ( 'NONE',  ( -4.082155997157843818E-17, 1.000000000000000000, -0.000000000000000000 ) ) ;
#17 = DIRECTION ( 'NONE',  ( -4.082155997157843818E-17, 1.000000000000000000, -0.000000000000000000 ) ) ;
#18 = CARTESIAN_POINT ( 'NONE',  ( 0.000000000000000000, 1.000000000000000000, 0.000000000000000000 ) ) ;
#19 = EDGE_LOOP ( 'NONE', ( #99, #102 ) ) ;
#20 = CARTESIAN_POINT ( 'NONE',  ( -6.123233995736766036E-17, 2.500000000000000000, 0.000000000000000000 ) ) ;
#21 = AXIS2_PLACEMENT_3D ( 'NONE', #299, #301, #230 ) ;
#22 = VERTEX_POINT ( 'NONE', #132 ) ;
#23 = DIRECTION ( 'NONE',  ( -4.082155997157843818E-17, 1.000000000000000000, -0.000000000000000000 ) ) ;
#24 = PRESENTATION_STYLE_ASSIGNMENT (( #5 ) ) ;
#25 = VERTEX_POINT ( 'NONE', #255 ) ;
#26 = MECHANICAL_DESIGN_GEOMETRIC_PRESENTATION_REPRESENTATION (  '', ( #151 ), #34 ) ;
#27 = ORIENTED_EDGE ( 'NONE', *, *, #171, .F. ) ;
#28 = FACE_OUTER_BOUND ( 'NONE', #19, .T. ) ;
#29 = LENGTH_MEASURE_WITH_UNIT ( LENGTH_MEASURE( 0.02539999999999999897 ), #243 );
#30 = DIMENSIONAL_EXPONENTS ( 1.000000000000000000, 0.000000000000000000, 0.000000000000000000, 0.000000000000000000, 0.000000000000000000, 0.000000000000000000, 0.000000000000000000 ) ;
#31 = AXIS2_PLACEMENT_3D ( 'NONE', #202, #135, #297 ) ;
#32 = SURFACE_SIDE_STYLE ('',( #247 ) ) ;
#33 = SURFACE_STYLE_USAGE ( .BOTH. , #32 ) ;
#34 =( GEOMETRIC_REPRESENTATION_CONTEXT ( 3 ) GLOBAL_UNCERTAINTY_ASSIGNED_CONTEXT ( ( #181 ) ) GLOBAL_UNIT_ASSIGNED_CONTEXT ( ( #131, #199, #128 ) ) REPRESENTATION_CONTEXT ( 'NONE', 'WORKASPACE' ) );
#35 = EDGE_CURVE ( 'NONE', #77, #44, #39, .T. ) ;
#36 = PRESENTATION_STYLE_ASSIGNMENT (( #33 ) ) ;
#37 =( NAMED_UNIT ( * ) SI_UNIT ( $, .STERADIAN. ) SOLID_ANGLE_UNIT ( ) );
#38 = DIRECTION ( 'NONE',  ( -4.082155997157843818E-17, 1.000000000000000000, 0.000000000000000000 ) ) ;
#39 = CIRCLE ( 'NONE', #262, 0.1562500000000000000 ) ;
#40 = PRESENTATION_STYLE_ASSIGNMENT (( #254 ) ) ;
#41 = LINE ( 'NONE', #276, #73 ) ;
#42 = APPLICATION_PROTOCOL_DEFINITION ( 'draft international standard', 'automotive_design', 1998, #137 ) ;
#43 = MECHANICAL_DESIGN_GEOMETRIC_PRESENTATION_REPRESENTATION (  '', ( #13 ), #134 ) ;
#44 = VERTEX_POINT ( 'NONE', #192 ) ;
#45 = EDGE_CURVE ( 'NONE', #1, #261, #266, .T. ) ;
#46 = DIRECTION ( 'NONE',  ( 4.082155997157843818E-17, -1.000000000000000000, 0.000000000000000000 ) ) ;
#47 = AXIS2_PLACEMENT_3D ( 'NONE', #209, #121, #185 ) ;
#48 =( CONVERSION_BASED_UNIT ( 'INCH', #250 ) LENGTH_UNIT ( ) NAMED_UNIT ( #265 ) );
#49 = SURFACE_STYLE_FILL_AREA ( #160 ) ;
#50 =( NAMED_UNIT ( * ) SI_UNIT ( $, .STERADIAN. ) SOLID_ANGLE_UNIT ( ) );
#51 = ORIENTED_EDGE ( 'NONE', *, *, #216, .T. ) ;
#52 = DIMENSIONAL_EXPONENTS ( 1.000000000000000000, 0.000000000000000000, 0.000000000000000000, 0.000000000000000000, 0.000000000000000000, 0.000000000000000000, 0.000000000000000000 ) ;
#53 = FILL_AREA_STYLE_COLOUR ( '', #157 ) ;
#54 = ADVANCED_BREP_SHAPE_REPRESENTATION ( '83199', ( #285, #287, #274 ), #109 ) ;
#55 =( CONVERSION_BASED_UNIT ( 'INCH', #268 ) LENGTH_UNIT ( ) NAMED_UNIT ( #203 ) );
#56 = ADVANCED_FACE ( 'NONE', ( #306 ), #127, .T. ) ;
#57 = LINE ( 'NONE', #211, #67 ) ;
#58 = CARTESIAN_POINT ( 'NONE',  ( 0.000000000000000000, 0.000000000000000000, 0.000000000000000000 ) ) ;
#59 =( NAMED_UNIT ( * ) PLANE_ANGLE_UNIT ( ) SI_UNIT ( $, .RADIAN. ) );
#60 = AXIS2_PLACEMENT_3D ( 'NONE', #58, #292, #87 ) ;
#61 = CARTESIAN_POINT ( 'NONE',  ( 0.000000000000000000, 0.000000000000000000, 0.000000000000000000 ) ) ;
#62 = FACE_OUTER_BOUND ( 'NONE', #78, .T. ) ;
#63 = LINE ( 'NONE', #231, #94 ) ;
#64 =( NAMED_UNIT ( * ) SI_UNIT ( $, .STERADIAN. ) SOLID_ANGLE_UNIT ( ) );
#65 = DIRECTION ( 'NONE',  ( 1.000000000000000000, 0.000000000000000000, 0.000000000000000000 ) ) ;
#66 = DIRECTION ( 'NONE',  ( 0.000000000000000000, 0.000000000000000000, -1.000000000000000000 ) ) ;
#67 = VECTOR ( 'NONE', #189, 39.37007874015748143 ) ;
#68 = APPLICATION_PROTOCOL_DEFINITION ( 'draft international standard', 'automotive_design', 1998, #174 ) ;
#69 = FACE_OUTER_BOUND ( 'NONE', #79, .T. ) ;
#70 = ORIENTED_EDGE ( 'NONE', *, *, #284, .F. ) ;
#71 = EDGE_CURVE ( 'NONE', #279, #22, #205, .T. ) ;
#72 = EDGE_LOOP ( 'NONE', ( #218, #240, #217, #263 ) ) ;
#73 = VECTOR ( 'NONE', #295, 39.37007874015748143 ) ;
#74 = PRODUCT_CONTEXT ( 'NONE', #137, 'mechanical' ) ;
#75 =( NAMED_UNIT ( * ) PLANE_ANGLE_UNIT ( ) SI_UNIT ( $, .RADIAN. ) );
#76 = SURFACE_STYLE_FILL_AREA ( #267 ) ;
#77 = VERTEX_POINT ( 'NONE', #259 ) ;
#78 = EDGE_LOOP ( 'NONE', ( #126, #123 ) ) ;
#79 = EDGE_LOOP ( 'NONE', ( #277, #169 ) ) ;
#80 = SURFACE_STYLE_USAGE ( .BOTH. , #244 ) ;
#81 = LINE ( 'NONE', #175, #101 ) ;
#82 = CLOSED_SHELL ( 'NONE', ( #56, #236, #129, #204 ) ) ;
#83 = FILL_AREA_STYLE_COLOUR ( '', #229 ) ;
#84 =( CONVERSION_BASED_UNIT ( 'INCH', #288 ) LENGTH_UNIT ( ) NAMED_UNIT ( #176 ) );
#85 = COLOUR_RGB ( '',1.000000000000000000, 0.000000000000000000, 0.000000000000000000 ) ;
#86 = CYLINDRICAL_SURFACE ( 'NONE', #124, 0.1562500000000000278 ) ;
#87 = DIRECTION ( 'NONE',  ( 0.000000000000000000, 0.000000000000000000, -1.000000000000000000 ) ) ;
#88 = STYLED_ITEM ( 'NONE', ( #40 ), #287 ) ;
#89 = AXIS2_PLACEMENT_3D ( 'NONE', #18, #238, #97 ) ;
#90 =( NAMED_UNIT ( * ) PLANE_ANGLE_UNIT ( ) SI_UNIT ( $, .RADIAN. ) );
#91 = DIRECTION ( 'NONE',  ( -1.000000000000000000, 0.000000000000000000, 0.000000000000000000 ) ) ;
#92 = CARTESIAN_POINT ( 'NONE',  ( 0.1562500000000000000, 2.500000000000000000, 0.000000000000000000 ) ) ;
#93 = DIRECTION ( 'NONE',  ( 0.000000000000000000, 0.000000000000000000, 1.000000000000000000 ) ) ;
#94 = VECTOR ( 'NONE', #162, 39.37007874015748143 ) ;
#95 = PRESENTATION_LAYER_ASSIGNMENT (  '', '', ( #151 ) ) ;
#96 =( CONVERSION_BASED_UNIT ( 'INCH', #194 ) LENGTH_UNIT ( ) NAMED_UNIT ( #52 ) );
#97 = DIRECTION ( 'NONE',  ( 0.000000000000000000, 0.000000000000000000, -1.000000000000000000 ) ) ;
#98 = EDGE_LOOP ( 'NONE', ( #305, #166, #242, #258 ) ) ;
#99 = ORIENTED_EDGE ( 'NONE', *, *, #256, .F. ) ;
#100 = PRESENTATION_LAYER_ASSIGNMENT (  '', '', ( #13 ) ) ;
#101 = VECTOR ( 'NONE', #173, 39.37007874015748143 ) ;
#102 = ORIENTED_EDGE ( 'NONE', *, *, #71, .F. ) ;
#103 = FILL_AREA_STYLE ('',( #3 ) ) ;
#104 = STYLED_ITEM ( 'NONE', ( #36 ), #236 ) ;
#105 = EDGE_CURVE ( 'NONE', #22, #303, #41, .T. ) ;
#106 =( LENGTH_UNIT ( ) NAMED_UNIT ( * ) SI_UNIT ( $, .METRE. ) );
#107 = SURFACE_STYLE_USAGE ( .BOTH. , #14 ) ;
#108 = COLOUR_RGB ( '',1.000000000000000000, 0.000000000000000000, 0.000000000000000000 ) ;
#109 =( GEOMETRIC_REPRESENTATION_CONTEXT ( 3 ) GLOBAL_UNCERTAINTY_ASSIGNED_CONTEXT ( ( #198 ) ) GLOBAL_UNIT_ASSIGNED_CONTEXT ( ( #55, #59, #37 ) ) REPRESENTATION_CONTEXT ( 'NONE', 'WORKASPACE' ) );
#110 = DIRECTION ( 'NONE',  ( 0.000000000000000000, 0.000000000000000000, -1.000000000000000000 ) ) ;
#111 = CARTESIAN_POINT ( 'NONE',  ( 0.000000000000000000, 1.000000000000000000, 0.000000000000000000 ) ) ;
#112 = PRESENTATION_STYLE_ASSIGNMENT (( #107 ) ) ;
#113 =( NAMED_UNIT ( * ) PLANE_ANGLE_UNIT ( ) SI_UNIT ( $, .RADIAN. ) );
#114 = DIRECTION ( 'NONE',  ( 0.000000000000000000, 0.000000000000000000, -1.000000000000000000 ) ) ;
#115 = DIRECTION ( 'NONE',  ( -1.000000000000000000, 0.000000000000000000, 0.000000000000000000 ) ) ;
#116 = ADVANCED_FACE ( 'NONE', ( #69 ), #161, .F. ) ;
#117 = FILL_AREA_STYLE_COLOUR ( '', #85 ) ;
#118 = CARTESIAN_POINT ( 'NONE',  ( 0.1562500000000000000, 2.500000000000000000, 1.913510623667739771E-17 ) ) ;
#119 = STYLED_ITEM ( 'NONE', ( #172 ), #56 ) ;
#120 = DIRECTION ( 'NONE',  ( 1.000000000000000000, 4.082155997157843818E-17, 0.000000000000000000 ) ) ;
#121 = DIRECTION ( 'NONE',  ( -4.082155997157843818E-17, 1.000000000000000000, -0.000000000000000000 ) ) ;
#122 = DIRECTION ( 'NONE',  ( -1.000000000000000000, 0.000000000000000000, 0.000000000000000000 ) ) ;
#123 = ORIENTED_EDGE ( 'NONE', *, *, #171, .T. ) ;
#124 = AXIS2_PLACEMENT_3D ( 'NONE', #271, #179, #269 ) ;
#125 = MECHANICAL_DESIGN_GEOMETRIC_PRESENTATION_REPRESENTATION (  '', ( #195 ), #246 ) ;
#126 = ORIENTED_EDGE ( 'NONE', *, *, #149, .T. ) ;
#127 = CYLINDRICAL_SURFACE ( 'NONE', #60, 0.1562500000000000000 ) ;
#128 =( NAMED_UNIT ( * ) SI_UNIT ( $, .STERADIAN. ) SOLID_ANGLE_UNIT ( ) );
#129 = ADVANCED_FACE ( 'NONE', ( #235 ), #136, .T. ) ;
#130 = CIRCLE ( 'NONE', #226, 0.1562500000000000000 ) ;
#131 =( CONVERSION_BASED_UNIT ( 'INCH', #309 ) LENGTH_UNIT ( ) NAMED_UNIT ( #30 ) );
#132 = CARTESIAN_POINT ( 'NONE',  ( 0.000000000000000000, 1.000000000000000000, -0.1562500000000000000 ) ) ;
#133 =( CONVERSION_BASED_UNIT ( 'INCH', #29 ) LENGTH_UNIT ( ) NAMED_UNIT ( #178 ) );
#134 =( GEOMETRIC_REPRESENTATION_CONTEXT ( 3 ) GLOBAL_UNCERTAINTY_ASSIGNED_CONTEXT ( ( #155 ) ) GLOBAL_UNIT_ASSIGNED_CONTEXT ( ( #96, #75, #50 ) ) REPRESENTATION_CONTEXT ( 'NONE', 'WORKASPACE' ) );
#135 = DIRECTION ( 'NONE',  ( 0.000000000000000000, -1.000000000000000000, -0.000000000000000000 ) ) ;
#136 = CYLINDRICAL_SURFACE ( 'NONE', #12, 0.1562500000000000000 ) ;
#137 = APPLICATION_CONTEXT ( 'automotive_design' ) ;
#138 = AXIS2_PLACEMENT_3D ( 'NONE', #164, #38, #227 ) ;
#139 = PLANE ( 'NONE',  #31 ) ;
#140 = FILL_AREA_STYLE ('',( #117 ) ) ;
#141 = SURFACE_STYLE_FILL_AREA ( #140 ) ;
#142 = ORIENTED_EDGE ( 'NONE', *, *, #71, .T. ) ;
#143 =( NAMED_UNIT ( * ) SI_UNIT ( $, .STERADIAN. ) SOLID_ANGLE_UNIT ( ) );
#144 = SHAPE_DEFINITION_REPRESENTATION ( #163, #54 ) ;
#145 = AXIS2_PLACEMENT_3D ( 'NONE', #214, #187, #239 ) ;
#146 = FILL_AREA_STYLE_COLOUR ( '', #108 ) ;
#147 = ORIENTED_EDGE ( 'NONE', *, *, #284, .T. ) ;
#148 = MECHANICAL_DESIGN_GEOMETRIC_PRESENTATION_REPRESENTATION (  '', ( #104 ), #201 ) ;
#149 = EDGE_CURVE ( 'NONE', #303, #25, #302, .T. ) ;
#150 = PLANE ( 'NONE',  #145 ) ;
#151 = STYLED_ITEM ( 'NONE', ( #24 ), #204 ) ;
#152 =( GEOMETRIC_REPRESENTATION_CONTEXT ( 3 ) GLOBAL_UNCERTAINTY_ASSIGNED_CONTEXT ( ( #232 ) ) GLOBAL_UNIT_ASSIGNED_CONTEXT ( ( #48, #90, #64 ) ) REPRESENTATION_CONTEXT ( 'NONE', 'WORKASPACE' ) );
#153 = FILL_AREA_STYLE ('',( #170 ) ) ;
#154 = ADVANCED_FACE ( 'NONE', ( #184 ), #233, .T. ) ;
#155 = UNCERTAINTY_MEASURE_WITH_UNIT (LENGTH_MEASURE( 1.000000000000000082E-05 ), #96, 'distance_accuracy_value', 'NONE');
#156 =( LENGTH_UNIT ( ) NAMED_UNIT ( * ) SI_UNIT ( $, .METRE. ) );
#157 = COLOUR_RGB ( '',0.7921568627450980005, 0.8196078431372548767, 0.9333333333333333481 ) ;
#158 = FACE_OUTER_BOUND ( 'NONE', #98, .T. ) ;
#159 = SURFACE_SIDE_STYLE ('',( #293 ) ) ;
#160 = FILL_AREA_STYLE ('',( #53 ) ) ;
#161 = PLANE ( 'NONE',  #138 ) ;
#162 = DIRECTION ( 'NONE',  ( -4.082155997157843818E-17, 1.000000000000000000, -0.000000000000000000 ) ) ;
#163 = PRODUCT_DEFINITION_SHAPE ( 'NONE', 'NONE',  #286 ) ;
#164 = CARTESIAN_POINT ( 'NONE',  ( 1.301874811338418134E-34, 1.000000000000000000, 0.000000000000000000 ) ) ;
#165 =( NAMED_UNIT ( * ) SI_UNIT ( $, .STERADIAN. ) SOLID_ANGLE_UNIT ( ) );
#166 = ORIENTED_EDGE ( 'NONE', *, *, #278, .T. ) ;
#167 = COLOUR_RGB ( '',1.000000000000000000, 0.000000000000000000, 0.000000000000000000 ) ;
#168 = UNCERTAINTY_MEASURE_WITH_UNIT (LENGTH_MEASURE( 1.000000000000000082E-05 ), #133, 'distance_accuracy_value', 'NONE');
#169 = ORIENTED_EDGE ( 'NONE', *, *, #245, .F. ) ;
#170 = FILL_AREA_STYLE_COLOUR ( '', #167 ) ;
#171 = EDGE_CURVE ( 'NONE', #25, #303, #130, .T. ) ;
#172 = PRESENTATION_STYLE_ASSIGNMENT (( #80 ) ) ;
#173 = DIRECTION ( 'NONE',  ( -0.000000000000000000, -1.000000000000000000, -0.000000000000000000 ) ) ;
#174 = APPLICATION_CONTEXT ( 'automotive_design' ) ;
#175 = CARTESIAN_POINT ( 'NONE',  ( 1.913510623667739463E-17, 0.000000000000000000, 0.1562500000000000000 ) ) ;
#176 = DIMENSIONAL_EXPONENTS ( 1.000000000000000000, 0.000000000000000000, 0.000000000000000000, 0.000000000000000000, 0.000000000000000000, 0.000000000000000000, 0.000000000000000000 ) ;
#177 =( LENGTH_UNIT ( ) NAMED_UNIT ( * ) SI_UNIT ( $, .METRE. ) );
#178 = DIMENSIONAL_EXPONENTS ( 1.000000000000000000, 0.000000000000000000, 0.000000000000000000, 0.000000000000000000, 0.000000000000000000, 0.000000000000000000, 0.000000000000000000 ) ;
#179 = DIRECTION ( 'NONE',  ( -4.082155997157843818E-17, 1.000000000000000000, -0.000000000000000000 ) ) ;
#180 =( LENGTH_UNIT ( ) NAMED_UNIT ( * ) SI_UNIT ( $, .METRE. ) );
#181 = UNCERTAINTY_MEASURE_WITH_UNIT (LENGTH_MEASURE( 1.000000000000000082E-05 ), #131, 'distance_accuracy_value', 'NONE');
#182 = CIRCLE ( 'NONE', #47, 0.1562500000000000000 ) ;
#183 = UNCERTAINTY_MEASURE_WITH_UNIT (LENGTH_MEASURE( 1.000000000000000082E-05 ), #249, 'distance_accuracy_value', 'NONE');
#184 = FACE_OUTER_BOUND ( 'NONE', #72, .T. ) ;
#185 = DIRECTION ( 'NONE',  ( -1.000000000000000000, 0.000000000000000000, 0.000000000000000000 ) ) ;
#186 = DIRECTION ( 'NONE',  ( -0.000000000000000000, -1.000000000000000000, -0.000000000000000000 ) ) ;
#187 = DIRECTION ( 'NONE',  ( 0.000000000000000000, 1.000000000000000000, 0.000000000000000000 ) ) ;
#188 =( LENGTH_UNIT ( ) NAMED_UNIT ( * ) SI_UNIT ( $, .METRE. ) );
#189 = DIRECTION ( 'NONE',  ( -4.082155997157843818E-17, 1.000000000000000000, -0.000000000000000000 ) ) ;
#190 = PRODUCT_DEFINITION_CONTEXT ( 'detailed design', #174, 'design' ) ;
#191 = CARTESIAN_POINT ( 'NONE',  ( 0.000000000000000000, 0.000000000000000000, 0.000000000000000000 ) ) ;
#192 = CARTESIAN_POINT ( 'NONE',  ( 0.1562500000000000000, 1.000000000000000000, 1.913510623667739771E-17 ) ) ;
#193 = ORIENTED_EDGE ( 'NONE', *, *, #105, .F. ) ;
#194 = LENGTH_MEASURE_WITH_UNIT ( LENGTH_MEASURE( 0.02539999999999999897 ), #180 );
#195 = STYLED_ITEM ( 'NONE', ( #112 ), #129 ) ;
#196 = EDGE_LOOP ( 'NONE', ( #70, #142, #220, #27 ) ) ;
#197 = PRODUCT_RELATED_PRODUCT_CATEGORY ( 'part', '', ( #212 ) ) ;
#198 = UNCERTAINTY_MEASURE_WITH_UNIT (LENGTH_MEASURE( 1.000000000000000082E-05 ), #55, 'distance_accuracy_value', 'NONE');
#199 =( NAMED_UNIT ( * ) PLANE_ANGLE_UNIT ( ) SI_UNIT ( $, .RADIAN. ) );
#200 = SURFACE_STYLE_FILL_AREA ( #282 ) ;
#201 =( GEOMETRIC_REPRESENTATION_CONTEXT ( 3 ) GLOBAL_UNCERTAINTY_ASSIGNED_CONTEXT ( ( #304 ) ) GLOBAL_UNIT_ASSIGNED_CONTEXT ( ( #84, #280, #165 ) ) REPRESENTATION_CONTEXT ( 'NONE', 'WORKASPACE' ) );
#202 = CARTESIAN_POINT ( 'NONE',  ( 0.000000000000000000, 0.000000000000000000, 0.000000000000000000 ) ) ;
#203 = DIMENSIONAL_EXPONENTS ( 1.000000000000000000, 0.000000000000000000, 0.000000000000000000, 0.000000000000000000, 0.000000000000000000, 0.000000000000000000, 0.000000000000000000 ) ;
#204 = ADVANCED_FACE ( 'NONE', ( #62 ), #139, .T. ) ;
#205 = CIRCLE ( 'NONE', #89, 0.1562500000000000000 ) ;
#206 =( NAMED_UNIT ( * ) PLANE_ANGLE_UNIT ( ) SI_UNIT ( $, .RADIAN. ) );
#207 = DIRECTION ( 'NONE',  ( -0.000000000000000000, -1.000000000000000000, -0.000000000000000000 ) ) ;
#208 =( NAMED_UNIT ( * ) SI_UNIT ( $, .STERADIAN. ) SOLID_ANGLE_UNIT ( ) );
#209 = CARTESIAN_POINT ( 'NONE',  ( 0.000000000000000000, 1.000000000000000000, 0.000000000000000000 ) ) ;
#210 = PLANE ( 'NONE',  #275 ) ;
#211 = CARTESIAN_POINT ( 'NONE',  ( -0.1562500000000001110, 2.500000000000000000, 0.000000000000000000 ) ) ;
#212 = PRODUCT ( '83199', '83199', '', ( #74 ) ) ;
#213 = CIRCLE ( 'NONE', #237, 0.1562500000000000833 ) ;
#214 = CARTESIAN_POINT ( 'NONE',  ( 0.000000000000000000, 1.000000000000000000, 0.000000000000000000 ) ) ;
#215 = EDGE_LOOP ( 'NONE', ( #307, #147, #283, #193 ) ) ;
#216 = EDGE_CURVE ( 'NONE', #261, #1, #213, .T. ) ;
#217 = ORIENTED_EDGE ( 'NONE', *, *, #9, .T. ) ;
#218 = ORIENTED_EDGE ( 'NONE', *, *, #278, .F. ) ;
#219 =( GEOMETRIC_REPRESENTATION_CONTEXT ( 3 ) GLOBAL_UNCERTAINTY_ASSIGNED_CONTEXT ( ( #168 ) ) GLOBAL_UNIT_ASSIGNED_CONTEXT ( ( #133, #113, #143 ) ) REPRESENTATION_CONTEXT ( 'NONE', 'WORKASPACE' ) );
#220 = ORIENTED_EDGE ( 'NONE', *, *, #105, .T. ) ;
#221 = ORIENTED_EDGE ( 'NONE', *, *, #45, .T. ) ;
#222 = PRESENTATION_LAYER_ASSIGNMENT (  '', '', ( #119 ) ) ;
#223 = CARTESIAN_POINT ( 'NONE',  ( 1.913510623667739463E-17, 1.000000000000000000, 0.1562500000000000000 ) ) ;
#224 =( LENGTH_UNIT ( ) NAMED_UNIT ( * ) SI_UNIT ( $, .METRE. ) );
#225 = ADVANCED_FACE ( 'NONE', ( #248 ), #210, .F. ) ;
#226 = AXIS2_PLACEMENT_3D ( 'NONE', #191, #186, #114 ) ;
#227 = DIRECTION ( 'NONE',  ( -1.000000000000000000, -4.082155997157843818E-17, 0.000000000000000000 ) ) ;
#228 = AXIS2_PLACEMENT_3D ( 'NONE', #111, #207, #66 ) ;
#229 = COLOUR_RGB ( '',1.000000000000000000, 0.000000000000000000, 0.000000000000000000 ) ;
#230 = DIRECTION ( 'NONE',  ( 0.000000000000000000, 0.000000000000000000, -1.000000000000000000 ) ) ;
#231 = CARTESIAN_POINT ( 'NONE',  ( 0.1562499999999999722, 2.500000000000000000, 1.913510623667739771E-17 ) ) ;
#232 = UNCERTAINTY_MEASURE_WITH_UNIT (LENGTH_MEASURE( 1.000000000000000082E-05 ), #48, 'distance_accuracy_value', 'NONE');
#233 = CYLINDRICAL_SURFACE ( 'NONE', #241, 0.1562500000000000278 ) ;
#234 = CARTESIAN_POINT ( 'NONE',  ( 0.000000000000000000, 1.000000000000000000, 0.000000000000000000 ) ) ;
#235 = FACE_OUTER_BOUND ( 'NONE', #196, .T. ) ;
#236 = ADVANCED_FACE ( 'NONE', ( #28 ), #150, .T. ) ;
#237 = AXIS2_PLACEMENT_3D ( 'NONE', #8, #251, #15 ) ;
#238 = DIRECTION ( 'NONE',  ( -0.000000000000000000, -1.000000000000000000, -0.000000000000000000 ) ) ;
#239 = DIRECTION ( 'NONE',  ( 0.000000000000000000, -0.000000000000000000, 1.000000000000000000 ) ) ;
#240 = ORIENTED_EDGE ( 'NONE', *, *, #245, .T. ) ;
#241 = AXIS2_PLACEMENT_3D ( 'NONE', #272, #16, #91 ) ;
#242 = ORIENTED_EDGE ( 'NONE', *, *, #216, .F. ) ;
#243 =( LENGTH_UNIT ( ) NAMED_UNIT ( * ) SI_UNIT ( $, .METRE. ) );
#244 = SURFACE_SIDE_STYLE ('',( #200 ) ) ;
#245 = EDGE_CURVE ( 'NONE', #44, #77, #182, .T. ) ;
#246 =( GEOMETRIC_REPRESENTATION_CONTEXT ( 3 ) GLOBAL_UNCERTAINTY_ASSIGNED_CONTEXT ( ( #183 ) ) GLOBAL_UNIT_ASSIGNED_CONTEXT ( ( #249, #206, #208 ) ) REPRESENTATION_CONTEXT ( 'NONE', 'WORKASPACE' ) );
#247 = SURFACE_STYLE_FILL_AREA ( #153 ) ;
#248 = FACE_OUTER_BOUND ( 'NONE', #7, .T. ) ;
#249 =( CONVERSION_BASED_UNIT ( 'INCH', #11 ) LENGTH_UNIT ( ) NAMED_UNIT ( #6 ) );
#250 = LENGTH_MEASURE_WITH_UNIT ( LENGTH_MEASURE( 0.02539999999999999897 ), #224 );
#251 = DIRECTION ( 'NONE',  ( -4.082155997157843818E-17, 1.000000000000000000, -0.000000000000000000 ) ) ;
#252 = PRESENTATION_LAYER_ASSIGNMENT (  '', '', ( #195 ) ) ;
#253 = CARTESIAN_POINT ( 'NONE',  ( 0.000000000000000000, 0.000000000000000000, -0.1562500000000000000 ) ) ;
#254 = SURFACE_STYLE_USAGE ( .BOTH. , #260 ) ;
#255 = CARTESIAN_POINT ( 'NONE',  ( 1.913510623667739463E-17, 0.000000000000000000, 0.1562500000000000000 ) ) ;
#256 = EDGE_CURVE ( 'NONE', #22, #279, #289, .T. ) ;
#257 = DIRECTION ( 'NONE',  ( -0.000000000000000000, -1.000000000000000000, -0.000000000000000000 ) ) ;
#258 = ORIENTED_EDGE ( 'NONE', *, *, #9, .F. ) ;
#259 = CARTESIAN_POINT ( 'NONE',  ( -0.1562500000000000000, 1.000000000000000000, 0.000000000000000000 ) ) ;
#260 = SURFACE_SIDE_STYLE ('',( #49 ) ) ;
#261 = VERTEX_POINT ( 'NONE', #296 ) ;
#262 = AXIS2_PLACEMENT_3D ( 'NONE', #234, #17, #115 ) ;
#263 = ORIENTED_EDGE ( 'NONE', *, *, #45, .F. ) ;
#264 = MECHANICAL_DESIGN_GEOMETRIC_PRESENTATION_REPRESENTATION (  '', ( #88 ), #152 ) ;
#265 = DIMENSIONAL_EXPONENTS ( 1.000000000000000000, 0.000000000000000000, 0.000000000000000000, 0.000000000000000000, 0.000000000000000000, 0.000000000000000000, 0.000000000000000000 ) ;
#266 = CIRCLE ( 'NONE', #290, 0.1562500000000000833 ) ;
#267 = FILL_AREA_STYLE ('',( #146 ) ) ;
#268 = LENGTH_MEASURE_WITH_UNIT ( LENGTH_MEASURE( 0.02539999999999999897 ), #177 );
#269 = DIRECTION ( 'NONE',  ( -1.000000000000000000, 0.000000000000000000, 0.000000000000000000 ) ) ;
#270 = PRESENTATION_LAYER_ASSIGNMENT (  '', '', ( #104 ) ) ;
#271 = CARTESIAN_POINT ( 'NONE',  ( -6.123233995736766036E-17, 2.500000000000000000, 0.000000000000000000 ) ) ;
#272 = CARTESIAN_POINT ( 'NONE',  ( -6.123233995736766036E-17, 2.500000000000000000, 0.000000000000000000 ) ) ;
#273 = CARTESIAN_POINT ( 'NONE',  ( 0.000000000000000000, 0.000000000000000000, 0.000000000000000000 ) ) ;
#274 = AXIS2_PLACEMENT_3D ( 'NONE', #273, #93, #65 ) ;
#275 = AXIS2_PLACEMENT_3D ( 'NONE', #92, #46, #120 ) ;
#276 = CARTESIAN_POINT ( 'NONE',  ( 0.000000000000000000, 0.000000000000000000, -0.1562500000000000000 ) ) ;
#277 = ORIENTED_EDGE ( 'NONE', *, *, #35, .F. ) ;
#278 = EDGE_CURVE ( 'NONE', #44, #1, #63, .T. ) ;
#279 = VERTEX_POINT ( 'NONE', #223 ) ;
#280 =( NAMED_UNIT ( * ) PLANE_ANGLE_UNIT ( ) SI_UNIT ( $, .RADIAN. ) );
#281 = MECHANICAL_DESIGN_GEOMETRIC_PRESENTATION_REPRESENTATION (  '', ( #119 ), #219 ) ;
#282 = FILL_AREA_STYLE ('',( #83 ) ) ;
#283 = ORIENTED_EDGE ( 'NONE', *, *, #149, .F. ) ;
#284 = EDGE_CURVE ( 'NONE', #279, #25, #81, .T. ) ;
#285 = MANIFOLD_SOLID_BREP ( 'Revolve - Cutting Edge', #82 ) ;
#286 = PRODUCT_DEFINITION ( 'UNKNOWN', '', #2, #190 ) ;
#287 = MANIFOLD_SOLID_BREP ( 'Revolve - Tool Body (Straight Shanked)', #308 ) ;
#288 = LENGTH_MEASURE_WITH_UNIT ( LENGTH_MEASURE( 0.02539999999999999897 ), #106 );
#289 = CIRCLE ( 'NONE', #228, 0.1562500000000000000 ) ;
#290 = AXIS2_PLACEMENT_3D ( 'NONE', #20, #23, #122 ) ;
#291 = SURFACE_SIDE_STYLE ('',( #76 ) ) ;
#292 = DIRECTION ( 'NONE',  ( -0.000000000000000000, -1.000000000000000000, -0.000000000000000000 ) ) ;
#293 = SURFACE_STYLE_FILL_AREA ( #103 ) ;
#294 = ADVANCED_FACE ( 'NONE', ( #158 ), #86, .T. ) ;
#295 = DIRECTION ( 'NONE',  ( -0.000000000000000000, -1.000000000000000000, -0.000000000000000000 ) ) ;
#296 = CARTESIAN_POINT ( 'NONE',  ( -0.1562500000000001388, 2.500000000000000000, 0.000000000000000000 ) ) ;
#297 = DIRECTION ( 'NONE',  ( 0.000000000000000000, 0.000000000000000000, -1.000000000000000000 ) ) ;
#298 = SURFACE_STYLE_USAGE ( .BOTH. , #159 ) ;
#299 = CARTESIAN_POINT ( 'NONE',  ( 0.000000000000000000, 0.000000000000000000, 0.000000000000000000 ) ) ;
#300 = PRESENTATION_STYLE_ASSIGNMENT (( #298 ) ) ;
#301 = DIRECTION ( 'NONE',  ( -0.000000000000000000, -1.000000000000000000, -0.000000000000000000 ) ) ;
#302 = CIRCLE ( 'NONE', #21, 0.1562500000000000000 ) ;
#303 = VERTEX_POINT ( 'NONE', #253 ) ;
#304 = UNCERTAINTY_MEASURE_WITH_UNIT (LENGTH_MEASURE( 1.000000000000000082E-05 ), #84, 'distance_accuracy_value', 'NONE');
#305 = ORIENTED_EDGE ( 'NONE', *, *, #35, .T. ) ;
#306 = FACE_OUTER_BOUND ( 'NONE', #215, .T. ) ;
#307 = ORIENTED_EDGE ( 'NONE', *, *, #256, .T. ) ;
#308 = CLOSED_SHELL ( 'NONE', ( #294, #116, #154, #225 ) ) ;
#309 = LENGTH_MEASURE_WITH_UNIT ( LENGTH_MEASURE( 0.02539999999999999897 ), #188 );
ENDSEC;
END-ISO-10303-21;
