ISO-10303-21;
HEADER;
FILE_DESCRIPTION (( 'STEP AP214' ),
    '1' );
FILE_NAME ('44397.STEP',
    '2023-06-22T20:26:15',
    ( '' ),
    ( '' ),
    'SwSTEP 2.0',
    'SolidWorks 2023',
    '' );
FILE_SCHEMA (( 'AUTOMOTIVE_DESIGN' ));
ENDSEC;

DATA;
#1 =( CONVERSION_BASED_UNIT ( 'INCH', #260 ) LENGTH_UNIT ( ) NAMED_UNIT ( #30 ) );
#2 = AXIS2_PLACEMENT_3D ( 'NONE', #246, #86, #64 ) ;
#3 = EDGE_CURVE ( 'NONE', #61, #17, #26, .T. ) ;
#4 = MANIFOLD_SOLID_BREP ( 'Revolve - Cutting Edge', #142 ) ;
#5 = COLOUR_RGB ( '',1.000000000000000000, 0.000000000000000000, 0.000000000000000000 ) ;
#6 = DIRECTION ( 'NONE',  ( 1.000000000000000000, 5.442874662877125091E-17, 0.000000000000000000 ) ) ;
#7 = EDGE_CURVE ( 'NONE', #35, #17, #220, .T. ) ;
#8 = DIRECTION ( 'NONE',  ( -0.000000000000000000, -1.000000000000000000, -0.000000000000000000 ) ) ;
#9 = ORIENTED_EDGE ( 'NONE', *, *, #3, .T. ) ;
#10 = ADVANCED_BREP_SHAPE_REPRESENTATION ( '44397', ( #4, #105, #111 ), #46 ) ;
#11 = EDGE_CURVE ( 'NONE', #251, #277, #101, .T. ) ;
#12 =( NAMED_UNIT ( * ) SI_UNIT ( $, .STERADIAN. ) SOLID_ANGLE_UNIT ( ) );
#13 = DIRECTION ( 'NONE',  ( -1.000000000000000000, 0.000000000000000000, 0.000000000000000000 ) ) ;
#14 = ORIENTED_EDGE ( 'NONE', *, *, #29, .T. ) ;
#15 = FACE_OUTER_BOUND ( 'NONE', #177, .T. ) ;
#16 = ORIENTED_EDGE ( 'NONE', *, *, #11, .F. ) ;
#17 = VERTEX_POINT ( 'NONE', #172 ) ;
#18 = CARTESIAN_POINT ( 'NONE',  ( 0.000000000000000000, 2.750000000000000000, 0.000000000000000000 ) ) ;
#19 = EDGE_CURVE ( 'NONE', #277, #251, #168, .T. ) ;
#20 = FACE_OUTER_BOUND ( 'NONE', #121, .T. ) ;
#21 = MECHANICAL_DESIGN_GEOMETRIC_PRESENTATION_REPRESENTATION (  '', ( #114 ), #234 ) ;
#22 =( CONVERSION_BASED_UNIT ( 'INCH', #48 ) LENGTH_UNIT ( ) NAMED_UNIT ( #57 ) );
#23 = DIRECTION ( 'NONE',  ( 1.000000000000000000, 0.000000000000000000, 0.000000000000000000 ) ) ;
#24 = ORIENTED_EDGE ( 'NONE', *, *, #95, .F. ) ;
#25 = FACE_OUTER_BOUND ( 'NONE', #130, .T. ) ;
#26 = CIRCLE ( 'NONE', #164, 0.3750000000000000555 ) ;
#27 = VECTOR ( 'NONE', #178, 39.37007874015748143 ) ;
#28 = CARTESIAN_POINT ( 'NONE',  ( 0.3749999999999999445, 5.000000000000000000, 4.592425496802576068E-17 ) ) ;
#29 = EDGE_CURVE ( 'NONE', #300, #123, #238, .T. ) ;
#30 = DIMENSIONAL_EXPONENTS ( 1.000000000000000000, 0.000000000000000000, 0.000000000000000000, 0.000000000000000000, 0.000000000000000000, 0.000000000000000000, 0.000000000000000000 ) ;
#31 = COLOUR_RGB ( '',0.7921568627450980005, 0.8196078431372548767, 0.9333333333333333481 ) ;
#32 = PLANE ( 'NONE',  #103 ) ;
#33 = ORIENTED_EDGE ( 'NONE', *, *, #237, .T. ) ;
#34 = DIRECTION ( 'NONE',  ( 0.000000000000000000, 1.000000000000000000, 0.000000000000000000 ) ) ;
#35 = VERTEX_POINT ( 'NONE', #141 ) ;
#36 = ORIENTED_EDGE ( 'NONE', *, *, #212, .T. ) ;
#37 = CARTESIAN_POINT ( 'NONE',  ( 0.000000000000000000, 2.750000000000000000, -0.3750000000000000555 ) ) ;
#38 = AXIS2_PLACEMENT_3D ( 'NONE', #197, #295, #87 ) ;
#39 = AXIS2_PLACEMENT_3D ( 'NONE', #190, #8, #65 ) ;
#40 = ORIENTED_EDGE ( 'NONE', *, *, #11, .T. ) ;
#41 = DIRECTION ( 'NONE',  ( 0.000000000000000000, 0.000000000000000000, -1.000000000000000000 ) ) ;
#42 = LINE ( 'NONE', #28, #45 ) ;
#43 = SURFACE_STYLE_FILL_AREA ( #155 ) ;
#44 = DIRECTION ( 'NONE',  ( -5.442874662877125708E-17, 1.000000000000000000, -0.000000000000000000 ) ) ;
#45 = VECTOR ( 'NONE', #216, 39.37007874015748143 ) ;
#46 =( GEOMETRIC_REPRESENTATION_CONTEXT ( 3 ) GLOBAL_UNCERTAINTY_ASSIGNED_CONTEXT ( ( #80 ) ) GLOBAL_UNIT_ASSIGNED_CONTEXT ( ( #22, #51, #213 ) ) REPRESENTATION_CONTEXT ( 'NONE', 'WORKASPACE' ) );
#47 = PRODUCT_RELATED_PRODUCT_CATEGORY ( 'part', '', ( #66 ) ) ;
#48 = LENGTH_MEASURE_WITH_UNIT ( LENGTH_MEASURE( 0.02539999999999999897 ), #229 );
#49 = SURFACE_STYLE_FILL_AREA ( #76 ) ;
#50 = FILL_AREA_STYLE_COLOUR ( '', #254 ) ;
#51 =( NAMED_UNIT ( * ) PLANE_ANGLE_UNIT ( ) SI_UNIT ( $, .RADIAN. ) );
#52 = EDGE_LOOP ( 'NONE', ( #266, #133, #16, #150 ) ) ;
#53 = AXIS2_PLACEMENT_3D ( 'NONE', #287, #97, #210 ) ;
#54 = DIRECTION ( 'NONE',  ( 0.000000000000000000, 0.000000000000000000, 1.000000000000000000 ) ) ;
#55 =( NAMED_UNIT ( * ) PLANE_ANGLE_UNIT ( ) SI_UNIT ( $, .RADIAN. ) );
#56 = APPLICATION_CONTEXT ( 'automotive_design' ) ;
#57 = DIMENSIONAL_EXPONENTS ( 1.000000000000000000, 0.000000000000000000, 0.000000000000000000, 0.000000000000000000, 0.000000000000000000, 0.000000000000000000, 0.000000000000000000 ) ;
#58 = VECTOR ( 'NONE', #293, 39.37007874015748143 ) ;
#59 = COLOUR_RGB ( '',1.000000000000000000, 0.000000000000000000, 0.000000000000000000 ) ;
#60 = CYLINDRICAL_SURFACE ( 'NONE', #125, 0.3750000000000000555 ) ;
#61 = VERTEX_POINT ( 'NONE', #265 ) ;
#62 = PRESENTATION_STYLE_ASSIGNMENT (( #243 ) ) ;
#63 = ADVANCED_FACE ( 'NONE', ( #113 ), #116, .T. ) ;
#64 = DIRECTION ( 'NONE',  ( -1.000000000000000000, 0.000000000000000000, 0.000000000000000000 ) ) ;
#65 = DIRECTION ( 'NONE',  ( 0.000000000000000000, 0.000000000000000000, -1.000000000000000000 ) ) ;
#66 = PRODUCT ( '44397', '44397', '', ( #122 ) ) ;
#67 = CIRCLE ( 'NONE', #39, 0.3750000000000000555 ) ;
#68 = ORIENTED_EDGE ( 'NONE', *, *, #7, .F. ) ;
#69 = CARTESIAN_POINT ( 'NONE',  ( 3.032960542342103792E-32, 2.750000000000000000, 0.000000000000000000 ) ) ;
#70 = SURFACE_STYLE_USAGE ( .BOTH. , #191 ) ;
#71 = DIRECTION ( 'NONE',  ( 0.000000000000000000, 0.000000000000000000, -1.000000000000000000 ) ) ;
#72 = CARTESIAN_POINT ( 'NONE',  ( -0.3750000000000002776, 5.000000000000000000, 0.000000000000000000 ) ) ;
#73 = PRODUCT_DEFINITION ( 'UNKNOWN', '', #255, #163 ) ;
#74 = AXIS2_PLACEMENT_3D ( 'NONE', #236, #44, #79 ) ;
#75 = ADVANCED_FACE ( 'NONE', ( #20 ), #308, .T. ) ;
#76 = FILL_AREA_STYLE ('',( #50 ) ) ;
#77 = SURFACE_STYLE_USAGE ( .BOTH. , #156 ) ;
#78 = LENGTH_MEASURE_WITH_UNIT ( LENGTH_MEASURE( 0.02539999999999999897 ), #185 );
#79 = DIRECTION ( 'NONE',  ( -1.000000000000000000, 0.000000000000000000, 0.000000000000000000 ) ) ;
#80 = UNCERTAINTY_MEASURE_WITH_UNIT (LENGTH_MEASURE( 1.000000000000000082E-05 ), #22, 'distance_accuracy_value', 'NONE');
#81 = SURFACE_STYLE_FILL_AREA ( #194 ) ;
#82 =( LENGTH_UNIT ( ) NAMED_UNIT ( * ) SI_UNIT ( $, .METRE. ) );
#83 = MECHANICAL_DESIGN_GEOMETRIC_PRESENTATION_REPRESENTATION (  '', ( #227 ), #136 ) ;
#84 = ORIENTED_EDGE ( 'NONE', *, *, #253, .F. ) ;
#85 =( NAMED_UNIT ( * ) SI_UNIT ( $, .STERADIAN. ) SOLID_ANGLE_UNIT ( ) );
#86 = DIRECTION ( 'NONE',  ( -5.442874662877125708E-17, 1.000000000000000000, -0.000000000000000000 ) ) ;
#87 = DIRECTION ( 'NONE',  ( -1.000000000000000000, 0.000000000000000000, 0.000000000000000000 ) ) ;
#88 = CARTESIAN_POINT ( 'NONE',  ( 0.3750000000000000555, 2.750000000000000000, 4.592425496802576684E-17 ) ) ;
#89 = AXIS2_PLACEMENT_3D ( 'NONE', #302, #182, #309 ) ;
#90 = ORIENTED_EDGE ( 'NONE', *, *, #143, .F. ) ;
#91 = SURFACE_STYLE_FILL_AREA ( #278 ) ;
#92 = SURFACE_STYLE_USAGE ( .BOTH. , #146 ) ;
#93 = UNCERTAINTY_MEASURE_WITH_UNIT (LENGTH_MEASURE( 1.000000000000000082E-05 ), #235, 'distance_accuracy_value', 'NONE');
#94 = DIRECTION ( 'NONE',  ( -0.000000000000000000, -1.000000000000000000, -0.000000000000000000 ) ) ;
#95 = EDGE_CURVE ( 'NONE', #249, #61, #282, .T. ) ;
#96 = COLOUR_RGB ( '',0.7921568627450980005, 0.8196078431372548767, 0.9333333333333333481 ) ;
#97 = DIRECTION ( 'NONE',  ( -0.000000000000000000, -1.000000000000000000, -0.000000000000000000 ) ) ;
#98 =( NAMED_UNIT ( * ) SI_UNIT ( $, .STERADIAN. ) SOLID_ANGLE_UNIT ( ) );
#99 = FILL_AREA_STYLE ('',( #230 ) ) ;
#100 = SURFACE_SIDE_STYLE ('',( #206 ) ) ;
#101 = CIRCLE ( 'NONE', #2, 0.3750000000000001665 ) ;
#102 = STYLED_ITEM ( 'NONE', ( #280 ), #4 ) ;
#103 = AXIS2_PLACEMENT_3D ( 'NONE', #289, #214, #174 ) ;
#104 = LENGTH_MEASURE_WITH_UNIT ( LENGTH_MEASURE( 0.02539999999999999897 ), #82 );
#105 = MANIFOLD_SOLID_BREP ( 'Revolve - Tool Body (Straight Shanked)', #233 ) ;
#106 = DIMENSIONAL_EXPONENTS ( 1.000000000000000000, 0.000000000000000000, 0.000000000000000000, 0.000000000000000000, 0.000000000000000000, 0.000000000000000000, 0.000000000000000000 ) ;
#107 = CARTESIAN_POINT ( 'NONE',  ( 4.592425496802575451E-17, 0.000000000000000000, 0.3750000000000000555 ) ) ;
#108 = FILL_AREA_STYLE_COLOUR ( '', #5 ) ;
#109 = ORIENTED_EDGE ( 'NONE', *, *, #19, .T. ) ;
#110 = CIRCLE ( 'NONE', #263, 0.3750000000000000555 ) ;
#111 = AXIS2_PLACEMENT_3D ( 'NONE', #288, #54, #23 ) ;
#112 = CARTESIAN_POINT ( 'NONE',  ( 0.000000000000000000, 0.000000000000000000, 0.000000000000000000 ) ) ;
#113 = FACE_OUTER_BOUND ( 'NONE', #175, .T. ) ;
#114 = STYLED_ITEM ( 'NONE', ( #62 ), #193 ) ;
#115 = PRESENTATION_STYLE_ASSIGNMENT (( #304 ) ) ;
#116 = CYLINDRICAL_SURFACE ( 'NONE', #53, 0.3750000000000000555 ) ;
#117 = APPLICATION_CONTEXT ( 'automotive_design' ) ;
#118 = APPLICATION_PROTOCOL_DEFINITION ( 'draft international standard', 'automotive_design', 1998, #117 ) ;
#119 = PRESENTATION_LAYER_ASSIGNMENT (  '', '', ( #227 ) ) ;
#120 = AXIS2_PLACEMENT_3D ( 'NONE', #132, #223, #13 ) ;
#121 = EDGE_LOOP ( 'NONE', ( #9, #239 ) ) ;
#122 = PRODUCT_CONTEXT ( 'NONE', #117, 'mechanical' ) ;
#123 = VERTEX_POINT ( 'NONE', #126 ) ;
#124 = CYLINDRICAL_SURFACE ( 'NONE', #201, 0.3750000000000001110 ) ;
#125 = AXIS2_PLACEMENT_3D ( 'NONE', #259, #94, #71 ) ;
#126 = CARTESIAN_POINT ( 'NONE',  ( -0.3750000000000000555, 2.750000000000000000, 0.000000000000000000 ) ) ;
#127 =( CONVERSION_BASED_UNIT ( 'INCH', #245 ) LENGTH_UNIT ( ) NAMED_UNIT ( #106 ) );
#128 =( CONVERSION_BASED_UNIT ( 'INCH', #203 ) LENGTH_UNIT ( ) NAMED_UNIT ( #189 ) );
#129 = CIRCLE ( 'NONE', #305, 0.3750000000000000555 ) ;
#130 = EDGE_LOOP ( 'NONE', ( #40, #109 ) ) ;
#131 = EDGE_CURVE ( 'NONE', #300, #277, #42, .T. ) ;
#132 = CARTESIAN_POINT ( 'NONE',  ( -1.224646799147353207E-16, 5.000000000000000000, 0.000000000000000000 ) ) ;
#133 = ORIENTED_EDGE ( 'NONE', *, *, #131, .T. ) ;
#134 = EDGE_LOOP ( 'NONE', ( #272, #14, #33, #228 ) ) ;
#135 =( CONVERSION_BASED_UNIT ( 'INCH', #256 ) LENGTH_UNIT ( ) NAMED_UNIT ( #296 ) );
#136 =( GEOMETRIC_REPRESENTATION_CONTEXT ( 3 ) GLOBAL_UNCERTAINTY_ASSIGNED_CONTEXT ( ( #283 ) ) GLOBAL_UNIT_ASSIGNED_CONTEXT ( ( #1, #140, #240 ) ) REPRESENTATION_CONTEXT ( 'NONE', 'WORKASPACE' ) );
#137 =( NAMED_UNIT ( * ) PLANE_ANGLE_UNIT ( ) SI_UNIT ( $, .RADIAN. ) );
#138 = CARTESIAN_POINT ( 'NONE',  ( 0.000000000000000000, 2.750000000000000000, 0.000000000000000000 ) ) ;
#139 = FILL_AREA_STYLE_COLOUR ( '', #96 ) ;
#140 =( NAMED_UNIT ( * ) PLANE_ANGLE_UNIT ( ) SI_UNIT ( $, .RADIAN. ) );
#141 = CARTESIAN_POINT ( 'NONE',  ( 4.592425496802575451E-17, 2.750000000000000000, 0.3750000000000000555 ) ) ;
#142 = CLOSED_SHELL ( 'NONE', ( #63, #257, #193, #75 ) ) ;
#143 = EDGE_CURVE ( 'NONE', #249, #35, #67, .T. ) ;
#144 = ORIENTED_EDGE ( 'NONE', *, *, #212, .F. ) ;
#145 = ORIENTED_EDGE ( 'NONE', *, *, #143, .T. ) ;
#146 = SURFACE_SIDE_STYLE ('',( #49 ) ) ;
#147 = PRESENTATION_LAYER_ASSIGNMENT (  '', '', ( #268 ) ) ;
#148 = SURFACE_STYLE_FILL_AREA ( #275 ) ;
#149 = ORIENTED_EDGE ( 'NONE', *, *, #215, .F. ) ;
#150 = ORIENTED_EDGE ( 'NONE', *, *, #237, .F. ) ;
#151 = SURFACE_SIDE_STYLE ('',( #148 ) ) ;
#152 = ORIENTED_EDGE ( 'NONE', *, *, #29, .F. ) ;
#153 = FILL_AREA_STYLE_COLOUR ( '', #286 ) ;
#154 =( LENGTH_UNIT ( ) NAMED_UNIT ( * ) SI_UNIT ( $, .METRE. ) );
#155 = FILL_AREA_STYLE ('',( #153 ) ) ;
#156 = SURFACE_SIDE_STYLE ('',( #43 ) ) ;
#157 = PRESENTATION_LAYER_ASSIGNMENT (  '', '', ( #114 ) ) ;
#158 = ADVANCED_FACE ( 'NONE', ( #25 ), #241, .F. ) ;
#159 = CARTESIAN_POINT ( 'NONE',  ( 0.000000000000000000, 0.000000000000000000, -0.3750000000000000555 ) ) ;
#160 =( LENGTH_UNIT ( ) NAMED_UNIT ( * ) SI_UNIT ( $, .METRE. ) );
#161 =( GEOMETRIC_REPRESENTATION_CONTEXT ( 3 ) GLOBAL_UNCERTAINTY_ASSIGNED_CONTEXT ( ( #188 ) ) GLOBAL_UNIT_ASSIGNED_CONTEXT ( ( #128, #137, #12 ) ) REPRESENTATION_CONTEXT ( 'NONE', 'WORKASPACE' ) );
#162 = CIRCLE ( 'NONE', #165, 0.3750000000000000555 ) ;
#163 = PRODUCT_DEFINITION_CONTEXT ( 'detailed design', #56, 'design' ) ;
#164 = AXIS2_PLACEMENT_3D ( 'NONE', #199, #179, #298 ) ;
#165 = AXIS2_PLACEMENT_3D ( 'NONE', #69, #281, #208 ) ;
#166 =( CONVERSION_BASED_UNIT ( 'INCH', #104 ) LENGTH_UNIT ( ) NAMED_UNIT ( #244 ) );
#167 = FACE_OUTER_BOUND ( 'NONE', #52, .T. ) ;
#168 = CIRCLE ( 'NONE', #38, 0.3750000000000001665 ) ;
#169 = MECHANICAL_DESIGN_GEOMETRIC_PRESENTATION_REPRESENTATION (  '', ( #268 ), #187 ) ;
#170 = SURFACE_STYLE_USAGE ( .BOTH. , #269 ) ;
#171 = ADVANCED_FACE ( 'NONE', ( #294 ), #32, .F. ) ;
#172 = CARTESIAN_POINT ( 'NONE',  ( 4.592425496802575451E-17, 0.000000000000000000, 0.3750000000000000555 ) ) ;
#173 = DIMENSIONAL_EXPONENTS ( 1.000000000000000000, 0.000000000000000000, 0.000000000000000000, 0.000000000000000000, 0.000000000000000000, 0.000000000000000000, 0.000000000000000000 ) ;
#174 = DIRECTION ( 'NONE',  ( -1.000000000000000000, -5.442874662877125091E-17, 0.000000000000000000 ) ) ;
#175 = EDGE_LOOP ( 'NONE', ( #145, #274, #252, #24 ) ) ;
#176 = VECTOR ( 'NONE', #258, 39.37007874015748143 ) ;
#177 = EDGE_LOOP ( 'NONE', ( #90, #144 ) ) ;
#178 = DIRECTION ( 'NONE',  ( -5.442874662877125091E-17, 1.000000000000000000, -0.000000000000000000 ) ) ;
#179 = DIRECTION ( 'NONE',  ( -0.000000000000000000, -1.000000000000000000, -0.000000000000000000 ) ) ;
#180 = ADVANCED_FACE ( 'NONE', ( #167 ), #124, .T. ) ;
#181 =( NAMED_UNIT ( * ) SI_UNIT ( $, .STERADIAN. ) SOLID_ANGLE_UNIT ( ) );
#182 = DIRECTION ( 'NONE',  ( 0.000000000000000000, -1.000000000000000000, -0.000000000000000000 ) ) ;
#183 =( NAMED_UNIT ( * ) PLANE_ANGLE_UNIT ( ) SI_UNIT ( $, .RADIAN. ) );
#184 = AXIS2_PLACEMENT_3D ( 'NONE', #247, #196, #6 ) ;
#185 =( LENGTH_UNIT ( ) NAMED_UNIT ( * ) SI_UNIT ( $, .METRE. ) );
#186 =( GEOMETRIC_REPRESENTATION_CONTEXT ( 3 ) GLOBAL_UNCERTAINTY_ASSIGNED_CONTEXT ( ( #93 ) ) GLOBAL_UNIT_ASSIGNED_CONTEXT ( ( #235, #285, #98 ) ) REPRESENTATION_CONTEXT ( 'NONE', 'WORKASPACE' ) );
#187 =( GEOMETRIC_REPRESENTATION_CONTEXT ( 3 ) GLOBAL_UNCERTAINTY_ASSIGNED_CONTEXT ( ( #231 ) ) GLOBAL_UNIT_ASSIGNED_CONTEXT ( ( #166, #55, #85 ) ) REPRESENTATION_CONTEXT ( 'NONE', 'WORKASPACE' ) );
#188 = UNCERTAINTY_MEASURE_WITH_UNIT (LENGTH_MEASURE( 1.000000000000000082E-05 ), #128, 'distance_accuracy_value', 'NONE');
#189 = DIMENSIONAL_EXPONENTS ( 1.000000000000000000, 0.000000000000000000, 0.000000000000000000, 0.000000000000000000, 0.000000000000000000, 0.000000000000000000, 0.000000000000000000 ) ;
#190 = CARTESIAN_POINT ( 'NONE',  ( 0.000000000000000000, 2.750000000000000000, 0.000000000000000000 ) ) ;
#191 = SURFACE_SIDE_STYLE ('',( #91 ) ) ;
#192 = MECHANICAL_DESIGN_GEOMETRIC_PRESENTATION_REPRESENTATION (  '', ( #221 ), #186 ) ;
#193 = ADVANCED_FACE ( 'NONE', ( #270 ), #60, .T. ) ;
#194 = FILL_AREA_STYLE ('',( #139 ) ) ;
#195 = FILL_AREA_STYLE_COLOUR ( '', #31 ) ;
#196 = DIRECTION ( 'NONE',  ( 5.442874662877125091E-17, -1.000000000000000000, 0.000000000000000000 ) ) ;
#197 = CARTESIAN_POINT ( 'NONE',  ( -1.224646799147353207E-16, 5.000000000000000000, 0.000000000000000000 ) ) ;
#198 = DIRECTION ( 'NONE',  ( -0.000000000000000000, -1.000000000000000000, -0.000000000000000000 ) ) ;
#199 = CARTESIAN_POINT ( 'NONE',  ( 0.000000000000000000, 0.000000000000000000, 0.000000000000000000 ) ) ;
#200 = MECHANICAL_DESIGN_GEOMETRIC_PRESENTATION_REPRESENTATION (  '', ( #102 ), #161 ) ;
#201 = AXIS2_PLACEMENT_3D ( 'NONE', #222, #292, #291 ) ;
#202 =( LENGTH_UNIT ( ) NAMED_UNIT ( * ) SI_UNIT ( $, .METRE. ) );
#203 = LENGTH_MEASURE_WITH_UNIT ( LENGTH_MEASURE( 0.02539999999999999897 ), #154 );
#204 = DIRECTION ( 'NONE',  ( 0.000000000000000000, -0.000000000000000000, 1.000000000000000000 ) ) ;
#205 = DIRECTION ( 'NONE',  ( -0.000000000000000000, -1.000000000000000000, -0.000000000000000000 ) ) ;
#206 = SURFACE_STYLE_FILL_AREA ( #99 ) ;
#207 = PRESENTATION_LAYER_ASSIGNMENT (  '', '', ( #209 ) ) ;
#208 = DIRECTION ( 'NONE',  ( -1.000000000000000000, 0.000000000000000000, 0.000000000000000000 ) ) ;
#209 = STYLED_ITEM ( 'NONE', ( #297 ), #257 ) ;
#210 = DIRECTION ( 'NONE',  ( 0.000000000000000000, 0.000000000000000000, -1.000000000000000000 ) ) ;
#211 = SHAPE_DEFINITION_REPRESENTATION ( #273, #10 ) ;
#212 = EDGE_CURVE ( 'NONE', #35, #249, #129, .T. ) ;
#213 =( NAMED_UNIT ( * ) SI_UNIT ( $, .STERADIAN. ) SOLID_ANGLE_UNIT ( ) );
#214 = DIRECTION ( 'NONE',  ( -5.442874662877125091E-17, 1.000000000000000000, 0.000000000000000000 ) ) ;
#215 = EDGE_CURVE ( 'NONE', #123, #300, #162, .T. ) ;
#216 = DIRECTION ( 'NONE',  ( -5.442874662877125091E-17, 1.000000000000000000, -0.000000000000000000 ) ) ;
#217 =( LENGTH_UNIT ( ) NAMED_UNIT ( * ) SI_UNIT ( $, .METRE. ) );
#218 = EDGE_LOOP ( 'NONE', ( #68, #36, #226, #84 ) ) ;
#219 = PRESENTATION_STYLE_ASSIGNMENT (( #170 ) ) ;
#220 = LINE ( 'NONE', #107, #58 ) ;
#221 = STYLED_ITEM ( 'NONE', ( #261 ), #63 ) ;
#222 = CARTESIAN_POINT ( 'NONE',  ( -1.224646799147353207E-16, 5.000000000000000000, 0.000000000000000000 ) ) ;
#223 = DIRECTION ( 'NONE',  ( -5.442874662877125708E-17, 1.000000000000000000, -0.000000000000000000 ) ) ;
#224 = EDGE_LOOP ( 'NONE', ( #149, #152 ) ) ;
#225 = CARTESIAN_POINT ( 'NONE',  ( -0.3750000000000002220, 5.000000000000000000, 0.000000000000000000 ) ) ;
#226 = ORIENTED_EDGE ( 'NONE', *, *, #95, .T. ) ;
#227 = STYLED_ITEM ( 'NONE', ( #115 ), #75 ) ;
#228 = ORIENTED_EDGE ( 'NONE', *, *, #19, .F. ) ;
#229 =( LENGTH_UNIT ( ) NAMED_UNIT ( * ) SI_UNIT ( $, .METRE. ) );
#230 = FILL_AREA_STYLE_COLOUR ( '', #59 ) ;
#231 = UNCERTAINTY_MEASURE_WITH_UNIT (LENGTH_MEASURE( 1.000000000000000082E-05 ), #166, 'distance_accuracy_value', 'NONE');
#232 = FACE_OUTER_BOUND ( 'NONE', #134, .T. ) ;
#233 = CLOSED_SHELL ( 'NONE', ( #180, #171, #290, #158 ) ) ;
#234 =( GEOMETRIC_REPRESENTATION_CONTEXT ( 3 ) GLOBAL_UNCERTAINTY_ASSIGNED_CONTEXT ( ( #306 ) ) GLOBAL_UNIT_ASSIGNED_CONTEXT ( ( #127, #301, #181 ) ) REPRESENTATION_CONTEXT ( 'NONE', 'WORKASPACE' ) );
#235 =( CONVERSION_BASED_UNIT ( 'INCH', #78 ) LENGTH_UNIT ( ) NAMED_UNIT ( #173 ) );
#236 = CARTESIAN_POINT ( 'NONE',  ( 3.032960542342103792E-32, 2.750000000000000000, 0.000000000000000000 ) ) ;
#237 = EDGE_CURVE ( 'NONE', #123, #251, #303, .T. ) ;
#238 = CIRCLE ( 'NONE', #74, 0.3750000000000000555 ) ;
#239 = ORIENTED_EDGE ( 'NONE', *, *, #253, .T. ) ;
#240 =( NAMED_UNIT ( * ) SI_UNIT ( $, .STERADIAN. ) SOLID_ANGLE_UNIT ( ) );
#241 = PLANE ( 'NONE',  #184 ) ;
#242 =( GEOMETRIC_REPRESENTATION_CONTEXT ( 3 ) GLOBAL_UNCERTAINTY_ASSIGNED_CONTEXT ( ( #267 ) ) GLOBAL_UNIT_ASSIGNED_CONTEXT ( ( #135, #183, #250 ) ) REPRESENTATION_CONTEXT ( 'NONE', 'WORKASPACE' ) );
#243 = SURFACE_STYLE_USAGE ( .BOTH. , #151 ) ;
#244 = DIMENSIONAL_EXPONENTS ( 1.000000000000000000, 0.000000000000000000, 0.000000000000000000, 0.000000000000000000, 0.000000000000000000, 0.000000000000000000, 0.000000000000000000 ) ;
#245 = LENGTH_MEASURE_WITH_UNIT ( LENGTH_MEASURE( 0.02539999999999999897 ), #217 );
#246 = CARTESIAN_POINT ( 'NONE',  ( -1.224646799147353207E-16, 5.000000000000000000, 0.000000000000000000 ) ) ;
#247 = CARTESIAN_POINT ( 'NONE',  ( 0.3750000000000000555, 5.000000000000000000, 0.000000000000000000 ) ) ;
#248 = MECHANICAL_DESIGN_GEOMETRIC_PRESENTATION_REPRESENTATION (  '', ( #209 ), #242 ) ;
#249 = VERTEX_POINT ( 'NONE', #37 ) ;
#250 =( NAMED_UNIT ( * ) SI_UNIT ( $, .STERADIAN. ) SOLID_ANGLE_UNIT ( ) );
#251 = VERTEX_POINT ( 'NONE', #72 ) ;
#252 = ORIENTED_EDGE ( 'NONE', *, *, #3, .F. ) ;
#253 = EDGE_CURVE ( 'NONE', #17, #61, #110, .T. ) ;
#254 = COLOUR_RGB ( '',1.000000000000000000, 0.000000000000000000, 0.000000000000000000 ) ;
#255 = PRODUCT_DEFINITION_FORMATION_WITH_SPECIFIED_SOURCE ( 'ANY', '', #66, .NOT_KNOWN. ) ;
#256 = LENGTH_MEASURE_WITH_UNIT ( LENGTH_MEASURE( 0.02539999999999999897 ), #202 );
#257 = ADVANCED_FACE ( 'NONE', ( #15 ), #279, .T. ) ;
#258 = DIRECTION ( 'NONE',  ( -0.000000000000000000, -1.000000000000000000, -0.000000000000000000 ) ) ;
#259 = CARTESIAN_POINT ( 'NONE',  ( 0.000000000000000000, 0.000000000000000000, 0.000000000000000000 ) ) ;
#260 = LENGTH_MEASURE_WITH_UNIT ( LENGTH_MEASURE( 0.02539999999999999897 ), #160 );
#261 = PRESENTATION_STYLE_ASSIGNMENT (( #92 ) ) ;
#262 = PRESENTATION_LAYER_ASSIGNMENT (  '', '', ( #102 ) ) ;
#263 = AXIS2_PLACEMENT_3D ( 'NONE', #112, #205, #41 ) ;
#264 = APPLICATION_PROTOCOL_DEFINITION ( 'draft international standard', 'automotive_design', 1998, #56 ) ;
#265 = CARTESIAN_POINT ( 'NONE',  ( 0.000000000000000000, 0.000000000000000000, -0.3750000000000000555 ) ) ;
#266 = ORIENTED_EDGE ( 'NONE', *, *, #215, .T. ) ;
#267 = UNCERTAINTY_MEASURE_WITH_UNIT (LENGTH_MEASURE( 1.000000000000000082E-05 ), #135, 'distance_accuracy_value', 'NONE');
#268 = STYLED_ITEM ( 'NONE', ( #219 ), #105 ) ;
#269 = SURFACE_SIDE_STYLE ('',( #81 ) ) ;
#270 = FACE_OUTER_BOUND ( 'NONE', #218, .T. ) ;
#271 = PRESENTATION_LAYER_ASSIGNMENT (  '', '', ( #221 ) ) ;
#272 = ORIENTED_EDGE ( 'NONE', *, *, #131, .F. ) ;
#273 = PRODUCT_DEFINITION_SHAPE ( 'NONE', 'NONE',  #73 ) ;
#274 = ORIENTED_EDGE ( 'NONE', *, *, #7, .T. ) ;
#275 = FILL_AREA_STYLE ('',( #108 ) ) ;
#276 = AXIS2_PLACEMENT_3D ( 'NONE', #138, #34, #204 ) ;
#277 = VERTEX_POINT ( 'NONE', #307 ) ;
#278 = FILL_AREA_STYLE ('',( #195 ) ) ;
#279 = PLANE ( 'NONE',  #276 ) ;
#280 = PRESENTATION_STYLE_ASSIGNMENT (( #70 ) ) ;
#281 = DIRECTION ( 'NONE',  ( -5.442874662877125708E-17, 1.000000000000000000, -0.000000000000000000 ) ) ;
#282 = LINE ( 'NONE', #159, #176 ) ;
#283 = UNCERTAINTY_MEASURE_WITH_UNIT (LENGTH_MEASURE( 1.000000000000000082E-05 ), #1, 'distance_accuracy_value', 'NONE');
#284 = CYLINDRICAL_SURFACE ( 'NONE', #120, 0.3750000000000001110 ) ;
#285 =( NAMED_UNIT ( * ) PLANE_ANGLE_UNIT ( ) SI_UNIT ( $, .RADIAN. ) );
#286 = COLOUR_RGB ( '',1.000000000000000000, 0.000000000000000000, 0.000000000000000000 ) ;
#287 = CARTESIAN_POINT ( 'NONE',  ( 0.000000000000000000, 0.000000000000000000, 0.000000000000000000 ) ) ;
#288 = CARTESIAN_POINT ( 'NONE',  ( 0.000000000000000000, 0.000000000000000000, 0.000000000000000000 ) ) ;
#289 = CARTESIAN_POINT ( 'NONE',  ( 5.554665861710585348E-34, 2.750000000000000000, 0.000000000000000000 ) ) ;
#290 = ADVANCED_FACE ( 'NONE', ( #232 ), #284, .T. ) ;
#291 = DIRECTION ( 'NONE',  ( -1.000000000000000000, 0.000000000000000000, 0.000000000000000000 ) ) ;
#292 = DIRECTION ( 'NONE',  ( -5.442874662877125708E-17, 1.000000000000000000, -0.000000000000000000 ) ) ;
#293 = DIRECTION ( 'NONE',  ( -0.000000000000000000, -1.000000000000000000, -0.000000000000000000 ) ) ;
#294 = FACE_OUTER_BOUND ( 'NONE', #224, .T. ) ;
#295 = DIRECTION ( 'NONE',  ( -5.442874662877125708E-17, 1.000000000000000000, -0.000000000000000000 ) ) ;
#296 = DIMENSIONAL_EXPONENTS ( 1.000000000000000000, 0.000000000000000000, 0.000000000000000000, 0.000000000000000000, 0.000000000000000000, 0.000000000000000000, 0.000000000000000000 ) ;
#297 = PRESENTATION_STYLE_ASSIGNMENT (( #77 ) ) ;
#298 = DIRECTION ( 'NONE',  ( 0.000000000000000000, 0.000000000000000000, -1.000000000000000000 ) ) ;
#299 = DIRECTION ( 'NONE',  ( 0.000000000000000000, 0.000000000000000000, -1.000000000000000000 ) ) ;
#300 = VERTEX_POINT ( 'NONE', #88 ) ;
#301 =( NAMED_UNIT ( * ) PLANE_ANGLE_UNIT ( ) SI_UNIT ( $, .RADIAN. ) );
#302 = CARTESIAN_POINT ( 'NONE',  ( 0.000000000000000000, 0.000000000000000000, 0.000000000000000000 ) ) ;
#303 = LINE ( 'NONE', #225, #27 ) ;
#304 = SURFACE_STYLE_USAGE ( .BOTH. , #100 ) ;
#305 = AXIS2_PLACEMENT_3D ( 'NONE', #18, #198, #299 ) ;
#306 = UNCERTAINTY_MEASURE_WITH_UNIT (LENGTH_MEASURE( 1.000000000000000082E-05 ), #127, 'distance_accuracy_value', 'NONE');
#307 = CARTESIAN_POINT ( 'NONE',  ( 0.3750000000000000555, 5.000000000000000000, 4.592425496802576684E-17 ) ) ;
#308 = PLANE ( 'NONE',  #89 ) ;
#309 = DIRECTION ( 'NONE',  ( 0.000000000000000000, 0.000000000000000000, -1.000000000000000000 ) ) ;
ENDSEC;
END-ISO-10303-21;
