ISO-10303-21;
HEADER;
FILE_DESCRIPTION (( 'STEP AP214' ),
    '1' );
FILE_NAME ('Micro_RME-028-2X.STEP',
    '2021-09-01T23:05:18',
    ( '' ),
    ( '' ),
    'SwSTEP 2.0',
    'SolidWorks 2020',
    '' );
FILE_SCHEMA (( 'AUTOMOTIVE_DESIGN' ));
ENDSEC;

DATA;
#1 = DIRECTION ( 'NONE',  ( -1.000000000000000000, 0.0000000000000000000, 1.224646799147353454E-16 ) ) ;
#2 = DIRECTION ( 'NONE',  ( 0.0000000000000000000, 0.0000000000000000000, -1.000000000000000000 ) ) ;
#3 = CIRCLE ( 'NONE', #233, 0.01398600000000000364 ) ;
#4 = DIRECTION ( 'NONE',  ( 1.000000000000000000, 0.0000000000000000000, 0.0000000000000000000 ) ) ;
#5 = EDGE_CURVE ( 'NONE', #164, #45, #173, .T. ) ;
#6 = CIRCLE ( 'NONE', #175, 0.04750000000000064587 ) ;
#7 = PRODUCT_RELATED_PRODUCT_CATEGORY ( 'part', '', ( #83 ) ) ;
#8 = ADVANCED_BREP_SHAPE_REPRESENTATION ( 'Micro_RME-028-2X', ( #93, #262 ), #104 ) ;
#9 = DIRECTION ( 'NONE',  ( -1.224646799147353454E-16, -0.0000000000000000000, -1.000000000000000000 ) ) ;
#10 = DIRECTION ( 'NONE',  ( -1.000000000000000000, 0.0000000000000000000, 0.0000000000000000000 ) ) ;
#11 = SURFACE_STYLE_FILL_AREA ( #36 ) ;
#12 = CARTESIAN_POINT ( 'NONE',  ( 0.04750000000000064587, 6.735557395310483192E-18, 1.500000000000000222 ) ) ;
#13 =( LENGTH_UNIT ( ) NAMED_UNIT ( * ) SI_UNIT ( $, .METRE. ) );
#14 = STYLED_ITEM ( 'NONE', ( #284 ), #93 ) ;
#15 = CIRCLE ( 'NONE', #217, 0.06250000000000002776 ) ;
#16 = DIRECTION ( 'NONE',  ( -0.0000000000000000000, -0.0000000000000000000, -1.000000000000000000 ) ) ;
#17 = VERTEX_POINT ( 'NONE', #61 ) ;
#18 = SURFACE_SIDE_STYLE ('',( #11 ) ) ;
#19 = EDGE_LOOP ( 'NONE', ( #253, #53, #74, #157 ) ) ;
#20 = CARTESIAN_POINT ( 'NONE',  ( 1.028703311283777035E-17, 0.0000000000000000000, 0.08400000000000001910 ) ) ;
#21 = ORIENTED_EDGE ( 'NONE', *, *, #79, .T. ) ;
#22 = DIRECTION ( 'NONE',  ( 0.0000000000000000000, 0.0000000000000000000, -1.000000000000000000 ) ) ;
#23 = ORIENTED_EDGE ( 'NONE', *, *, #221, .F. ) ;
#24 = CARTESIAN_POINT ( 'NONE',  ( 0.0000000000000000000, 0.0000000000000000000, 1.500000000000000222 ) ) ;
#25 = CARTESIAN_POINT ( 'NONE',  ( 0.01398600000000000190, 1.712791013287488357E-18, -1.712791013287488934E-18 ) ) ;
#26 = DIRECTION ( 'NONE',  ( 1.000000000000000000, 0.0000000000000000000, 0.0000000000000000000 ) ) ;
#27 = ORIENTED_EDGE ( 'NONE', *, *, #5, .T. ) ;
#28 = CARTESIAN_POINT ( 'NONE',  ( 0.01398600000000001405, 0.0000000000000000000, 0.08400000000000001910 ) ) ;
#29 = CONICAL_SURFACE ( 'NONE', #57, 0.04750000000000064587, 0.7853981633974466137 ) ;
#30 = ADVANCED_FACE ( 'NONE', ( #244 ), #216, .T. ) ;
#31 = EDGE_CURVE ( 'NONE', #35, #224, #42, .T. ) ;
#32 = DIRECTION ( 'NONE',  ( -1.224646799147353454E-16, -0.0000000000000000000, -1.000000000000000000 ) ) ;
#33 = UNCERTAINTY_MEASURE_WITH_UNIT (LENGTH_MEASURE( 1.000000000000000082E-05 ), #285, 'distance_accuracy_value', 'NONE');
#34 = VECTOR ( 'NONE', #16, 39.37007874015748143 ) ;
#35 = VERTEX_POINT ( 'NONE', #213 ) ;
#36 = FILL_AREA_STYLE ('',( #241 ) ) ;
#37 = CARTESIAN_POINT ( 'NONE',  ( 0.0000000000000000000, 0.0000000000000000000, 0.0000000000000000000 ) ) ;
#38 = CIRCLE ( 'NONE', #142, 0.01398599999999999670 ) ;
#39 = AXIS2_PLACEMENT_3D ( 'NONE', #139, #296, #263 ) ;
#40 = ADVANCED_FACE ( 'NONE', ( #295 ), #123, .T. ) ;
#41 = LINE ( 'NONE', #113, #34 ) ;
#42 = CIRCLE ( 'NONE', #283, 0.06250000000000002776 ) ;
#43 = SURFACE_STYLE_USAGE ( .BOTH. , #201 ) ;
#44 = ORIENTED_EDGE ( 'NONE', *, *, #125, .F. ) ;
#45 = VERTEX_POINT ( 'NONE', #12 ) ;
#46 = ORIENTED_EDGE ( 'NONE', *, *, #299, .F. ) ;
#47 = ADVANCED_FACE ( 'NONE', ( #112 ), #194, .T. ) ;
#48 = DIRECTION ( 'NONE',  ( 1.000000000000000000, 0.0000000000000000000, 0.0000000000000000000 ) ) ;
#49 = CONICAL_SURFACE ( 'NONE', #39, 0.01398600000000000364, 0.1745329251994338637 ) ;
#50 = DIRECTION ( 'NONE',  ( 1.000000000000000000, 0.0000000000000000000, 0.0000000000000000000 ) ) ;
#51 = ORIENTED_EDGE ( 'NONE', *, *, #150, .T. ) ;
#52 = CARTESIAN_POINT ( 'NONE',  ( 0.06250000000000006939, 7.654042494670963708E-18, 0.3591365661969321832 ) ) ;
#53 = ORIENTED_EDGE ( 'NONE', *, *, #147, .T. ) ;
#54 = CARTESIAN_POINT ( 'NONE',  ( -0.06249999999999997918, 0.0000000000000000000, 0.3591365661969321832 ) ) ;
#55 = DIRECTION ( 'NONE',  ( -1.224646799147353454E-16, -0.0000000000000000000, -1.000000000000000000 ) ) ;
#56 = AXIS2_PLACEMENT_3D ( 'NONE', #84, #259, #219 ) ;
#57 = AXIS2_PLACEMENT_3D ( 'NONE', #179, #22, #71 ) ;
#58 = FACE_OUTER_BOUND ( 'NONE', #78, .T. ) ;
#59 = CLOSED_SHELL ( 'NONE', ( #102, #265, #193, #63, #47, #40, #30, #254, #298, #172 ) ) ;
#60 = CIRCLE ( 'NONE', #189, 0.01398599999999999670 ) ;
#61 = CARTESIAN_POINT ( 'NONE',  ( 0.01398599999999999670, 1.712791013287488164E-18, 2.369500423704768587E-34 ) ) ;
#62 = DIRECTION ( 'NONE',  ( -1.000000000000000000, 0.0000000000000000000, 0.0000000000000000000 ) ) ;
#63 = ADVANCED_FACE ( 'NONE', ( #141 ), #126, .T. ) ;
#64 = DIRECTION ( 'NONE',  ( -0.0000000000000000000, -0.0000000000000000000, -1.000000000000000000 ) ) ;
#65 = CYLINDRICAL_SURFACE ( 'NONE', #181, 0.01398600000000000190 ) ;
#66 = ORIENTED_EDGE ( 'NONE', *, *, #237, .T. ) ;
#67 = PRESENTATION_STYLE_ASSIGNMENT (( #43 ) ) ;
#68 = AXIS2_PLACEMENT_3D ( 'NONE', #252, #55, #50 ) ;
#69 = CARTESIAN_POINT ( 'NONE',  ( 0.04750000000000064587, 5.817072295950006528E-18, 1.500000000000000222 ) ) ;
#70 = VERTEX_POINT ( 'NONE', #54 ) ;
#71 = DIRECTION ( 'NONE',  ( -1.000000000000000000, 0.0000000000000000000, 0.0000000000000000000 ) ) ;
#72 = VERTEX_POINT ( 'NONE', #240 ) ;
#73 = CARTESIAN_POINT ( 'NONE',  ( 0.06250000000000002776, 7.654042494670959086E-18, 1.500000000000000222 ) ) ;
#74 = ORIENTED_EDGE ( 'NONE', *, *, #129, .F. ) ;
#75 = VECTOR ( 'NONE', #165, 39.37007874015748143 ) ;
#76 = APPLICATION_PROTOCOL_DEFINITION ( 'draft international standard', 'automotive_design', 1998, #188 ) ;
#77 = CARTESIAN_POINT ( 'NONE',  ( 1.028703311283777035E-17, 0.0000000000000000000, 0.08400000000000001910 ) ) ;
#78 = EDGE_LOOP ( 'NONE', ( #152, #238, #227, #256 ) ) ;
#79 = EDGE_CURVE ( 'NONE', #72, #269, #3, .T. ) ;
#80 = CARTESIAN_POINT ( 'NONE',  ( -0.04750000000000064587, 0.0000000000000000000, 1.500000000000000222 ) ) ;
#81 = DIRECTION ( 'NONE',  ( -1.000000000000000000, 0.0000000000000000000, 1.224646799147353454E-16 ) ) ;
#82 = VECTOR ( 'NONE', #234, 39.37007874015748143 ) ;
#83 = PRODUCT ( 'Micro_RME-028-2X', 'Micro_RME-028-2X', '', ( #276 ) ) ;
#84 = CARTESIAN_POINT ( 'NONE',  ( 0.0000000000000000000, 0.0000000000000000000, 1.500000000000000222 ) ) ;
#85 = AXIS2_PLACEMENT_3D ( 'NONE', #77, #191, #4 ) ;
#86 =( NAMED_UNIT ( * ) PLANE_ANGLE_UNIT ( ) SI_UNIT ( $, .RADIAN. ) );
#87 = MECHANICAL_DESIGN_GEOMETRIC_PRESENTATION_REPRESENTATION (  '', ( #14 ), #99 ) ;
#88 =( LENGTH_UNIT ( ) NAMED_UNIT ( * ) SI_UNIT ( $, .METRE. ) );
#89 = CARTESIAN_POINT ( 'NONE',  ( -0.01398599999999999670, 0.0000000000000000000, 3.425582026574976328E-18 ) ) ;
#90 = DIRECTION ( 'NONE',  ( -1.224646799147353454E-16, -0.0000000000000000000, -1.000000000000000000 ) ) ;
#91 = ORIENTED_EDGE ( 'NONE', *, *, #94, .T. ) ;
#92 = VECTOR ( 'NONE', #156, 39.37007874015748143 ) ;
#93 = MANIFOLD_SOLID_BREP ( 'Cut-Revolve1', #59 ) ;
#94 = EDGE_CURVE ( 'NONE', #35, #70, #41, .T. ) ;
#95 = ORIENTED_EDGE ( 'NONE', *, *, #218, .T. ) ;
#96 = EDGE_LOOP ( 'NONE', ( #145, #236 ) ) ;
#97 = CARTESIAN_POINT ( 'NONE',  ( 0.0000000000000000000, 0.0000000000000000000, 1.500000000000000222 ) ) ;
#98 = EDGE_LOOP ( 'NONE', ( #277, #138, #111, #134 ) ) ;
#99 =( GEOMETRIC_REPRESENTATION_CONTEXT ( 3 ) GLOBAL_UNCERTAINTY_ASSIGNED_CONTEXT ( ( #297 ) ) GLOBAL_UNIT_ASSIGNED_CONTEXT ( ( #192, #86, #268 ) ) REPRESENTATION_CONTEXT ( 'NONE', 'WORKASPACE' ) );
#100 = DIRECTION ( 'NONE',  ( 1.000000000000000000, 0.0000000000000000000, 0.0000000000000000000 ) ) ;
#101 = CARTESIAN_POINT ( 'NONE',  ( -0.01398599999999999323, 1.712791013287488549E-18, 0.08400000000000001910 ) ) ;
#102 = ADVANCED_FACE ( 'NONE', ( #148 ), #65, .T. ) ;
#103 = VERTEX_POINT ( 'NONE', #89 ) ;
#104 =( GEOMETRIC_REPRESENTATION_CONTEXT ( 3 ) GLOBAL_UNCERTAINTY_ASSIGNED_CONTEXT ( ( #144 ) ) GLOBAL_UNIT_ASSIGNED_CONTEXT ( ( #247, #110, #163 ) ) REPRESENTATION_CONTEXT ( 'NONE', 'WORKASPACE' ) );
#105 = CYLINDRICAL_SURFACE ( 'NONE', #128, 0.01398600000000000190 ) ;
#106 = SURFACE_STYLE_USAGE ( .BOTH. , #18 ) ;
#107 = AXIS2_PLACEMENT_3D ( 'NONE', #24, #260, #120 ) ;
#108 = CARTESIAN_POINT ( 'NONE',  ( 0.0000000000000000000, 0.0000000000000000000, 0.0000000000000000000 ) ) ;
#109 = DIRECTION ( 'NONE',  ( -0.1736481776669311639, 2.126576849575783008E-17, 0.9848077530122080203 ) ) ;
#110 =( NAMED_UNIT ( * ) PLANE_ANGLE_UNIT ( ) SI_UNIT ( $, .RADIAN. ) );
#111 = ORIENTED_EDGE ( 'NONE', *, *, #281, .F. ) ;
#112 = FACE_OUTER_BOUND ( 'NONE', #177, .T. ) ;
#113 = CARTESIAN_POINT ( 'NONE',  ( -0.06250000000000002776, 0.0000000000000000000, 1.500000000000000222 ) ) ;
#114 = PRODUCT_DEFINITION_FORMATION_WITH_SPECIFIED_SOURCE ( 'ANY', '', #83, .NOT_KNOWN. ) ;
#115 = LINE ( 'NONE', #73, #92 ) ;
#116 = ORIENTED_EDGE ( 'NONE', *, *, #117, .T. ) ;
#117 = EDGE_CURVE ( 'NONE', #45, #224, #272, .T. ) ;
#118 = FACE_OUTER_BOUND ( 'NONE', #273, .T. ) ;
#119 = ORIENTED_EDGE ( 'NONE', *, *, #117, .F. ) ;
#120 = DIRECTION ( 'NONE',  ( -1.000000000000000000, 0.0000000000000000000, 0.0000000000000000000 ) ) ;
#121 = CARTESIAN_POINT ( 'NONE',  ( 0.0000000000000000000, 0.0000000000000000000, 0.0000000000000000000 ) ) ;
#122 = DIRECTION ( 'NONE',  ( 0.0000000000000000000, 0.0000000000000000000, -1.000000000000000000 ) ) ;
#123 = PLANE ( 'NONE',  #245 ) ;
#124 = LINE ( 'NONE', #80, #208 ) ;
#125 = EDGE_CURVE ( 'NONE', #17, #103, #60, .T. ) ;
#126 = CYLINDRICAL_SURFACE ( 'NONE', #226, 0.06250000000000002776 ) ;
#127 = VECTOR ( 'NONE', #153, 39.37007874015748854 ) ;
#128 = AXIS2_PLACEMENT_3D ( 'NONE', #37, #9, #81 ) ;
#129 = EDGE_CURVE ( 'NONE', #103, #17, #38, .T. ) ;
#130 = DIRECTION ( 'NONE',  ( 1.000000000000000000, 0.0000000000000000000, -0.0000000000000000000 ) ) ;
#131 = AXIS2_PLACEMENT_3D ( 'NONE', #121, #293, #274 ) ;
#132 =( GEOMETRIC_REPRESENTATION_CONTEXT ( 3 ) GLOBAL_UNCERTAINTY_ASSIGNED_CONTEXT ( ( #33 ) ) GLOBAL_UNIT_ASSIGNED_CONTEXT ( ( #285, #257, #251 ) ) REPRESENTATION_CONTEXT ( 'NONE', 'WORKASPACE' ) );
#133 = VERTEX_POINT ( 'NONE', #52 ) ;
#134 = ORIENTED_EDGE ( 'NONE', *, *, #94, .F. ) ;
#135 = EDGE_LOOP ( 'NONE', ( #46, #280, #291, #95 ) ) ;
#136 = STYLED_ITEM ( 'NONE', ( #67 ), #8 ) ;
#137 = DIRECTION ( 'NONE',  ( -1.000000000000000000, 0.0000000000000000000, 1.224646799147353454E-16 ) ) ;
#138 = ORIENTED_EDGE ( 'NONE', *, *, #207, .T. ) ;
#139 = CARTESIAN_POINT ( 'NONE',  ( 1.028703311283777035E-17, 0.0000000000000000000, 0.08400000000000001910 ) ) ;
#140 = ORIENTED_EDGE ( 'NONE', *, *, #147, .F. ) ;
#141 = FACE_OUTER_BOUND ( 'NONE', #98, .T. ) ;
#142 = AXIS2_PLACEMENT_3D ( 'NONE', #211, #200, #1 ) ;
#143 = FACE_OUTER_BOUND ( 'NONE', #96, .T. ) ;
#144 = UNCERTAINTY_MEASURE_WITH_UNIT (LENGTH_MEASURE( 1.000000000000000082E-05 ), #247, 'distance_accuracy_value', 'NONE');
#145 = ORIENTED_EDGE ( 'NONE', *, *, #129, .T. ) ;
#146 = EDGE_CURVE ( 'NONE', #72, #133, #205, .T. ) ;
#147 = EDGE_CURVE ( 'NONE', #72, #17, #178, .T. ) ;
#148 = FACE_OUTER_BOUND ( 'NONE', #19, .T. ) ;
#149 = SURFACE_STYLE_FILL_AREA ( #243 ) ;
#150 = EDGE_CURVE ( 'NONE', #269, #103, #155, .T. ) ;
#151 = AXIS2_PLACEMENT_3D ( 'NONE', #223, #2, #235 ) ;
#152 = ORIENTED_EDGE ( 'NONE', *, *, #176, .F. ) ;
#153 = DIRECTION ( 'NONE',  ( 0.7071067811865462405, 8.659560562354916834E-17, -0.7071067811865486830 ) ) ;
#154 = EDGE_LOOP ( 'NONE', ( #140, #21, #51, #44 ) ) ;
#155 = LINE ( 'NONE', #288, #239 ) ;
#156 = DIRECTION ( 'NONE',  ( -0.0000000000000000000, -0.0000000000000000000, -1.000000000000000000 ) ) ;
#157 = ORIENTED_EDGE ( 'NONE', *, *, #150, .F. ) ;
#158 = FILL_AREA_STYLE_COLOUR ( '', #171 ) ;
#159 = SHAPE_DEFINITION_REPRESENTATION ( #289, #8 ) ;
#160 = ORIENTED_EDGE ( 'NONE', *, *, #207, .F. ) ;
#161 = DIRECTION ( 'NONE',  ( 1.000000000000000000, 0.0000000000000000000, 0.0000000000000000000 ) ) ;
#162 = CARTESIAN_POINT ( 'NONE',  ( 0.0000000000000000000, 0.0000000000000000000, 1.485000000000000764 ) ) ;
#163 =( NAMED_UNIT ( * ) SI_UNIT ( $, .STERADIAN. ) SOLID_ANGLE_UNIT ( ) );
#164 = VERTEX_POINT ( 'NONE', #184 ) ;
#165 = DIRECTION ( 'NONE',  ( -1.224646799147353454E-16, -0.0000000000000000000, -1.000000000000000000 ) ) ;
#166 = DIRECTION ( 'NONE',  ( -1.224646799147353454E-16, -0.0000000000000000000, -1.000000000000000000 ) ) ;
#167 = AXIS2_PLACEMENT_3D ( 'NONE', #20, #32, #228 ) ;
#168 = CARTESIAN_POINT ( 'NONE',  ( 0.0000000000000000000, 0.0000000000000000000, 1.500000000000000222 ) ) ;
#169 = PRESENTATION_LAYER_ASSIGNMENT (  '', '', ( #14 ) ) ;
#170 = LENGTH_MEASURE_WITH_UNIT ( LENGTH_MEASURE( 0.02539999999999999897 ), #88 );
#171 = COLOUR_RGB ( '',0.7921568627450980005, 0.8196078431372548767, 0.9333333333333333481 ) ;
#172 = ADVANCED_FACE ( 'NONE', ( #143 ), #225, .F. ) ;
#173 = CIRCLE ( 'NONE', #56, 0.04750000000000064587 ) ;
#174 = DIRECTION ( 'NONE',  ( -1.000000000000000000, 0.0000000000000000000, 1.224646799147353454E-16 ) ) ;
#175 = AXIS2_PLACEMENT_3D ( 'NONE', #97, #258, #255 ) ;
#176 = EDGE_CURVE ( 'NONE', #269, #72, #294, .T. ) ;
#177 = EDGE_LOOP ( 'NONE', ( #160, #290, #91, #275 ) ) ;
#178 = LINE ( 'NONE', #25, #75 ) ;
#179 = CARTESIAN_POINT ( 'NONE',  ( 0.0000000000000000000, 0.0000000000000000000, 1.500000000000000222 ) ) ;
#180 = ORIENTED_EDGE ( 'NONE', *, *, #187, .T. ) ;
#181 = AXIS2_PLACEMENT_3D ( 'NONE', #108, #90, #174 ) ;
#182 = DIRECTION ( 'NONE',  ( 0.0000000000000000000, 0.0000000000000000000, 1.000000000000000000 ) ) ;
#183 = DIRECTION ( 'NONE',  ( -0.7071067811865462405, 0.0000000000000000000, -0.7071067811865486830 ) ) ;
#184 = CARTESIAN_POINT ( 'NONE',  ( -0.04750000000000064587, 0.0000000000000000000, 1.500000000000000222 ) ) ;
#185 = DIRECTION ( 'NONE',  ( 0.0000000000000000000, 0.0000000000000000000, -1.000000000000000000 ) ) ;
#186 = CIRCLE ( 'NONE', #68, 0.06250000000000002776 ) ;
#187 = EDGE_CURVE ( 'NONE', #164, #35, #124, .T. ) ;
#188 = APPLICATION_CONTEXT ( 'automotive_design' ) ;
#189 = AXIS2_PLACEMENT_3D ( 'NONE', #222, #195, #137 ) ;
#190 = DIMENSIONAL_EXPONENTS ( 1.000000000000000000, 0.0000000000000000000, 0.0000000000000000000, 0.0000000000000000000, 0.0000000000000000000, 0.0000000000000000000, 0.0000000000000000000 ) ;
#191 = DIRECTION ( 'NONE',  ( 1.224646799147353454E-16, 0.0000000000000000000, 1.000000000000000000 ) ) ;
#192 =( CONVERSION_BASED_UNIT ( 'INCH', #170 ) LENGTH_UNIT ( ) NAMED_UNIT ( #206 ) );
#193 = ADVANCED_FACE ( 'NONE', ( #118 ), #29, .T. ) ;
#194 = CYLINDRICAL_SURFACE ( 'NONE', #107, 0.06250000000000002776 ) ;
#195 = DIRECTION ( 'NONE',  ( -1.224646799147353454E-16, -0.0000000000000000000, -1.000000000000000000 ) ) ;
#196 = COLOUR_RGB ( '',0.7921568627450980005, 0.8196078431372548767, 0.9333333333333333481 ) ;
#197 = VECTOR ( 'NONE', #109, 39.37007874015747433 ) ;
#198 = ORIENTED_EDGE ( 'NONE', *, *, #5, .F. ) ;
#199 = APPLICATION_PROTOCOL_DEFINITION ( 'draft international standard', 'automotive_design', 1998, #214 ) ;
#200 = DIRECTION ( 'NONE',  ( -1.224646799147353454E-16, -0.0000000000000000000, -1.000000000000000000 ) ) ;
#201 = SURFACE_SIDE_STYLE ('',( #149 ) ) ;
#202 = CARTESIAN_POINT ( 'NONE',  ( 0.06250000000000002776, 7.654042494670959086E-18, 1.485000000000000764 ) ) ;
#203 = ORIENTED_EDGE ( 'NONE', *, *, #237, .F. ) ;
#204 = CARTESIAN_POINT ( 'NONE',  ( -0.01398599999999999323, 4.683416753979224684E-18, 0.08400000000000001910 ) ) ;
#205 = LINE ( 'NONE', #28, #82 ) ;
#206 = DIMENSIONAL_EXPONENTS ( 1.000000000000000000, 0.0000000000000000000, 0.0000000000000000000, 0.0000000000000000000, 0.0000000000000000000, 0.0000000000000000000, 0.0000000000000000000 ) ;
#207 = EDGE_CURVE ( 'NONE', #224, #133, #115, .T. ) ;
#208 = VECTOR ( 'NONE', #183, 39.37007874015748854 ) ;
#209 = FACE_OUTER_BOUND ( 'NONE', #135, .T. ) ;
#210 = CARTESIAN_POINT ( 'NONE',  ( 0.0000000000000000000, 0.0000000000000000000, 1.500000000000000222 ) ) ;
#211 = CARTESIAN_POINT ( 'NONE',  ( 2.097564032030874619E-34, 0.0000000000000000000, 1.712791013287488164E-18 ) ) ;
#212 = PRODUCT_DEFINITION_CONTEXT ( 'detailed design', #214, 'design' ) ;
#213 = CARTESIAN_POINT ( 'NONE',  ( -0.06250000000000002776, 0.0000000000000000000, 1.485000000000000764 ) ) ;
#214 = APPLICATION_CONTEXT ( 'automotive_design' ) ;
#215 = CONICAL_SURFACE ( 'NONE', #85, 0.01398600000000000364, 0.1745329251994338637 ) ;
#216 = CONICAL_SURFACE ( 'NONE', #151, 0.04750000000000064587, 0.7853981633974466137 ) ;
#217 = AXIS2_PLACEMENT_3D ( 'NONE', #279, #166, #161 ) ;
#218 = EDGE_CURVE ( 'NONE', #133, #70, #186, .T. ) ;
#219 = DIRECTION ( 'NONE',  ( 1.000000000000000000, 0.0000000000000000000, 0.0000000000000000000 ) ) ;
#220 = LENGTH_MEASURE_WITH_UNIT ( LENGTH_MEASURE( 0.02539999999999999897 ), #13 );
#221 = EDGE_CURVE ( 'NONE', #224, #35, #261, .T. ) ;
#222 = CARTESIAN_POINT ( 'NONE',  ( 2.097564032030874619E-34, 0.0000000000000000000, 1.712791013287488164E-18 ) ) ;
#223 = CARTESIAN_POINT ( 'NONE',  ( 0.0000000000000000000, 0.0000000000000000000, 1.500000000000000222 ) ) ;
#224 = VERTEX_POINT ( 'NONE', #202 ) ;
#225 = PLANE ( 'NONE',  #131 ) ;
#226 = AXIS2_PLACEMENT_3D ( 'NONE', #168, #64, #10 ) ;
#227 = ORIENTED_EDGE ( 'NONE', *, *, #281, .T. ) ;
#228 = DIRECTION ( 'NONE',  ( -1.000000000000000000, 0.0000000000000000000, 0.0000000000000000000 ) ) ;
#229 = EDGE_LOOP ( 'NONE', ( #119, #198, #180, #23 ) ) ;
#230 = DIRECTION ( 'NONE',  ( -1.224646799147353454E-16, -0.0000000000000000000, -1.000000000000000000 ) ) ;
#231 = LINE ( 'NONE', #101, #197 ) ;
#232 = CARTESIAN_POINT ( 'NONE',  ( 0.0000000000000000000, 0.0000000000000000000, 1.485000000000000764 ) ) ;
#233 = AXIS2_PLACEMENT_3D ( 'NONE', #282, #266, #62 ) ;
#234 = DIRECTION ( 'NONE',  ( 0.1736481776669313581, 0.0000000000000000000, 0.9848077530122077983 ) ) ;
#235 = DIRECTION ( 'NONE',  ( -1.000000000000000000, 0.0000000000000000000, 0.0000000000000000000 ) ) ;
#236 = ORIENTED_EDGE ( 'NONE', *, *, #125, .T. ) ;
#237 = EDGE_CURVE ( 'NONE', #45, #164, #6, .T. ) ;
#238 = ORIENTED_EDGE ( 'NONE', *, *, #299, .T. ) ;
#239 = VECTOR ( 'NONE', #230, 39.37007874015748143 ) ;
#240 = CARTESIAN_POINT ( 'NONE',  ( 0.01398600000000001405, 0.0000000000000000000, 0.08400000000000001910 ) ) ;
#241 = FILL_AREA_STYLE_COLOUR ( '', #196 ) ;
#242 = PRESENTATION_LAYER_ASSIGNMENT (  '', '', ( #136 ) ) ;
#243 = FILL_AREA_STYLE ('',( #158 ) ) ;
#244 = FACE_OUTER_BOUND ( 'NONE', #229, .T. ) ;
#245 = AXIS2_PLACEMENT_3D ( 'NONE', #210, #267, #130 ) ;
#246 = MECHANICAL_DESIGN_GEOMETRIC_PRESENTATION_REPRESENTATION (  '', ( #136 ), #132 ) ;
#247 =( CONVERSION_BASED_UNIT ( 'INCH', #220 ) LENGTH_UNIT ( ) NAMED_UNIT ( #292 ) );
#248 = ORIENTED_EDGE ( 'NONE', *, *, #187, .F. ) ;
#249 = CARTESIAN_POINT ( 'NONE',  ( 0.0000000000000000000, 0.0000000000000000000, 0.0000000000000000000 ) ) ;
#250 = ORIENTED_EDGE ( 'NONE', *, *, #31, .F. ) ;
#251 =( NAMED_UNIT ( * ) SI_UNIT ( $, .STERADIAN. ) SOLID_ANGLE_UNIT ( ) );
#252 = CARTESIAN_POINT ( 'NONE',  ( 4.398154462498446286E-17, 0.0000000000000000000, 0.3591365661969321832 ) ) ;
#253 = ORIENTED_EDGE ( 'NONE', *, *, #176, .T. ) ;
#254 = ADVANCED_FACE ( 'NONE', ( #209 ), #49, .T. ) ;
#255 = DIRECTION ( 'NONE',  ( 1.000000000000000000, 0.0000000000000000000, 0.0000000000000000000 ) ) ;
#256 = ORIENTED_EDGE ( 'NONE', *, *, #146, .F. ) ;
#257 =( NAMED_UNIT ( * ) PLANE_ANGLE_UNIT ( ) SI_UNIT ( $, .RADIAN. ) );
#258 = DIRECTION ( 'NONE',  ( 0.0000000000000000000, 0.0000000000000000000, 1.000000000000000000 ) ) ;
#259 = DIRECTION ( 'NONE',  ( 0.0000000000000000000, 0.0000000000000000000, 1.000000000000000000 ) ) ;
#260 = DIRECTION ( 'NONE',  ( -0.0000000000000000000, -0.0000000000000000000, -1.000000000000000000 ) ) ;
#261 = CIRCLE ( 'NONE', #271, 0.06250000000000002776 ) ;
#262 = AXIS2_PLACEMENT_3D ( 'NONE', #249, #182, #48 ) ;
#263 = DIRECTION ( 'NONE',  ( 1.000000000000000000, 0.0000000000000000000, 0.0000000000000000000 ) ) ;
#264 = FACE_OUTER_BOUND ( 'NONE', #154, .T. ) ;
#265 = ADVANCED_FACE ( 'NONE', ( #58 ), #215, .T. ) ;
#266 = DIRECTION ( 'NONE',  ( -1.224646799147353454E-16, -0.0000000000000000000, -1.000000000000000000 ) ) ;
#267 = DIRECTION ( 'NONE',  ( 0.0000000000000000000, 0.0000000000000000000, 1.000000000000000000 ) ) ;
#268 =( NAMED_UNIT ( * ) SI_UNIT ( $, .STERADIAN. ) SOLID_ANGLE_UNIT ( ) );
#269 = VERTEX_POINT ( 'NONE', #204 ) ;
#270 = PRODUCT_DEFINITION ( 'UNKNOWN', '', #114, #212 ) ;
#271 = AXIS2_PLACEMENT_3D ( 'NONE', #162, #122, #100 ) ;
#272 = LINE ( 'NONE', #69, #127 ) ;
#273 = EDGE_LOOP ( 'NONE', ( #203, #116, #250, #248 ) ) ;
#274 = DIRECTION ( 'NONE',  ( 1.000000000000000000, 0.0000000000000000000, -0.0000000000000000000 ) ) ;
#275 = ORIENTED_EDGE ( 'NONE', *, *, #218, .F. ) ;
#276 = PRODUCT_CONTEXT ( 'NONE', #188, 'mechanical' ) ;
#277 = ORIENTED_EDGE ( 'NONE', *, *, #31, .T. ) ;
#278 = LENGTH_MEASURE_WITH_UNIT ( LENGTH_MEASURE( 0.02539999999999999897 ), #286 );
#279 = CARTESIAN_POINT ( 'NONE',  ( 4.398154462498446286E-17, 0.0000000000000000000, 0.3591365661969321832 ) ) ;
#280 = ORIENTED_EDGE ( 'NONE', *, *, #79, .F. ) ;
#281 = EDGE_CURVE ( 'NONE', #70, #133, #15, .T. ) ;
#282 = CARTESIAN_POINT ( 'NONE',  ( 1.028703311283777035E-17, 0.0000000000000000000, 0.08400000000000001910 ) ) ;
#283 = AXIS2_PLACEMENT_3D ( 'NONE', #232, #185, #26 ) ;
#284 = PRESENTATION_STYLE_ASSIGNMENT (( #106 ) ) ;
#285 =( CONVERSION_BASED_UNIT ( 'INCH', #278 ) LENGTH_UNIT ( ) NAMED_UNIT ( #190 ) );
#286 =( LENGTH_UNIT ( ) NAMED_UNIT ( * ) SI_UNIT ( $, .METRE. ) );
#287 = EDGE_LOOP ( 'NONE', ( #27, #66 ) ) ;
#288 = CARTESIAN_POINT ( 'NONE',  ( -0.01398600000000000190, 0.0000000000000000000, 1.712791013287488934E-18 ) ) ;
#289 = PRODUCT_DEFINITION_SHAPE ( 'NONE', 'NONE',  #270 ) ;
#290 = ORIENTED_EDGE ( 'NONE', *, *, #221, .T. ) ;
#291 = ORIENTED_EDGE ( 'NONE', *, *, #146, .T. ) ;
#292 = DIMENSIONAL_EXPONENTS ( 1.000000000000000000, 0.0000000000000000000, 0.0000000000000000000, 0.0000000000000000000, 0.0000000000000000000, 0.0000000000000000000, 0.0000000000000000000 ) ;
#293 = DIRECTION ( 'NONE',  ( 0.0000000000000000000, 0.0000000000000000000, 1.000000000000000000 ) ) ;
#294 = CIRCLE ( 'NONE', #167, 0.01398600000000000364 ) ;
#295 = FACE_OUTER_BOUND ( 'NONE', #287, .T. ) ;
#296 = DIRECTION ( 'NONE',  ( 1.224646799147353454E-16, 0.0000000000000000000, 1.000000000000000000 ) ) ;
#297 = UNCERTAINTY_MEASURE_WITH_UNIT (LENGTH_MEASURE( 1.000000000000000082E-05 ), #192, 'distance_accuracy_value', 'NONE');
#298 = ADVANCED_FACE ( 'NONE', ( #264 ), #105, .T. ) ;
#299 = EDGE_CURVE ( 'NONE', #269, #70, #231, .T. ) ;
ENDSEC;
END-ISO-10303-21;
