ISO-10303-21;
HEADER;
FILE_DESCRIPTION (( 'STEP AP214' ),
    '1' );
FILE_NAME ('Micro_MMBM-012-20.STEP',
    '2021-09-03T16:28:16',
    ( '' ),
    ( '' ),
    'SwSTEP 2.0',
    'SolidWorks 2020',
    '' );
FILE_SCHEMA (( 'AUTOMOTIVE_DESIGN' ));
ENDSEC;

DATA;
#1 = ORIENTED_EDGE ( 'NONE', *, *, #360, .T. ) ;
#2 = CONICAL_SURFACE ( 'NONE', #41, 0.02361963780000000609, 0.1745329251994333919 ) ;
#3 = FACE_OUTER_BOUND ( 'NONE', #225, .T. ) ;
#4 = UNCERTAINTY_MEASURE_WITH_UNIT (LENGTH_MEASURE( 1.000000000000000082E-05 ), #321, 'distance_accuracy_value', 'NONE');
#5 = CARTESIAN_POINT ( 'NONE',  ( -0.1181100000000000066, 0.0000000000000000000, 0.7874019999999998243 ) ) ;
#6 = CARTESIAN_POINT ( 'NONE',  ( -0.1181100000000000066, 0.0000000000000000000, 2.229093999999999465 ) ) ;
#7 = DIMENSIONAL_EXPONENTS ( 1.000000000000000000, 0.0000000000000000000, 0.0000000000000000000, 0.0000000000000000000, 0.0000000000000000000, 0.0000000000000000000, 0.0000000000000000000 ) ;
#8 = AXIS2_PLACEMENT_3D ( 'NONE', #43, #365, #160 ) ;
#9 = CARTESIAN_POINT ( 'NONE',  ( 0.0000000000000000000, 0.0000000000000000000, 2.244094000000000033 ) ) ;
#10 = EDGE_CURVE ( 'NONE', #86, #165, #218, .T. ) ;
#11 = DIRECTION ( 'NONE',  ( 1.000000000000000000, 0.0000000000000000000, 0.0000000000000000000 ) ) ;
#12 = CARTESIAN_POINT ( 'NONE',  ( -0.02361963780000000609, 0.0000000000000000000, 0.0000000000000000000 ) ) ;
#13 = UNCERTAINTY_MEASURE_WITH_UNIT (LENGTH_MEASURE( 1.000000000000000082E-05 ), #72, 'distance_accuracy_value', 'NONE');
#14 = SURFACE_STYLE_FILL_AREA ( #216 ) ;
#15 = SURFACE_STYLE_FILL_AREA ( #183 ) ;
#16 = AXIS2_PLACEMENT_3D ( 'NONE', #91, #153, #325 ) ;
#17 = COLOUR_RGB ( '',0.7921568627450980005, 0.8196078431372548767, 0.9333333333333333481 ) ;
#18 = DIRECTION ( 'NONE',  ( -1.000000000000000000, 0.0000000000000000000, 0.0000000000000000000 ) ) ;
#19 = DIRECTION ( 'NONE',  ( -1.000000000000000000, 0.0000000000000000000, 0.0000000000000000000 ) ) ;
#20 = ORIENTED_EDGE ( 'NONE', *, *, #341, .T. ) ;
#21 = CARTESIAN_POINT ( 'NONE',  ( 0.02361963780000000609, 2.892571382878983863E-18, 0.04724400000000000127 ) ) ;
#22 = ORIENTED_EDGE ( 'NONE', *, *, #210, .F. ) ;
#23 = ORIENTED_EDGE ( 'NONE', *, *, #210, .T. ) ;
#24 = APPLICATION_PROTOCOL_DEFINITION ( 'draft international standard', 'automotive_design', 1998, #64 ) ;
#25 = ORIENTED_EDGE ( 'NONE', *, *, #159, .T. ) ;
#26 = STYLED_ITEM ( 'NONE', ( #39 ), #98 ) ;
#27 = DIRECTION ( 'NONE',  ( -1.000000000000000000, 0.0000000000000000000, 0.0000000000000000000 ) ) ;
#28 = EDGE_CURVE ( 'NONE', #110, #190, #328, .T. ) ;
#29 = ORIENTED_EDGE ( 'NONE', *, *, #154, .F. ) ;
#30 = EDGE_LOOP ( 'NONE', ( #200, #261, #289, #139 ) ) ;
#31 = FACE_OUTER_BOUND ( 'NONE', #228, .T. ) ;
#32 = CARTESIAN_POINT ( 'NONE',  ( 0.1031100000000002570, 1.354581824536888722E-17, 2.244094000000000033 ) ) ;
#33 = CARTESIAN_POINT ( 'NONE',  ( 0.0000000000000000000, 0.0000000000000000000, 2.244094000000000033 ) ) ;
#34 = DIRECTION ( 'NONE',  ( -1.000000000000000000, 0.0000000000000000000, 0.0000000000000000000 ) ) ;
#35 = AXIS2_PLACEMENT_3D ( 'NONE', #129, #214, #334 ) ;
#36 = FACE_BOUND ( 'NONE', #169, .T. ) ;
#37 = FILL_AREA_STYLE_COLOUR ( '', #303 ) ;
#38 = DIRECTION ( 'NONE',  ( -0.0000000000000000000, -0.0000000000000000000, -1.000000000000000000 ) ) ;
#39 = PRESENTATION_STYLE_ASSIGNMENT (( #102 ) ) ;
#40 = PRESENTATION_STYLE_ASSIGNMENT (( #302 ) ) ;
#41 = AXIS2_PLACEMENT_3D ( 'NONE', #187, #331, #18 ) ;
#42 =( GEOMETRIC_REPRESENTATION_CONTEXT ( 3 ) GLOBAL_UNCERTAINTY_ASSIGNED_CONTEXT ( ( #332 ) ) GLOBAL_UNIT_ASSIGNED_CONTEXT ( ( #144, #49, #109 ) ) REPRESENTATION_CONTEXT ( 'NONE', 'WORKASPACE' ) );
#43 = CARTESIAN_POINT ( 'NONE',  ( 0.0000000000000000000, 0.0000000000000000000, 0.04724400000000000127 ) ) ;
#44 = DIRECTION ( 'NONE',  ( -0.0000000000000000000, -0.0000000000000000000, -1.000000000000000000 ) ) ;
#45 = EDGE_CURVE ( 'NONE', #351, #234, #270, .T. ) ;
#46 = VERTEX_POINT ( 'NONE', #5 ) ;
#47 = VECTOR ( 'NONE', #366, 39.37007874015748854 ) ;
#48 = ORIENTED_EDGE ( 'NONE', *, *, #312, .F. ) ;
#49 =( NAMED_UNIT ( * ) PLANE_ANGLE_UNIT ( ) SI_UNIT ( $, .RADIAN. ) );
#50 = VERTEX_POINT ( 'NONE', #359 ) ;
#51 = ADVANCED_FACE ( 'NONE', ( #36, #95 ), #56, .T. ) ;
#52 = FACE_OUTER_BOUND ( 'NONE', #282, .T. ) ;
#53 = ORIENTED_EDGE ( 'NONE', *, *, #339, .T. ) ;
#54 = CIRCLE ( 'NONE', #272, 0.02361963780000000609 ) ;
#55 = CARTESIAN_POINT ( 'NONE',  ( 0.0000000000000000000, 0.0000000000000000000, 0.7874019999999999353 ) ) ;
#56 = PLANE ( 'NONE',  #89 ) ;
#57 = ADVANCED_FACE ( 'NONE', ( #330 ), #291, .T. ) ;
#58 = DIRECTION ( 'NONE',  ( -0.0000000000000000000, -0.0000000000000000000, -1.000000000000000000 ) ) ;
#59 = AXIS2_PLACEMENT_3D ( 'NONE', #354, #353, #322 ) ;
#60 = VECTOR ( 'NONE', #318, 39.37007874015748854 ) ;
#61 = DIRECTION ( 'NONE',  ( -0.0000000000000000000, -0.0000000000000000000, -1.000000000000000000 ) ) ;
#62 = CYLINDRICAL_SURFACE ( 'NONE', #66, 0.02263800000000005044 ) ;
#63 = DIRECTION ( 'NONE',  ( -1.000000000000000000, 0.0000000000000000000, 0.0000000000000000000 ) ) ;
#64 = APPLICATION_CONTEXT ( 'automotive_design' ) ;
#65 = PRODUCT_CONTEXT ( 'NONE', #64, 'mechanical' ) ;
#66 = AXIS2_PLACEMENT_3D ( 'NONE', #150, #204, #211 ) ;
#67 = DIRECTION ( 'NONE',  ( -1.000000000000000000, 0.0000000000000000000, 0.0000000000000000000 ) ) ;
#68 = ORIENTED_EDGE ( 'NONE', *, *, #126, .F. ) ;
#69 = FACE_OUTER_BOUND ( 'NONE', #370, .T. ) ;
#70 = ORIENTED_EDGE ( 'NONE', *, *, #279, .T. ) ;
#71 = PRODUCT_DEFINITION ( 'UNKNOWN', '', #172, #161 ) ;
#72 =( CONVERSION_BASED_UNIT ( 'INCH', #336 ) LENGTH_UNIT ( ) NAMED_UNIT ( #7 ) );
#73 = CARTESIAN_POINT ( 'NONE',  ( 0.0000000000000000000, 0.0000000000000000000, 0.7874019999999999353 ) ) ;
#74 = AXIS2_PLACEMENT_3D ( 'NONE', #358, #329, #304 ) ;
#75 =( GEOMETRIC_REPRESENTATION_CONTEXT ( 3 ) GLOBAL_UNCERTAINTY_ASSIGNED_CONTEXT ( ( #13 ) ) GLOBAL_UNIT_ASSIGNED_CONTEXT ( ( #72, #158, #105 ) ) REPRESENTATION_CONTEXT ( 'NONE', 'WORKASPACE' ) );
#76 = EDGE_CURVE ( 'NONE', #112, #118, #143, .T. ) ;
#77 = DIRECTION ( 'NONE',  ( -0.0000000000000000000, -0.0000000000000000000, -1.000000000000000000 ) ) ;
#78 = CARTESIAN_POINT ( 'NONE',  ( 0.0000000000000000000, 0.0000000000000000000, 2.244094000000000033 ) ) ;
#79 = VERTEX_POINT ( 'NONE', #296 ) ;
#80 = EDGE_LOOP ( 'NONE', ( #83, #378, #263, #197 ) ) ;
#81 = AXIS2_PLACEMENT_3D ( 'NONE', #356, #178, #155 ) ;
#82 = LINE ( 'NONE', #199, #60 ) ;
#83 = ORIENTED_EDGE ( 'NONE', *, *, #76, .F. ) ;
#84 = EDGE_CURVE ( 'NONE', #110, #46, #122, .T. ) ;
#85 = CARTESIAN_POINT ( 'NONE',  ( 0.0000000000000000000, 0.0000000000000000000, 0.05281114460858953724 ) ) ;
#86 = VERTEX_POINT ( 'NONE', #323 ) ;
#87 = DIRECTION ( 'NONE',  ( -1.000000000000000000, 0.0000000000000000000, 0.0000000000000000000 ) ) ;
#88 = ORIENTED_EDGE ( 'NONE', *, *, #217, .T. ) ;
#89 = AXIS2_PLACEMENT_3D ( 'NONE', #240, #213, #34 ) ;
#90 = STYLED_ITEM ( 'NONE', ( #40 ), #251 ) ;
#91 = CARTESIAN_POINT ( 'NONE',  ( 0.0000000000000000000, 0.0000000000000000000, 0.0000000000000000000 ) ) ;
#92 = DIRECTION ( 'NONE',  ( -0.1736481776669307475, 0.0000000000000000000, -0.9848077530122077983 ) ) ;
#93 = AXIS2_PLACEMENT_3D ( 'NONE', #85, #223, #27 ) ;
#94 = DIRECTION ( 'NONE',  ( -1.000000000000000000, 0.0000000000000000000, 0.0000000000000000000 ) ) ;
#95 = FACE_OUTER_BOUND ( 'NONE', #173, .T. ) ;
#96 = CARTESIAN_POINT ( 'NONE',  ( 0.0000000000000000000, 0.0000000000000000000, 0.0000000000000000000 ) ) ;
#97 = CARTESIAN_POINT ( 'NONE',  ( 0.0000000000000000000, 0.0000000000000000000, 0.0000000000000000000 ) ) ;
#98 = ADVANCED_BREP_SHAPE_REPRESENTATION ( 'Micro_MMBM-012-20', ( #251, #121 ), #42 ) ;
#99 = ADVANCED_FACE ( 'NONE', ( #174 ), #62, .T. ) ;
#100 = AXIS2_PLACEMENT_3D ( 'NONE', #221, #77, #103 ) ;
#101 = DIRECTION ( 'NONE',  ( -0.0000000000000000000, -0.0000000000000000000, -1.000000000000000000 ) ) ;
#102 = SURFACE_STYLE_USAGE ( .BOTH. , #246 ) ;
#103 = DIRECTION ( 'NONE',  ( -1.000000000000000000, 0.0000000000000000000, 0.0000000000000000000 ) ) ;
#104 = ADVANCED_FACE ( 'NONE', ( #206 ), #132, .T. ) ;
#105 =( NAMED_UNIT ( * ) SI_UNIT ( $, .STERADIAN. ) SOLID_ANGLE_UNIT ( ) );
#106 = CARTESIAN_POINT ( 'NONE',  ( 0.1181100000000000066, 1.446430334472939084E-17, 2.244094000000000033 ) ) ;
#107 = VECTOR ( 'NONE', #135, 39.37007874015748143 ) ;
#108 = CARTESIAN_POINT ( 'NONE',  ( 0.0000000000000000000, 0.0000000000000000000, 0.05281114460858953724 ) ) ;
#109 =( NAMED_UNIT ( * ) SI_UNIT ( $, .STERADIAN. ) SOLID_ANGLE_UNIT ( ) );
#110 = VERTEX_POINT ( 'NONE', #6 ) ;
#111 = DIRECTION ( 'NONE',  ( 0.1736481776669307475, 2.126576849575776537E-17, -0.9848077530122077983 ) ) ;
#112 = VERTEX_POINT ( 'NONE', #32 ) ;
#113 = AXIS2_PLACEMENT_3D ( 'NONE', #9, #243, #295 ) ;
#114 = DIRECTION ( 'NONE',  ( -0.0000000000000000000, -0.0000000000000000000, -1.000000000000000000 ) ) ;
#115 = ORIENTED_EDGE ( 'NONE', *, *, #84, .F. ) ;
#116 = ADVANCED_FACE ( 'NONE', ( #31 ), #147, .T. ) ;
#117 = DIRECTION ( 'NONE',  ( -0.0000000000000000000, -0.0000000000000000000, -1.000000000000000000 ) ) ;
#118 = VERTEX_POINT ( 'NONE', #203 ) ;
#119 = EDGE_CURVE ( 'NONE', #86, #351, #177, .T. ) ;
#120 = DIRECTION ( 'NONE',  ( -0.0000000000000000000, -0.0000000000000000000, -1.000000000000000000 ) ) ;
#121 = AXIS2_PLACEMENT_3D ( 'NONE', #96, #290, #11 ) ;
#122 = LINE ( 'NONE', #274, #294 ) ;
#123 = ADVANCED_FACE ( 'NONE', ( #3 ), #175, .T. ) ;
#124 = DIRECTION ( 'NONE',  ( 0.0000000000000000000, 0.0000000000000000000, -1.000000000000000000 ) ) ;
#125 = DIRECTION ( 'NONE',  ( 0.0000000000000000000, 0.0000000000000000000, -1.000000000000000000 ) ) ;
#126 = EDGE_CURVE ( 'NONE', #50, #372, #239, .T. ) ;
#127 = DIMENSIONAL_EXPONENTS ( 1.000000000000000000, 0.0000000000000000000, 0.0000000000000000000, 0.0000000000000000000, 0.0000000000000000000, 0.0000000000000000000, 0.0000000000000000000 ) ;
#128 = DIRECTION ( 'NONE',  ( 1.000000000000000000, 0.0000000000000000000, 0.0000000000000000000 ) ) ;
#129 = CARTESIAN_POINT ( 'NONE',  ( 0.0000000000000000000, 0.0000000000000000000, 0.0000000000000000000 ) ) ;
#130 = SURFACE_SIDE_STYLE ('',( #14 ) ) ;
#131 = SHAPE_DEFINITION_REPRESENTATION ( #317, #98 ) ;
#132 = CONICAL_SURFACE ( 'NONE', #59, 0.1031100000000002570, 0.7853981633974318477 ) ;
#133 = CARTESIAN_POINT ( 'NONE',  ( 0.0000000000000000000, 0.0000000000000000000, 0.04724400000000000127 ) ) ;
#134 = DIMENSIONAL_EXPONENTS ( 1.000000000000000000, 0.0000000000000000000, 0.0000000000000000000, 0.0000000000000000000, 0.0000000000000000000, 0.0000000000000000000, 0.0000000000000000000 ) ;
#135 = DIRECTION ( 'NONE',  ( -0.0000000000000000000, -0.0000000000000000000, -1.000000000000000000 ) ) ;
#136 = DIRECTION ( 'NONE',  ( -0.0000000000000000000, -0.0000000000000000000, -1.000000000000000000 ) ) ;
#137 = CARTESIAN_POINT ( 'NONE',  ( 0.0000000000000000000, 0.0000000000000000000, 0.0000000000000000000 ) ) ;
#138 = DIRECTION ( 'NONE',  ( -0.0000000000000000000, -0.0000000000000000000, -1.000000000000000000 ) ) ;
#139 = ORIENTED_EDGE ( 'NONE', *, *, #339, .F. ) ;
#140 = DIRECTION ( 'NONE',  ( -0.0000000000000000000, -0.0000000000000000000, -1.000000000000000000 ) ) ;
#141 = ORIENTED_EDGE ( 'NONE', *, *, #341, .F. ) ;
#142 = ORIENTED_EDGE ( 'NONE', *, *, #126, .T. ) ;
#143 = CIRCLE ( 'NONE', #81, 0.1031100000000002570 ) ;
#144 =( CONVERSION_BASED_UNIT ( 'INCH', #306 ) LENGTH_UNIT ( ) NAMED_UNIT ( #134 ) );
#145 = ORIENTED_EDGE ( 'NONE', *, *, #217, .F. ) ;
#146 = ORIENTED_EDGE ( 'NONE', *, *, #324, .T. ) ;
#147 = CYLINDRICAL_SURFACE ( 'NONE', #16, 0.02361963780000000609 ) ;
#148 = AXIS2_PLACEMENT_3D ( 'NONE', #97, #38, #249 ) ;
#149 = AXIS2_PLACEMENT_3D ( 'NONE', #314, #256, #19 ) ;
#150 = CARTESIAN_POINT ( 'NONE',  ( 0.0000000000000000000, 0.0000000000000000000, 0.0000000000000000000 ) ) ;
#151 = ADVANCED_FACE ( 'NONE', ( #152 ), #333, .T. ) ;
#152 = FACE_OUTER_BOUND ( 'NONE', #80, .T. ) ;
#153 = DIRECTION ( 'NONE',  ( -0.0000000000000000000, -0.0000000000000000000, -1.000000000000000000 ) ) ;
#154 = EDGE_CURVE ( 'NONE', #190, #110, #375, .T. ) ;
#155 = DIRECTION ( 'NONE',  ( 1.000000000000000000, 0.0000000000000000000, 0.0000000000000000000 ) ) ;
#156 = APPLICATION_PROTOCOL_DEFINITION ( 'draft international standard', 'automotive_design', 1998, #224 ) ;
#157 = CARTESIAN_POINT ( 'NONE',  ( 0.0000000000000000000, 0.0000000000000000000, 2.244094000000000033 ) ) ;
#158 =( NAMED_UNIT ( * ) PLANE_ANGLE_UNIT ( ) SI_UNIT ( $, .RADIAN. ) );
#159 = EDGE_CURVE ( 'NONE', #79, #46, #364, .T. ) ;
#160 = DIRECTION ( 'NONE',  ( -1.000000000000000000, 0.0000000000000000000, 0.0000000000000000000 ) ) ;
#161 = PRODUCT_DEFINITION_CONTEXT ( 'detailed design', #224, 'design' ) ;
#162 = VERTEX_POINT ( 'NONE', #12 ) ;
#163 = CARTESIAN_POINT ( 'NONE',  ( 0.1181100000000000066, 1.446430334472939084E-17, 2.229093999999999465 ) ) ;
#164 = AXIS2_PLACEMENT_3D ( 'NONE', #269, #125, #241 ) ;
#165 = VERTEX_POINT ( 'NONE', #181 ) ;
#166 = ADVANCED_FACE ( 'NONE', ( #215 ), #2, .T. ) ;
#167 = ORIENTED_EDGE ( 'NONE', *, *, #238, .T. ) ;
#168 = CARTESIAN_POINT ( 'NONE',  ( 0.02361963780000000609, 2.892571382878983863E-18, 0.0000000000000000000 ) ) ;
#169 = EDGE_LOOP ( 'NONE', ( #374, #315 ) ) ;
#170 = ORIENTED_EDGE ( 'NONE', *, *, #45, .F. ) ;
#171 = CONICAL_SURFACE ( 'NONE', #8, 0.02361963780000000609, 0.1745329251994333919 ) ;
#172 = PRODUCT_DEFINITION_FORMATION_WITH_SPECIFIED_SOURCE ( 'ANY', '', #355, .NOT_KNOWN. ) ;
#173 = EDGE_LOOP ( 'NONE', ( #146, #25 ) ) ;
#174 = FACE_OUTER_BOUND ( 'NONE', #300, .T. ) ;
#175 = CYLINDRICAL_SURFACE ( 'NONE', #113, 0.1181100000000000066 ) ;
#176 = AXIS2_PLACEMENT_3D ( 'NONE', #371, #114, #87 ) ;
#177 = LINE ( 'NONE', #264, #368 ) ;
#178 = DIRECTION ( 'NONE',  ( 0.0000000000000000000, 0.0000000000000000000, 1.000000000000000000 ) ) ;
#179 = DIRECTION ( 'NONE',  ( -0.0000000000000000000, -0.0000000000000000000, -1.000000000000000000 ) ) ;
#180 = CIRCLE ( 'NONE', #93, 0.02263800000000000187 ) ;
#181 = CARTESIAN_POINT ( 'NONE',  ( 0.02263800000000009555, 2.772355423909789813E-18, 0.7874019999999999353 ) ) ;
#182 = ORIENTED_EDGE ( 'NONE', *, *, #76, .T. ) ;
#183 = FILL_AREA_STYLE ('',( #37 ) ) ;
#184 = DIRECTION ( 'NONE',  ( -1.000000000000000000, 0.0000000000000000000, 0.0000000000000000000 ) ) ;
#185 = EDGE_CURVE ( 'NONE', #165, #86, #207, .T. ) ;
#186 = AXIS2_PLACEMENT_3D ( 'NONE', #73, #250, #305 ) ;
#187 = CARTESIAN_POINT ( 'NONE',  ( 0.0000000000000000000, 0.0000000000000000000, 0.04724400000000000127 ) ) ;
#188 = ORIENTED_EDGE ( 'NONE', *, *, #279, .F. ) ;
#189 = LINE ( 'NONE', #245, #107 ) ;
#190 = VERTEX_POINT ( 'NONE', #163 ) ;
#191 = PLANE ( 'NONE',  #298 ) ;
#192 = ORIENTED_EDGE ( 'NONE', *, *, #212, .T. ) ;
#193 = FACE_OUTER_BOUND ( 'NONE', #195, .T. ) ;
#194 = ORIENTED_EDGE ( 'NONE', *, *, #287, .F. ) ;
#195 = EDGE_LOOP ( 'NONE', ( #23, #142, #48, #194 ) ) ;
#196 =( LENGTH_UNIT ( ) NAMED_UNIT ( * ) SI_UNIT ( $, .METRE. ) );
#197 = ORIENTED_EDGE ( 'NONE', *, *, #360, .F. ) ;
#198 = ADVANCED_FACE ( 'NONE', ( #367 ), #362, .T. ) ;
#199 = CARTESIAN_POINT ( 'NONE',  ( -0.1031100000000002570, 0.0000000000000000000, 2.244094000000000033 ) ) ;
#200 = ORIENTED_EDGE ( 'NONE', *, *, #212, .F. ) ;
#201 = VECTOR ( 'NONE', #44, 39.37007874015748143 ) ;
#202 = AXIS2_PLACEMENT_3D ( 'NONE', #157, #252, #254 ) ;
#203 = CARTESIAN_POINT ( 'NONE',  ( -0.1031100000000002570, 0.0000000000000000000, 2.244094000000000033 ) ) ;
#204 = DIRECTION ( 'NONE',  ( -0.0000000000000000000, -0.0000000000000000000, -1.000000000000000000 ) ) ;
#205 = ADVANCED_FACE ( 'NONE', ( #69 ), #171, .T. ) ;
#206 = FACE_OUTER_BOUND ( 'NONE', #363, .T. ) ;
#207 = CIRCLE ( 'NONE', #186, 0.02263800000000009555 ) ;
#208 = AXIS2_PLACEMENT_3D ( 'NONE', #235, #124, #128 ) ;
#209 = CIRCLE ( 'NONE', #202, 0.1031100000000002570 ) ;
#210 = EDGE_CURVE ( 'NONE', #234, #50, #54, .T. ) ;
#211 = DIRECTION ( 'NONE',  ( -1.000000000000000000, 0.0000000000000000000, 0.0000000000000000000 ) ) ;
#212 = EDGE_CURVE ( 'NONE', #165, #338, #189, .T. ) ;
#213 = DIRECTION ( 'NONE',  ( -0.0000000000000000000, 0.0000000000000000000, -1.000000000000000000 ) ) ;
#214 = DIRECTION ( 'NONE',  ( -0.0000000000000000000, -0.0000000000000000000, -1.000000000000000000 ) ) ;
#215 = FACE_OUTER_BOUND ( 'NONE', #231, .T. ) ;
#216 = FILL_AREA_STYLE ('',( #275 ) ) ;
#217 = EDGE_CURVE ( 'NONE', #190, #79, #337, .T. ) ;
#218 = CIRCLE ( 'NONE', #267, 0.02263800000000009555 ) ;
#219 = ORIENTED_EDGE ( 'NONE', *, *, #119, .F. ) ;
#220 = AXIS2_PLACEMENT_3D ( 'NONE', #227, #117, #350 ) ;
#221 = CARTESIAN_POINT ( 'NONE',  ( 0.0000000000000000000, 0.0000000000000000000, 0.04724400000000000127 ) ) ;
#222 = EDGE_LOOP ( 'NONE', ( #145, #258, #344, #349 ) ) ;
#223 = DIRECTION ( 'NONE',  ( -0.0000000000000000000, -0.0000000000000000000, -1.000000000000000000 ) ) ;
#224 = APPLICATION_CONTEXT ( 'automotive_design' ) ;
#225 = EDGE_LOOP ( 'NONE', ( #342, #88, #320, #115 ) ) ;
#226 = ORIENTED_EDGE ( 'NONE', *, *, #244, .T. ) ;
#227 = CARTESIAN_POINT ( 'NONE',  ( 0.0000000000000000000, 0.0000000000000000000, 0.0000000000000000000 ) ) ;
#228 = EDGE_LOOP ( 'NONE', ( #68, #167, #285, #316 ) ) ;
#229 = CIRCLE ( 'NONE', #220, 0.02361963780000000609 ) ;
#230 = CYLINDRICAL_SURFACE ( 'NONE', #149, 0.02361963780000000609 ) ;
#231 = EDGE_LOOP ( 'NONE', ( #188, #53, #255, #335 ) ) ;
#232 = EDGE_CURVE ( 'NONE', #112, #190, #340, .T. ) ;
#233 = CARTESIAN_POINT ( 'NONE',  ( 0.02263800000000000187, 2.832463403394381638E-18, 0.05281114460858953724 ) ) ;
#234 = VERTEX_POINT ( 'NONE', #361 ) ;
#235 = CARTESIAN_POINT ( 'NONE',  ( 0.0000000000000000000, 0.0000000000000000000, 2.229093999999999465 ) ) ;
#236 = AXIS2_PLACEMENT_3D ( 'NONE', #33, #58, #63 ) ;
#237 = VECTOR ( 'NONE', #111, 39.37007874015748854 ) ;
#238 = EDGE_CURVE ( 'NONE', #50, #234, #265, .T. ) ;
#239 = LINE ( 'NONE', #293, #278 ) ;
#240 = CARTESIAN_POINT ( 'NONE',  ( 0.02263800000000009555, 0.0000000000000000000, 0.7874019999999999353 ) ) ;
#241 = DIRECTION ( 'NONE',  ( -1.000000000000000000, 0.0000000000000000000, 0.0000000000000000000 ) ) ;
#242 = CIRCLE ( 'NONE', #176, 0.1181100000000000066 ) ;
#243 = DIRECTION ( 'NONE',  ( -0.0000000000000000000, -0.0000000000000000000, -1.000000000000000000 ) ) ;
#244 = EDGE_CURVE ( 'NONE', #372, #162, #309, .T. ) ;
#245 = CARTESIAN_POINT ( 'NONE',  ( 0.02263800000000005044, 2.772355423909784036E-18, 0.0000000000000000000 ) ) ;
#246 = SURFACE_SIDE_STYLE ('',( #15 ) ) ;
#247 = CARTESIAN_POINT ( 'NONE',  ( 0.0000000000000000000, 0.0000000000000000000, 0.7874019999999998243 ) ) ;
#248 =( GEOMETRIC_REPRESENTATION_CONTEXT ( 3 ) GLOBAL_UNCERTAINTY_ASSIGNED_CONTEXT ( ( #4 ) ) GLOBAL_UNIT_ASSIGNED_CONTEXT ( ( #321, #292, #352 ) ) REPRESENTATION_CONTEXT ( 'NONE', 'WORKASPACE' ) );
#249 = DIRECTION ( 'NONE',  ( -1.000000000000000000, 0.0000000000000000000, 0.0000000000000000000 ) ) ;
#250 = DIRECTION ( 'NONE',  ( -0.0000000000000000000, -0.0000000000000000000, -1.000000000000000000 ) ) ;
#251 = MANIFOLD_SOLID_BREP ( 'Cut-Revolve1', #373 ) ;
#252 = DIRECTION ( 'NONE',  ( 0.0000000000000000000, 0.0000000000000000000, 1.000000000000000000 ) ) ;
#253 = ORIENTED_EDGE ( 'NONE', *, *, #232, .F. ) ;
#254 = DIRECTION ( 'NONE',  ( 1.000000000000000000, 0.0000000000000000000, 0.0000000000000000000 ) ) ;
#255 = ORIENTED_EDGE ( 'NONE', *, *, #45, .T. ) ;
#256 = DIRECTION ( 'NONE',  ( -0.0000000000000000000, -0.0000000000000000000, -1.000000000000000000 ) ) ;
#257 = PRESENTATION_LAYER_ASSIGNMENT (  '', '', ( #90 ) ) ;
#258 = ORIENTED_EDGE ( 'NONE', *, *, #154, .T. ) ;
#259 = AXIS2_PLACEMENT_3D ( 'NONE', #137, #283, #286 ) ;
#260 = FACE_OUTER_BOUND ( 'NONE', #347, .T. ) ;
#261 = ORIENTED_EDGE ( 'NONE', *, *, #185, .T. ) ;
#262 =( LENGTH_UNIT ( ) NAMED_UNIT ( * ) SI_UNIT ( $, .METRE. ) );
#263 = ORIENTED_EDGE ( 'NONE', *, *, #28, .F. ) ;
#264 = CARTESIAN_POINT ( 'NONE',  ( -0.02263800000000005044, 0.0000000000000000000, 0.0000000000000000000 ) ) ;
#265 = CIRCLE ( 'NONE', #100, 0.02361963780000000609 ) ;
#266 = MECHANICAL_DESIGN_GEOMETRIC_PRESENTATION_REPRESENTATION (  '', ( #26 ), #248 ) ;
#267 = AXIS2_PLACEMENT_3D ( 'NONE', #55, #297, #94 ) ;
#268 = CARTESIAN_POINT ( 'NONE',  ( -0.02361963780000000609, 0.0000000000000000000, 0.04724400000000000127 ) ) ;
#269 = CARTESIAN_POINT ( 'NONE',  ( 0.0000000000000000000, 0.0000000000000000000, 2.244094000000000033 ) ) ;
#270 = LINE ( 'NONE', #268, #326 ) ;
#271 = EDGE_CURVE ( 'NONE', #118, #112, #209, .T. ) ;
#272 = AXIS2_PLACEMENT_3D ( 'NONE', #133, #136, #184 ) ;
#273 = MECHANICAL_DESIGN_GEOMETRIC_PRESENTATION_REPRESENTATION (  '', ( #90 ), #75 ) ;
#274 = CARTESIAN_POINT ( 'NONE',  ( -0.1181100000000000066, 0.0000000000000000000, 2.244094000000000033 ) ) ;
#275 = FILL_AREA_STYLE_COLOUR ( '', #17 ) ;
#276 = ADVANCED_FACE ( 'NONE', ( #260 ), #191, .T. ) ;
#277 =( LENGTH_UNIT ( ) NAMED_UNIT ( * ) SI_UNIT ( $, .METRE. ) );
#278 = VECTOR ( 'NONE', #179, 39.37007874015748143 ) ;
#279 = EDGE_CURVE ( 'NONE', #338, #50, #280, .T. ) ;
#280 = LINE ( 'NONE', #21, #237 ) ;
#281 = DIRECTION ( 'NONE',  ( 1.000000000000000000, 0.0000000000000000000, -0.0000000000000000000 ) ) ;
#282 = EDGE_LOOP ( 'NONE', ( #377, #226 ) ) ;
#283 = DIRECTION ( 'NONE',  ( 0.0000000000000000000, 0.0000000000000000000, 1.000000000000000000 ) ) ;
#284 = ORIENTED_EDGE ( 'NONE', *, *, #271, .T. ) ;
#285 = ORIENTED_EDGE ( 'NONE', *, *, #287, .T. ) ;
#286 = DIRECTION ( 'NONE',  ( 1.000000000000000000, 0.0000000000000000000, -0.0000000000000000000 ) ) ;
#287 = EDGE_CURVE ( 'NONE', #234, #162, #376, .T. ) ;
#288 = PRESENTATION_LAYER_ASSIGNMENT (  '', '', ( #26 ) ) ;
#289 = ORIENTED_EDGE ( 'NONE', *, *, #119, .T. ) ;
#290 = DIRECTION ( 'NONE',  ( 0.0000000000000000000, 0.0000000000000000000, 1.000000000000000000 ) ) ;
#291 = CYLINDRICAL_SURFACE ( 'NONE', #236, 0.1181100000000000066 ) ;
#292 =( NAMED_UNIT ( * ) PLANE_ANGLE_UNIT ( ) SI_UNIT ( $, .RADIAN. ) );
#293 = CARTESIAN_POINT ( 'NONE',  ( 0.02361963780000000609, 2.892571382878983863E-18, 0.0000000000000000000 ) ) ;
#294 = VECTOR ( 'NONE', #120, 39.37007874015748143 ) ;
#295 = DIRECTION ( 'NONE',  ( -1.000000000000000000, 0.0000000000000000000, 0.0000000000000000000 ) ) ;
#296 = CARTESIAN_POINT ( 'NONE',  ( 0.1181100000000000066, 1.446430334472939084E-17, 0.7874019999999998243 ) ) ;
#297 = DIRECTION ( 'NONE',  ( -0.0000000000000000000, -0.0000000000000000000, -1.000000000000000000 ) ) ;
#298 = AXIS2_PLACEMENT_3D ( 'NONE', #78, #346, #281 ) ;
#299 = CARTESIAN_POINT ( 'NONE',  ( 0.1031100000000002570, 1.262733314600838667E-17, 2.244094000000000033 ) ) ;
#300 = EDGE_LOOP ( 'NONE', ( #311, #192, #141, #219 ) ) ;
#301 = ADVANCED_FACE ( 'NONE', ( #193 ), #230, .T. ) ;
#302 = SURFACE_STYLE_USAGE ( .BOTH. , #130 ) ;
#303 = COLOUR_RGB ( '',0.7921568627450980005, 0.8196078431372548767, 0.9333333333333333481 ) ;
#304 = DIRECTION ( 'NONE',  ( 1.000000000000000000, 0.0000000000000000000, 0.0000000000000000000 ) ) ;
#305 = DIRECTION ( 'NONE',  ( -1.000000000000000000, 0.0000000000000000000, 0.0000000000000000000 ) ) ;
#306 = LENGTH_MEASURE_WITH_UNIT ( LENGTH_MEASURE( 0.02539999999999999897 ), #196 );
#307 = ORIENTED_EDGE ( 'NONE', *, *, #271, .F. ) ;
#308 = ADVANCED_FACE ( 'NONE', ( #52 ), #348, .F. ) ;
#309 = CIRCLE ( 'NONE', #148, 0.02361963780000000609 ) ;
#310 = CARTESIAN_POINT ( 'NONE',  ( -0.02263800000000000187, 0.0000000000000000000, 0.05281114460858953724 ) ) ;
#311 = ORIENTED_EDGE ( 'NONE', *, *, #10, .T. ) ;
#312 = EDGE_CURVE ( 'NONE', #162, #372, #229, .T. ) ;
#313 = PRODUCT_RELATED_PRODUCT_CATEGORY ( 'part', '', ( #355 ) ) ;
#314 = CARTESIAN_POINT ( 'NONE',  ( 0.0000000000000000000, 0.0000000000000000000, 0.0000000000000000000 ) ) ;
#315 = ORIENTED_EDGE ( 'NONE', *, *, #185, .F. ) ;
#316 = ORIENTED_EDGE ( 'NONE', *, *, #244, .F. ) ;
#317 = PRODUCT_DEFINITION_SHAPE ( 'NONE', 'NONE',  #71 ) ;
#318 = DIRECTION ( 'NONE',  ( -0.7071067811865358044, 0.0000000000000000000, -0.7071067811865590080 ) ) ;
#319 = CIRCLE ( 'NONE', #327, 0.02263800000000000187 ) ;
#320 = ORIENTED_EDGE ( 'NONE', *, *, #324, .F. ) ;
#321 =( CONVERSION_BASED_UNIT ( 'INCH', #379 ) LENGTH_UNIT ( ) NAMED_UNIT ( #127 ) );
#322 = DIRECTION ( 'NONE',  ( -1.000000000000000000, 0.0000000000000000000, 0.0000000000000000000 ) ) ;
#323 = CARTESIAN_POINT ( 'NONE',  ( -0.02263800000000009555, 0.0000000000000000000, 0.7874019999999999353 ) ) ;
#324 = EDGE_CURVE ( 'NONE', #46, #79, #242, .T. ) ;
#325 = DIRECTION ( 'NONE',  ( -1.000000000000000000, 0.0000000000000000000, 0.0000000000000000000 ) ) ;
#326 = VECTOR ( 'NONE', #92, 39.37007874015748854 ) ;
#327 = AXIS2_PLACEMENT_3D ( 'NONE', #108, #140, #343 ) ;
#328 = CIRCLE ( 'NONE', #208, 0.1181100000000000066 ) ;
#329 = DIRECTION ( 'NONE',  ( 0.0000000000000000000, 0.0000000000000000000, -1.000000000000000000 ) ) ;
#330 = FACE_OUTER_BOUND ( 'NONE', #222, .T. ) ;
#331 = DIRECTION ( 'NONE',  ( -0.0000000000000000000, -0.0000000000000000000, -1.000000000000000000 ) ) ;
#332 = UNCERTAINTY_MEASURE_WITH_UNIT (LENGTH_MEASURE( 1.000000000000000082E-05 ), #144, 'distance_accuracy_value', 'NONE');
#333 = CONICAL_SURFACE ( 'NONE', #164, 0.1031100000000002570, 0.7853981633974318477 ) ;
#334 = DIRECTION ( 'NONE',  ( -1.000000000000000000, 0.0000000000000000000, 0.0000000000000000000 ) ) ;
#335 = ORIENTED_EDGE ( 'NONE', *, *, #238, .F. ) ;
#336 = LENGTH_MEASURE_WITH_UNIT ( LENGTH_MEASURE( 0.02539999999999999897 ), #277 );
#337 = LINE ( 'NONE', #106, #201 ) ;
#338 = VERTEX_POINT ( 'NONE', #233 ) ;
#339 = EDGE_CURVE ( 'NONE', #338, #351, #180, .T. ) ;
#340 = LINE ( 'NONE', #299, #47 ) ;
#341 = EDGE_CURVE ( 'NONE', #351, #338, #319, .T. ) ;
#342 = ORIENTED_EDGE ( 'NONE', *, *, #28, .T. ) ;
#343 = DIRECTION ( 'NONE',  ( -1.000000000000000000, 0.0000000000000000000, 0.0000000000000000000 ) ) ;
#344 = ORIENTED_EDGE ( 'NONE', *, *, #84, .T. ) ;
#345 = VECTOR ( 'NONE', #138, 39.37007874015748143 ) ;
#346 = DIRECTION ( 'NONE',  ( 0.0000000000000000000, 0.0000000000000000000, 1.000000000000000000 ) ) ;
#347 = EDGE_LOOP ( 'NONE', ( #284, #182 ) ) ;
#348 = PLANE ( 'NONE',  #259 ) ;
#349 = ORIENTED_EDGE ( 'NONE', *, *, #159, .F. ) ;
#350 = DIRECTION ( 'NONE',  ( -1.000000000000000000, 0.0000000000000000000, 0.0000000000000000000 ) ) ;
#351 = VERTEX_POINT ( 'NONE', #310 ) ;
#352 =( NAMED_UNIT ( * ) SI_UNIT ( $, .STERADIAN. ) SOLID_ANGLE_UNIT ( ) );
#353 = DIRECTION ( 'NONE',  ( 0.0000000000000000000, 0.0000000000000000000, -1.000000000000000000 ) ) ;
#354 = CARTESIAN_POINT ( 'NONE',  ( 0.0000000000000000000, 0.0000000000000000000, 2.244094000000000033 ) ) ;
#355 = PRODUCT ( 'Micro_MMBM-012-20', 'Micro_MMBM-012-20', '', ( #65 ) ) ;
#356 = CARTESIAN_POINT ( 'NONE',  ( 0.0000000000000000000, 0.0000000000000000000, 2.244094000000000033 ) ) ;
#357 = AXIS2_PLACEMENT_3D ( 'NONE', #247, #101, #67 ) ;
#358 = CARTESIAN_POINT ( 'NONE',  ( 0.0000000000000000000, 0.0000000000000000000, 2.229093999999999465 ) ) ;
#359 = CARTESIAN_POINT ( 'NONE',  ( 0.02361963780000000609, 2.892571382878983863E-18, 0.04724400000000000127 ) ) ;
#360 = EDGE_CURVE ( 'NONE', #118, #110, #82, .T. ) ;
#361 = CARTESIAN_POINT ( 'NONE',  ( -0.02361963780000000609, 0.0000000000000000000, 0.04724400000000000127 ) ) ;
#362 = CYLINDRICAL_SURFACE ( 'NONE', #35, 0.02263800000000005044 ) ;
#363 = EDGE_LOOP ( 'NONE', ( #253, #307, #1, #29 ) ) ;
#364 = CIRCLE ( 'NONE', #357, 0.1181100000000000066 ) ;
#365 = DIRECTION ( 'NONE',  ( -0.0000000000000000000, -0.0000000000000000000, -1.000000000000000000 ) ) ;
#366 = DIRECTION ( 'NONE',  ( 0.7071067811865358044, 8.659560562354788645E-17, -0.7071067811865590080 ) ) ;
#367 = FACE_OUTER_BOUND ( 'NONE', #30, .T. ) ;
#368 = VECTOR ( 'NONE', #61, 39.37007874015748143 ) ;
#369 = CARTESIAN_POINT ( 'NONE',  ( -0.02361963780000000609, 0.0000000000000000000, 0.0000000000000000000 ) ) ;
#370 = EDGE_LOOP ( 'NONE', ( #20, #70, #22, #170 ) ) ;
#371 = CARTESIAN_POINT ( 'NONE',  ( 0.0000000000000000000, 0.0000000000000000000, 0.7874019999999998243 ) ) ;
#372 = VERTEX_POINT ( 'NONE', #168 ) ;
#373 = CLOSED_SHELL ( 'NONE', ( #301, #99, #205, #151, #123, #57, #276, #104, #51, #166, #198, #116, #308 ) ) ;
#374 = ORIENTED_EDGE ( 'NONE', *, *, #10, .F. ) ;
#375 = CIRCLE ( 'NONE', #74, 0.1181100000000000066 ) ;
#376 = LINE ( 'NONE', #369, #345 ) ;
#377 = ORIENTED_EDGE ( 'NONE', *, *, #312, .T. ) ;
#378 = ORIENTED_EDGE ( 'NONE', *, *, #232, .T. ) ;
#379 = LENGTH_MEASURE_WITH_UNIT ( LENGTH_MEASURE( 0.02539999999999999897 ), #262 );
ENDSEC;
END-ISO-10303-21;
