ISO-10303-21;
HEADER;
FILE_DESCRIPTION (( 'STEP AP214' ),
    '1' );
FILE_NAME ('83312.STEP',
    '2023-06-23T09:20:31',
    ( '' ),
    ( '' ),
    'SwSTEP 2.0',
    'SolidWorks 2023',
    '' );
FILE_SCHEMA (( 'AUTOMOTIVE_DESIGN' ));
ENDSEC;

DATA;
#1 = ORIENTED_EDGE ( 'NONE', *, *, #82, .F. ) ;
#2 = VECTOR ( 'NONE', #90, 39.37007874015748143 ) ;
#3 = DIRECTION ( 'NONE',  ( -1.000000000000000000, 0.000000000000000000, 0.000000000000000000 ) ) ;
#4 = PRODUCT ( '83312', '83312', '', ( #16 ) ) ;
#5 = CARTESIAN_POINT ( 'NONE',  ( 0.000000000000000000, 0.000000000000000000, 0.000000000000000000 ) ) ;
#6 = CLOSED_SHELL ( 'NONE', ( #229, #154, #63, #137 ) ) ;
#7 = AXIS2_PLACEMENT_3D ( 'NONE', #8, #112, #150 ) ;
#8 = CARTESIAN_POINT ( 'NONE',  ( 1.157222054523036369E-34, 1.250000000000000000, 0.000000000000000000 ) ) ;
#9 =( NAMED_UNIT ( * ) PLANE_ANGLE_UNIT ( ) SI_UNIT ( $, .RADIAN. ) );
#10 = APPLICATION_PROTOCOL_DEFINITION ( 'draft international standard', 'automotive_design', 1998, #31 ) ;
#11 = PLANE ( 'NONE',  #7 ) ;
#12 = DIRECTION ( 'NONE',  ( 0.000000000000000000, 0.000000000000000000, -1.000000000000000000 ) ) ;
#13 = CARTESIAN_POINT ( 'NONE',  ( 0.000000000000000000, 0.000000000000000000, 0.000000000000000000 ) ) ;
#14 = MECHANICAL_DESIGN_GEOMETRIC_PRESENTATION_REPRESENTATION (  '', ( #55 ), #34 ) ;
#15 = DIRECTION ( 'NONE',  ( 0.000000000000000000, 0.000000000000000000, -1.000000000000000000 ) ) ;
#16 = PRODUCT_CONTEXT ( 'NONE', #31, 'mechanical' ) ;
#17 = PLANE ( 'NONE',  #51 ) ;
#18 = STYLED_ITEM ( 'NONE', ( #143 ), #109 ) ;
#19 = DIRECTION ( 'NONE',  ( -0.000000000000000000, -1.000000000000000000, -0.000000000000000000 ) ) ;
#20 = PLANE ( 'NONE',  #201 ) ;
#21 =( GEOMETRIC_REPRESENTATION_CONTEXT ( 3 ) GLOBAL_UNCERTAINTY_ASSIGNED_CONTEXT ( ( #239 ) ) GLOBAL_UNIT_ASSIGNED_CONTEXT ( ( #230, #203, #37 ) ) REPRESENTATION_CONTEXT ( 'NONE', 'WORKASPACE' ) );
#22 = CYLINDRICAL_SURFACE ( 'NONE', #142, 0.3125000000000000000 ) ;
#23 = EDGE_LOOP ( 'NONE', ( #272, #48, #222, #192 ) ) ;
#24 = EDGE_CURVE ( 'NONE', #145, #189, #207, .T. ) ;
#25 = SURFACE_STYLE_USAGE ( .BOTH. , #105 ) ;
#26 = EDGE_LOOP ( 'NONE', ( #52, #101, #29, #250 ) ) ;
#27 = DIRECTION ( 'NONE',  ( -1.000000000000000000, 0.000000000000000000, 0.000000000000000000 ) ) ;
#28 = MECHANICAL_DESIGN_GEOMETRIC_PRESENTATION_REPRESENTATION (  '', ( #305 ), #64 ) ;
#29 = ORIENTED_EDGE ( 'NONE', *, *, #89, .F. ) ;
#30 = ADVANCED_FACE ( 'NONE', ( #155 ), #11, .F. ) ;
#31 = APPLICATION_CONTEXT ( 'automotive_design' ) ;
#32 =( CONVERSION_BASED_UNIT ( 'INCH', #80 ) LENGTH_UNIT ( ) NAMED_UNIT ( #211 ) );
#33 = DIRECTION ( 'NONE',  ( -0.000000000000000000, -1.000000000000000000, -0.000000000000000000 ) ) ;
#34 =( GEOMETRIC_REPRESENTATION_CONTEXT ( 3 ) GLOBAL_UNCERTAINTY_ASSIGNED_CONTEXT ( ( #59 ) ) GLOBAL_UNIT_ASSIGNED_CONTEXT ( ( #134, #132, #238 ) ) REPRESENTATION_CONTEXT ( 'NONE', 'WORKASPACE' ) );
#35 = SURFACE_SIDE_STYLE ('',( #174 ) ) ;
#36 = PRODUCT_DEFINITION_SHAPE ( 'NONE', 'NONE',  #184 ) ;
#37 =( NAMED_UNIT ( * ) SI_UNIT ( $, .STERADIAN. ) SOLID_ANGLE_UNIT ( ) );
#38 = ORIENTED_EDGE ( 'NONE', *, *, #67, .T. ) ;
#39 = STYLED_ITEM ( 'NONE', ( #118 ), #206 ) ;
#40 = UNCERTAINTY_MEASURE_WITH_UNIT (LENGTH_MEASURE( 1.000000000000000082E-05 ), #177, 'distance_accuracy_value', 'NONE');
#41 = UNCERTAINTY_MEASURE_WITH_UNIT (LENGTH_MEASURE( 1.000000000000000082E-05 ), #32, 'distance_accuracy_value', 'NONE');
#42 = DIRECTION ( 'NONE',  ( -0.000000000000000000, -1.000000000000000000, -0.000000000000000000 ) ) ;
#43 = DIRECTION ( 'NONE',  ( 0.000000000000000000, -0.000000000000000000, 1.000000000000000000 ) ) ;
#44 = PRESENTATION_LAYER_ASSIGNMENT (  '', '', ( #18 ) ) ;
#45 = LENGTH_MEASURE_WITH_UNIT ( LENGTH_MEASURE( 0.02539999999999999897 ), #98 );
#46 = EDGE_LOOP ( 'NONE', ( #290, #146 ) ) ;
#47 = DIRECTION ( 'NONE',  ( -2.721437331438560389E-17, 1.000000000000000000, -0.000000000000000000 ) ) ;
#48 = ORIENTED_EDGE ( 'NONE', *, *, #199, .T. ) ;
#49 = CARTESIAN_POINT ( 'NONE',  ( 0.000000000000000000, 0.000000000000000000, -0.3125000000000000000 ) ) ;
#50 = VERTEX_POINT ( 'NONE', #128 ) ;
#51 = AXIS2_PLACEMENT_3D ( 'NONE', #216, #245, #43 ) ;
#52 = ORIENTED_EDGE ( 'NONE', *, *, #167, .T. ) ;
#53 =( LENGTH_UNIT ( ) NAMED_UNIT ( * ) SI_UNIT ( $, .METRE. ) );
#54 = SURFACE_SIDE_STYLE ('',( #171 ) ) ;
#55 = STYLED_ITEM ( 'NONE', ( #58 ), #137 ) ;
#56 =( NAMED_UNIT ( * ) SI_UNIT ( $, .STERADIAN. ) SOLID_ANGLE_UNIT ( ) );
#57 =( LENGTH_UNIT ( ) NAMED_UNIT ( * ) SI_UNIT ( $, .METRE. ) );
#58 = PRESENTATION_STYLE_ASSIGNMENT (( #149 ) ) ;
#59 = UNCERTAINTY_MEASURE_WITH_UNIT (LENGTH_MEASURE( 1.000000000000000082E-05 ), #134, 'distance_accuracy_value', 'NONE');
#60 = DIRECTION ( 'NONE',  ( 0.000000000000000000, 0.000000000000000000, -1.000000000000000000 ) ) ;
#61 = CARTESIAN_POINT ( 'NONE',  ( 0.000000000000000000, 0.000000000000000000, -0.3125000000000000000 ) ) ;
#62 = DIMENSIONAL_EXPONENTS ( 1.000000000000000000, 0.000000000000000000, 0.000000000000000000, 0.000000000000000000, 0.000000000000000000, 0.000000000000000000, 0.000000000000000000 ) ;
#63 = ADVANCED_FACE ( 'NONE', ( #157 ), #202, .T. ) ;
#64 =( GEOMETRIC_REPRESENTATION_CONTEXT ( 3 ) GLOBAL_UNCERTAINTY_ASSIGNED_CONTEXT ( ( #40 ) ) GLOBAL_UNIT_ASSIGNED_CONTEXT ( ( #177, #9, #56 ) ) REPRESENTATION_CONTEXT ( 'NONE', 'WORKASPACE' ) );
#65 = FILL_AREA_STYLE_COLOUR ( '', #125 ) ;
#66 =( LENGTH_UNIT ( ) NAMED_UNIT ( * ) SI_UNIT ( $, .METRE. ) );
#67 = EDGE_CURVE ( 'NONE', #122, #189, #297, .T. ) ;
#68 = DIRECTION ( 'NONE',  ( -2.721437331438560697E-17, 1.000000000000000000, -0.000000000000000000 ) ) ;
#69 = PRESENTATION_LAYER_ASSIGNMENT (  '', '', ( #259 ) ) ;
#70 = CARTESIAN_POINT ( 'NONE',  ( 0.3125000000000000000, 3.500000000000000000, 3.827021247335478926E-17 ) ) ;
#71 = DIRECTION ( 'NONE',  ( -1.000000000000000000, 0.000000000000000000, 0.000000000000000000 ) ) ;
#72 = DIMENSIONAL_EXPONENTS ( 1.000000000000000000, 0.000000000000000000, 0.000000000000000000, 0.000000000000000000, 0.000000000000000000, 0.000000000000000000, 0.000000000000000000 ) ;
#73 =( NAMED_UNIT ( * ) PLANE_ANGLE_UNIT ( ) SI_UNIT ( $, .RADIAN. ) );
#74 = CIRCLE ( 'NONE', #240, 0.3125000000000000000 ) ;
#75 = ORIENTED_EDGE ( 'NONE', *, *, #144, .T. ) ;
#76 = CARTESIAN_POINT ( 'NONE',  ( -6.123233995736759873E-17, 3.500000000000000000, 0.000000000000000000 ) ) ;
#77 = EDGE_LOOP ( 'NONE', ( #1, #81 ) ) ;
#78 = DIRECTION ( 'NONE',  ( 1.000000000000000000, 2.721437331438560697E-17, 0.000000000000000000 ) ) ;
#79 = PRODUCT_RELATED_PRODUCT_CATEGORY ( 'part', '', ( #4 ) ) ;
#80 = LENGTH_MEASURE_WITH_UNIT ( LENGTH_MEASURE( 0.02539999999999999897 ), #53 );
#81 = ORIENTED_EDGE ( 'NONE', *, *, #199, .F. ) ;
#82 = EDGE_CURVE ( 'NONE', #106, #122, #170, .T. ) ;
#83 = FACE_OUTER_BOUND ( 'NONE', #194, .T. ) ;
#84 = COLOUR_RGB ( '',1.000000000000000000, 0.000000000000000000, 0.000000000000000000 ) ;
#85 = SURFACE_STYLE_USAGE ( .BOTH. , #35 ) ;
#86 = SHAPE_DEFINITION_REPRESENTATION ( #36, #252 ) ;
#87 = CARTESIAN_POINT ( 'NONE',  ( -6.123233995736759873E-17, 3.500000000000000000, 0.000000000000000000 ) ) ;
#88 = SURFACE_STYLE_FILL_AREA ( #204 ) ;
#89 = EDGE_CURVE ( 'NONE', #166, #169, #91, .T. ) ;
#90 = DIRECTION ( 'NONE',  ( -2.721437331438560697E-17, 1.000000000000000000, -0.000000000000000000 ) ) ;
#91 = CIRCLE ( 'NONE', #111, 0.3125000000000000555 ) ;
#92 = DIRECTION ( 'NONE',  ( 0.000000000000000000, -1.000000000000000000, -0.000000000000000000 ) ) ;
#93 = EDGE_CURVE ( 'NONE', #50, #169, #205, .T. ) ;
#94 = DIMENSIONAL_EXPONENTS ( 1.000000000000000000, 0.000000000000000000, 0.000000000000000000, 0.000000000000000000, 0.000000000000000000, 0.000000000000000000, 0.000000000000000000 ) ;
#95 =( CONVERSION_BASED_UNIT ( 'INCH', #219 ) LENGTH_UNIT ( ) NAMED_UNIT ( #183 ) );
#96 = CARTESIAN_POINT ( 'NONE',  ( 0.000000000000000000, 1.250000000000000000, 0.000000000000000000 ) ) ;
#97 =( NAMED_UNIT ( * ) SI_UNIT ( $, .STERADIAN. ) SOLID_ANGLE_UNIT ( ) );
#98 =( LENGTH_UNIT ( ) NAMED_UNIT ( * ) SI_UNIT ( $, .METRE. ) );
#99 = CARTESIAN_POINT ( 'NONE',  ( 0.000000000000000000, 1.250000000000000000, 0.000000000000000000 ) ) ;
#100 =( NAMED_UNIT ( * ) SI_UNIT ( $, .STERADIAN. ) SOLID_ANGLE_UNIT ( ) );
#101 = ORIENTED_EDGE ( 'NONE', *, *, #93, .T. ) ;
#102 = SURFACE_STYLE_FILL_AREA ( #214 ) ;
#103 = EDGE_CURVE ( 'NONE', #295, #166, #180, .T. ) ;
#104 = ORIENTED_EDGE ( 'NONE', *, *, #93, .F. ) ;
#105 = SURFACE_SIDE_STYLE ('',( #307 ) ) ;
#106 = VERTEX_POINT ( 'NONE', #116 ) ;
#107 = COLOUR_RGB ( '',0.7921568627450980005, 0.8196078431372548767, 0.9333333333333333481 ) ;
#108 = EDGE_CURVE ( 'NONE', #50, #295, #159, .T. ) ;
#109 = MANIFOLD_SOLID_BREP ( 'Revolve - Cutting Edge', #6 ) ;
#110 = LENGTH_MEASURE_WITH_UNIT ( LENGTH_MEASURE( 0.02539999999999999897 ), #226 );
#111 = AXIS2_PLACEMENT_3D ( 'NONE', #257, #131, #235 ) ;
#112 = DIRECTION ( 'NONE',  ( -2.721437331438560697E-17, 1.000000000000000000, 0.000000000000000000 ) ) ;
#113 = DIRECTION ( 'NONE',  ( 0.000000000000000000, 0.000000000000000000, 1.000000000000000000 ) ) ;
#114 = FILL_AREA_STYLE ('',( #264 ) ) ;
#115 = FILL_AREA_STYLE_COLOUR ( '', #117 ) ;
#116 = CARTESIAN_POINT ( 'NONE',  ( 0.000000000000000000, 1.250000000000000000, -0.3125000000000000000 ) ) ;
#117 = COLOUR_RGB ( '',1.000000000000000000, 0.000000000000000000, 0.000000000000000000 ) ;
#118 = PRESENTATION_STYLE_ASSIGNMENT (( #283 ) ) ;
#119 = UNCERTAINTY_MEASURE_WITH_UNIT (LENGTH_MEASURE( 1.000000000000000082E-05 ), #95, 'distance_accuracy_value', 'NONE');
#120 = ORIENTED_EDGE ( 'NONE', *, *, #144, .F. ) ;
#121 = CIRCLE ( 'NONE', #276, 0.3125000000000000000 ) ;
#122 = VERTEX_POINT ( 'NONE', #191 ) ;
#123 = DIRECTION ( 'NONE',  ( -0.000000000000000000, -1.000000000000000000, -0.000000000000000000 ) ) ;
#124 = FACE_OUTER_BOUND ( 'NONE', #266, .T. ) ;
#125 = COLOUR_RGB ( '',1.000000000000000000, 0.000000000000000000, 0.000000000000000000 ) ;
#126 = DIRECTION ( 'NONE',  ( -0.000000000000000000, -1.000000000000000000, -0.000000000000000000 ) ) ;
#127 = CARTESIAN_POINT ( 'NONE',  ( 0.000000000000000000, 0.000000000000000000, 0.000000000000000000 ) ) ;
#128 = CARTESIAN_POINT ( 'NONE',  ( 0.3125000000000000000, 1.250000000000000000, 3.827021247335478926E-17 ) ) ;
#129 = EDGE_CURVE ( 'NONE', #189, #145, #121, .T. ) ;
#130 = CLOSED_SHELL ( 'NONE', ( #236, #30, #281, #304 ) ) ;
#131 = DIRECTION ( 'NONE',  ( -2.721437331438560389E-17, 1.000000000000000000, -0.000000000000000000 ) ) ;
#132 =( NAMED_UNIT ( * ) PLANE_ANGLE_UNIT ( ) SI_UNIT ( $, .RADIAN. ) );
#133 = AXIS2_PLACEMENT_3D ( 'NONE', #76, #195, #27 ) ;
#134 =( CONVERSION_BASED_UNIT ( 'INCH', #232 ) LENGTH_UNIT ( ) NAMED_UNIT ( #94 ) );
#135 = FACE_OUTER_BOUND ( 'NONE', #225, .T. ) ;
#136 = AXIS2_PLACEMENT_3D ( 'NONE', #193, #291, #78 ) ;
#137 = ADVANCED_FACE ( 'NONE', ( #286 ), #20, .T. ) ;
#138 = CARTESIAN_POINT ( 'NONE',  ( 3.827021247335478926E-17, 0.000000000000000000, 0.3125000000000000000 ) ) ;
#139 = DIRECTION ( 'NONE',  ( -2.721437331438560389E-17, 1.000000000000000000, -0.000000000000000000 ) ) ;
#140 = PRESENTATION_LAYER_ASSIGNMENT (  '', '', ( #305 ) ) ;
#141 =( GEOMETRIC_REPRESENTATION_CONTEXT ( 3 ) GLOBAL_UNCERTAINTY_ASSIGNED_CONTEXT ( ( #41 ) ) GLOBAL_UNIT_ASSIGNED_CONTEXT ( ( #32, #175, #173 ) ) REPRESENTATION_CONTEXT ( 'NONE', 'WORKASPACE' ) );
#142 = AXIS2_PLACEMENT_3D ( 'NONE', #5, #274, #271 ) ;
#143 = PRESENTATION_STYLE_ASSIGNMENT (( #220 ) ) ;
#144 = EDGE_CURVE ( 'NONE', #169, #166, #265, .T. ) ;
#145 = VERTEX_POINT ( 'NONE', #61 ) ;
#146 = ORIENTED_EDGE ( 'NONE', *, *, #129, .T. ) ;
#147 =( GEOMETRIC_REPRESENTATION_CONTEXT ( 3 ) GLOBAL_UNCERTAINTY_ASSIGNED_CONTEXT ( ( #237 ) ) GLOBAL_UNIT_ASSIGNED_CONTEXT ( ( #260, #306, #97 ) ) REPRESENTATION_CONTEXT ( 'NONE', 'WORKASPACE' ) );
#148 = DIRECTION ( 'NONE',  ( -0.000000000000000000, -1.000000000000000000, -0.000000000000000000 ) ) ;
#149 = SURFACE_STYLE_USAGE ( .BOTH. , #54 ) ;
#150 = DIRECTION ( 'NONE',  ( -1.000000000000000000, -2.721437331438560697E-17, 0.000000000000000000 ) ) ;
#151 = PLANE ( 'NONE',  #136 ) ;
#152 = COLOUR_RGB ( '',0.7921568627450980005, 0.8196078431372548767, 0.9333333333333333481 ) ;
#153 = CARTESIAN_POINT ( 'NONE',  ( 3.827021247335478926E-17, 0.000000000000000000, 0.3125000000000000000 ) ) ;
#154 = ADVANCED_FACE ( 'NONE', ( #282 ), #17, .T. ) ;
#155 = FACE_OUTER_BOUND ( 'NONE', #253, .T. ) ;
#156 =( LENGTH_UNIT ( ) NAMED_UNIT ( * ) SI_UNIT ( $, .METRE. ) );
#157 = FACE_OUTER_BOUND ( 'NONE', #23, .T. ) ;
#158 = SURFACE_SIDE_STYLE ('',( #88 ) ) ;
#159 = CIRCLE ( 'NONE', #251, 0.3125000000000000000 ) ;
#160 = DIRECTION ( 'NONE',  ( 1.000000000000000000, 0.000000000000000000, 0.000000000000000000 ) ) ;
#161 = LENGTH_MEASURE_WITH_UNIT ( LENGTH_MEASURE( 0.02539999999999999897 ), #162 );
#162 =( LENGTH_UNIT ( ) NAMED_UNIT ( * ) SI_UNIT ( $, .METRE. ) );
#163 = SURFACE_SIDE_STYLE ('',( #102 ) ) ;
#164 = CIRCLE ( 'NONE', #208, 0.3125000000000000000 ) ;
#165 = PRODUCT_DEFINITION_FORMATION_WITH_SPECIFIED_SOURCE ( 'ANY', '', #4, .NOT_KNOWN. ) ;
#166 = VERTEX_POINT ( 'NONE', #209 ) ;
#167 = EDGE_CURVE ( 'NONE', #295, #50, #164, .T. ) ;
#168 = ORIENTED_EDGE ( 'NONE', *, *, #108, .F. ) ;
#169 = VERTEX_POINT ( 'NONE', #70 ) ;
#170 = CIRCLE ( 'NONE', #246, 0.3125000000000000000 ) ;
#171 = SURFACE_STYLE_FILL_AREA ( #114 ) ;
#172 = ORIENTED_EDGE ( 'NONE', *, *, #89, .T. ) ;
#173 =( NAMED_UNIT ( * ) SI_UNIT ( $, .STERADIAN. ) SOLID_ANGLE_UNIT ( ) );
#174 = SURFACE_STYLE_FILL_AREA ( #256 ) ;
#175 =( NAMED_UNIT ( * ) PLANE_ANGLE_UNIT ( ) SI_UNIT ( $, .RADIAN. ) );
#176 = VECTOR ( 'NONE', #68, 39.37007874015748143 ) ;
#177 =( CONVERSION_BASED_UNIT ( 'INCH', #200 ) LENGTH_UNIT ( ) NAMED_UNIT ( #72 ) );
#178 = CARTESIAN_POINT ( 'NONE',  ( 0.000000000000000000, 1.250000000000000000, 0.000000000000000000 ) ) ;
#179 = SURFACE_STYLE_USAGE ( .BOTH. , #158 ) ;
#180 = LINE ( 'NONE', #284, #176 ) ;
#181 = AXIS2_PLACEMENT_3D ( 'NONE', #301, #148, #15 ) ;
#182 = DIRECTION ( 'NONE',  ( -2.721437331438560389E-17, 1.000000000000000000, -0.000000000000000000 ) ) ;
#183 = DIMENSIONAL_EXPONENTS ( 1.000000000000000000, 0.000000000000000000, 0.000000000000000000, 0.000000000000000000, 0.000000000000000000, 0.000000000000000000, 0.000000000000000000 ) ;
#184 = PRODUCT_DEFINITION ( 'UNKNOWN', '', #165, #279 ) ;
#185 =( NAMED_UNIT ( * ) PLANE_ANGLE_UNIT ( ) SI_UNIT ( $, .RADIAN. ) );
#186 =( NAMED_UNIT ( * ) SI_UNIT ( $, .STERADIAN. ) SOLID_ANGLE_UNIT ( ) );
#187 = AXIS2_PLACEMENT_3D ( 'NONE', #198, #228, #3 ) ;
#188 =( CONVERSION_BASED_UNIT ( 'INCH', #45 ) LENGTH_UNIT ( ) NAMED_UNIT ( #218 ) );
#189 = VERTEX_POINT ( 'NONE', #138 ) ;
#190 = MECHANICAL_DESIGN_GEOMETRIC_PRESENTATION_REPRESENTATION (  '', ( #18 ), #223 ) ;
#191 = CARTESIAN_POINT ( 'NONE',  ( 3.827021247335478926E-17, 1.250000000000000000, 0.3125000000000000000 ) ) ;
#192 = ORIENTED_EDGE ( 'NONE', *, *, #129, .F. ) ;
#193 = CARTESIAN_POINT ( 'NONE',  ( 0.3125000000000000000, 3.500000000000000000, 0.000000000000000000 ) ) ;
#194 = EDGE_LOOP ( 'NONE', ( #172, #75 ) ) ;
#195 = DIRECTION ( 'NONE',  ( -2.721437331438560389E-17, 1.000000000000000000, -0.000000000000000000 ) ) ;
#196 = ORIENTED_EDGE ( 'NONE', *, *, #261, .F. ) ;
#197 = MECHANICAL_DESIGN_GEOMETRIC_PRESENTATION_REPRESENTATION (  '', ( #259 ), #147 ) ;
#198 = CARTESIAN_POINT ( 'NONE',  ( -6.123233995736759873E-17, 3.500000000000000000, 0.000000000000000000 ) ) ;
#199 = EDGE_CURVE ( 'NONE', #122, #106, #74, .T. ) ;
#200 = LENGTH_MEASURE_WITH_UNIT ( LENGTH_MEASURE( 0.02539999999999999897 ), #57 );
#201 = AXIS2_PLACEMENT_3D ( 'NONE', #127, #92, #12 ) ;
#202 = CYLINDRICAL_SURFACE ( 'NONE', #181, 0.3125000000000000000 ) ;
#203 =( NAMED_UNIT ( * ) PLANE_ANGLE_UNIT ( ) SI_UNIT ( $, .RADIAN. ) );
#204 = FILL_AREA_STYLE ('',( #65 ) ) ;
#205 = LINE ( 'NONE', #303, #2 ) ;
#206 = MANIFOLD_SOLID_BREP ( 'Revolve - Tool Body (Straight Shanked)', #130 ) ;
#207 = CIRCLE ( 'NONE', #249, 0.3125000000000000000 ) ;
#208 = AXIS2_PLACEMENT_3D ( 'NONE', #262, #47, #71 ) ;
#209 = CARTESIAN_POINT ( 'NONE',  ( -0.3125000000000001665, 3.500000000000000000, 0.000000000000000000 ) ) ;
#210 = SURFACE_STYLE_FILL_AREA ( #287 ) ;
#211 = DIMENSIONAL_EXPONENTS ( 1.000000000000000000, 0.000000000000000000, 0.000000000000000000, 0.000000000000000000, 0.000000000000000000, 0.000000000000000000, 0.000000000000000000 ) ;
#212 = FILL_AREA_STYLE ('',( #115 ) ) ;
#213 = APPLICATION_CONTEXT ( 'automotive_design' ) ;
#214 = FILL_AREA_STYLE ('',( #267 ) ) ;
#215 = PRESENTATION_LAYER_ASSIGNMENT (  '', '', ( #39 ) ) ;
#216 = CARTESIAN_POINT ( 'NONE',  ( 0.000000000000000000, 1.250000000000000000, 0.000000000000000000 ) ) ;
#217 = VECTOR ( 'NONE', #33, 39.37007874015748143 ) ;
#218 = DIMENSIONAL_EXPONENTS ( 1.000000000000000000, 0.000000000000000000, 0.000000000000000000, 0.000000000000000000, 0.000000000000000000, 0.000000000000000000, 0.000000000000000000 ) ;
#219 = LENGTH_MEASURE_WITH_UNIT ( LENGTH_MEASURE( 0.02539999999999999897 ), #66 );
#220 = SURFACE_STYLE_USAGE ( .BOTH. , #163 ) ;
#221 = ORIENTED_EDGE ( 'NONE', *, *, #103, .T. ) ;
#222 = ORIENTED_EDGE ( 'NONE', *, *, #261, .T. ) ;
#223 =( GEOMETRIC_REPRESENTATION_CONTEXT ( 3 ) GLOBAL_UNCERTAINTY_ASSIGNED_CONTEXT ( ( #308 ) ) GLOBAL_UNIT_ASSIGNED_CONTEXT ( ( #188, #185, #186 ) ) REPRESENTATION_CONTEXT ( 'NONE', 'WORKASPACE' ) );
#224 = CYLINDRICAL_SURFACE ( 'NONE', #187, 0.3125000000000000000 ) ;
#225 = EDGE_LOOP ( 'NONE', ( #247, #38, #270, #196 ) ) ;
#226 =( LENGTH_UNIT ( ) NAMED_UNIT ( * ) SI_UNIT ( $, .METRE. ) );
#227 = DIRECTION ( 'NONE',  ( 0.000000000000000000, 0.000000000000000000, -1.000000000000000000 ) ) ;
#228 = DIRECTION ( 'NONE',  ( -2.721437331438560389E-17, 1.000000000000000000, -0.000000000000000000 ) ) ;
#229 = ADVANCED_FACE ( 'NONE', ( #135 ), #22, .T. ) ;
#230 =( CONVERSION_BASED_UNIT ( 'INCH', #110 ) LENGTH_UNIT ( ) NAMED_UNIT ( #62 ) );
#231 = FILL_AREA_STYLE_COLOUR ( '', #280 ) ;
#232 = LENGTH_MEASURE_WITH_UNIT ( LENGTH_MEASURE( 0.02539999999999999897 ), #156 );
#233 = CARTESIAN_POINT ( 'NONE',  ( 0.000000000000000000, 0.000000000000000000, 0.000000000000000000 ) ) ;
#234 = MECHANICAL_DESIGN_GEOMETRIC_PRESENTATION_REPRESENTATION (  '', ( #39 ), #258 ) ;
#235 = DIRECTION ( 'NONE',  ( -1.000000000000000000, 0.000000000000000000, 0.000000000000000000 ) ) ;
#236 = ADVANCED_FACE ( 'NONE', ( #269 ), #254, .T. ) ;
#237 = UNCERTAINTY_MEASURE_WITH_UNIT (LENGTH_MEASURE( 1.000000000000000082E-05 ), #260, 'distance_accuracy_value', 'NONE');
#238 =( NAMED_UNIT ( * ) SI_UNIT ( $, .STERADIAN. ) SOLID_ANGLE_UNIT ( ) );
#239 = UNCERTAINTY_MEASURE_WITH_UNIT (LENGTH_MEASURE( 1.000000000000000082E-05 ), #230, 'distance_accuracy_value', 'NONE');
#240 = AXIS2_PLACEMENT_3D ( 'NONE', #99, #19, #243 ) ;
#241 = FILL_AREA_STYLE_COLOUR ( '', #152 ) ;
#242 = DIRECTION ( 'NONE',  ( 0.000000000000000000, 0.000000000000000000, -1.000000000000000000 ) ) ;
#243 = DIRECTION ( 'NONE',  ( 0.000000000000000000, 0.000000000000000000, -1.000000000000000000 ) ) ;
#244 = AXIS2_PLACEMENT_3D ( 'NONE', #13, #113, #160 ) ;
#245 = DIRECTION ( 'NONE',  ( 0.000000000000000000, 1.000000000000000000, 0.000000000000000000 ) ) ;
#246 = AXIS2_PLACEMENT_3D ( 'NONE', #178, #277, #60 ) ;
#247 = ORIENTED_EDGE ( 'NONE', *, *, #82, .T. ) ;
#248 = SURFACE_SIDE_STYLE ('',( #210 ) ) ;
#249 = AXIS2_PLACEMENT_3D ( 'NONE', #233, #123, #227 ) ;
#250 = ORIENTED_EDGE ( 'NONE', *, *, #103, .F. ) ;
#251 = AXIS2_PLACEMENT_3D ( 'NONE', #96, #139, #288 ) ;
#252 = ADVANCED_BREP_SHAPE_REPRESENTATION ( '83312', ( #109, #206, #244 ), #21 ) ;
#253 = EDGE_LOOP ( 'NONE', ( #268, #168 ) ) ;
#254 = CYLINDRICAL_SURFACE ( 'NONE', #133, 0.3125000000000000000 ) ;
#255 = PRESENTATION_LAYER_ASSIGNMENT (  '', '', ( #294 ) ) ;
#256 = FILL_AREA_STYLE ('',( #231 ) ) ;
#257 = CARTESIAN_POINT ( 'NONE',  ( -6.123233995736759873E-17, 3.500000000000000000, 0.000000000000000000 ) ) ;
#258 =( GEOMETRIC_REPRESENTATION_CONTEXT ( 3 ) GLOBAL_UNCERTAINTY_ASSIGNED_CONTEXT ( ( #119 ) ) GLOBAL_UNIT_ASSIGNED_CONTEXT ( ( #95, #73, #100 ) ) REPRESENTATION_CONTEXT ( 'NONE', 'WORKASPACE' ) );
#259 = STYLED_ITEM ( 'NONE', ( #278 ), #154 ) ;
#260 =( CONVERSION_BASED_UNIT ( 'INCH', #161 ) LENGTH_UNIT ( ) NAMED_UNIT ( #285 ) );
#261 = EDGE_CURVE ( 'NONE', #106, #145, #293, .T. ) ;
#262 = CARTESIAN_POINT ( 'NONE',  ( 0.000000000000000000, 1.250000000000000000, 0.000000000000000000 ) ) ;
#263 = CARTESIAN_POINT ( 'NONE',  ( 0.000000000000000000, 0.000000000000000000, 0.000000000000000000 ) ) ;
#264 = FILL_AREA_STYLE_COLOUR ( '', #84 ) ;
#265 = CIRCLE ( 'NONE', #289, 0.3125000000000000555 ) ;
#266 = EDGE_LOOP ( 'NONE', ( #104, #292, #221, #120 ) ) ;
#267 = FILL_AREA_STYLE_COLOUR ( '', #107 ) ;
#268 = ORIENTED_EDGE ( 'NONE', *, *, #167, .F. ) ;
#269 = FACE_OUTER_BOUND ( 'NONE', #26, .T. ) ;
#270 = ORIENTED_EDGE ( 'NONE', *, *, #24, .F. ) ;
#271 = DIRECTION ( 'NONE',  ( 0.000000000000000000, 0.000000000000000000, -1.000000000000000000 ) ) ;
#272 = ORIENTED_EDGE ( 'NONE', *, *, #67, .F. ) ;
#273 = PRESENTATION_STYLE_ASSIGNMENT (( #25 ) ) ;
#274 = DIRECTION ( 'NONE',  ( -0.000000000000000000, -1.000000000000000000, -0.000000000000000000 ) ) ;
#275 = PRESENTATION_STYLE_ASSIGNMENT (( #85 ) ) ;
#276 = AXIS2_PLACEMENT_3D ( 'NONE', #263, #42, #242 ) ;
#277 = DIRECTION ( 'NONE',  ( -0.000000000000000000, -1.000000000000000000, -0.000000000000000000 ) ) ;
#278 = PRESENTATION_STYLE_ASSIGNMENT (( #179 ) ) ;
#279 = PRODUCT_DEFINITION_CONTEXT ( 'detailed design', #213, 'design' ) ;
#280 = COLOUR_RGB ( '',1.000000000000000000, 0.000000000000000000, 0.000000000000000000 ) ;
#281 = ADVANCED_FACE ( 'NONE', ( #124 ), #224, .T. ) ;
#282 = FACE_OUTER_BOUND ( 'NONE', #77, .T. ) ;
#283 = SURFACE_STYLE_USAGE ( .BOTH. , #248 ) ;
#284 = CARTESIAN_POINT ( 'NONE',  ( -0.3125000000000000555, 3.500000000000000000, 0.000000000000000000 ) ) ;
#285 = DIMENSIONAL_EXPONENTS ( 1.000000000000000000, 0.000000000000000000, 0.000000000000000000, 0.000000000000000000, 0.000000000000000000, 0.000000000000000000, 0.000000000000000000 ) ;
#286 = FACE_OUTER_BOUND ( 'NONE', #46, .T. ) ;
#287 = FILL_AREA_STYLE ('',( #241 ) ) ;
#288 = DIRECTION ( 'NONE',  ( -1.000000000000000000, 0.000000000000000000, 0.000000000000000000 ) ) ;
#289 = AXIS2_PLACEMENT_3D ( 'NONE', #87, #182, #302 ) ;
#290 = ORIENTED_EDGE ( 'NONE', *, *, #24, .T. ) ;
#291 = DIRECTION ( 'NONE',  ( 2.721437331438560697E-17, -1.000000000000000000, 0.000000000000000000 ) ) ;
#292 = ORIENTED_EDGE ( 'NONE', *, *, #108, .T. ) ;
#293 = LINE ( 'NONE', #49, #217 ) ;
#294 = STYLED_ITEM ( 'NONE', ( #273 ), #229 ) ;
#295 = VERTEX_POINT ( 'NONE', #296 ) ;
#296 = CARTESIAN_POINT ( 'NONE',  ( -0.3125000000000000000, 1.250000000000000000, 0.000000000000000000 ) ) ;
#297 = LINE ( 'NONE', #153, #309 ) ;
#298 = APPLICATION_PROTOCOL_DEFINITION ( 'draft international standard', 'automotive_design', 1998, #213 ) ;
#299 = PRESENTATION_LAYER_ASSIGNMENT (  '', '', ( #55 ) ) ;
#300 = MECHANICAL_DESIGN_GEOMETRIC_PRESENTATION_REPRESENTATION (  '', ( #294 ), #141 ) ;
#301 = CARTESIAN_POINT ( 'NONE',  ( 0.000000000000000000, 0.000000000000000000, 0.000000000000000000 ) ) ;
#302 = DIRECTION ( 'NONE',  ( -1.000000000000000000, 0.000000000000000000, 0.000000000000000000 ) ) ;
#303 = CARTESIAN_POINT ( 'NONE',  ( 0.3124999999999999445, 3.500000000000000000, 3.827021247335478926E-17 ) ) ;
#304 = ADVANCED_FACE ( 'NONE', ( #83 ), #151, .F. ) ;
#305 = STYLED_ITEM ( 'NONE', ( #275 ), #63 ) ;
#306 =( NAMED_UNIT ( * ) PLANE_ANGLE_UNIT ( ) SI_UNIT ( $, .RADIAN. ) );
#307 = SURFACE_STYLE_FILL_AREA ( #212 ) ;
#308 = UNCERTAINTY_MEASURE_WITH_UNIT (LENGTH_MEASURE( 1.000000000000000082E-05 ), #188, 'distance_accuracy_value', 'NONE');
#309 = VECTOR ( 'NONE', #126, 39.37007874015748143 ) ;
ENDSEC;
END-ISO-10303-21;
