ISO-10303-21;
HEADER;
FILE_DESCRIPTION (( 'STEP AP214' ),
    '1' );
FILE_NAME ('59469.STEP',
    '2023-07-24T15:07:07',
    ( '' ),
    ( '' ),
    'SwSTEP 2.0',
    'SolidWorks 2023',
    '' );
FILE_SCHEMA (( 'AUTOMOTIVE_DESIGN' ));
ENDSEC;

DATA;
#1 = DIRECTION ( 'NONE',  ( 0.000000000000000000, 0.000000000000000000, -1.000000000000000000 ) ) ;
#2 = EDGE_LOOP ( 'NONE', ( #338, #160 ) ) ;
#3 = CARTESIAN_POINT ( 'NONE',  ( 5.421010862427522170E-15, 18.00000000000000000, 0.000000000000000000 ) ) ;
#4 = CIRCLE ( 'NONE', #200, 5.999999999999994671 ) ;
#5 = SURFACE_STYLE_FILL_AREA ( #65 ) ;
#6 =( LENGTH_UNIT ( ) NAMED_UNIT ( * ) SI_UNIT ( .MILLI., .METRE. ) );
#7 = ADVANCED_FACE ( 'NONE', ( #98 ), #153, .T. ) ;
#8 = DIRECTION ( 'NONE',  ( -0.000000000000000000, -1.000000000000000000, -0.000000000000000000 ) ) ;
#9 = ORIENTED_EDGE ( 'NONE', *, *, #258, .F. ) ;
#10 = CARTESIAN_POINT ( 'NONE',  ( 0.000000000000000000, 0.000000000000000000, 0.000000000000000000 ) ) ;
#11 = AXIS2_PLACEMENT_3D ( 'NONE', #90, #129, #208 ) ;
#12 = DIRECTION ( 'NONE',  ( -1.208874916035850209E-16, 1.000000000000000000, -0.000000000000000000 ) ) ;
#13 = CARTESIAN_POINT ( 'NONE',  ( 0.000000000000000000, 18.00000000000000000, -6.000000000000000000 ) ) ;
#14 = DIRECTION ( 'NONE',  ( 0.000000000000000000, 0.000000000000000000, -1.000000000000000000 ) ) ;
#15 = DIRECTION ( 'NONE',  ( 0.000000000000000000, 0.000000000000000000, -1.000000000000000000 ) ) ;
#16 = CARTESIAN_POINT ( 'NONE',  ( -6.000000000000000000, 75.00000000000000000, 0.000000000000000000 ) ) ;
#17 = ADVANCED_FACE ( 'NONE', ( #297 ), #220, .T. ) ;
#18 = CIRCLE ( 'NONE', #64, 6.000000000000000000 ) ;
#19 = STYLED_ITEM ( 'NONE', ( #37 ), #7 ) ;
#20 = CIRCLE ( 'NONE', #262, 5.000000000000000000 ) ;
#21 = ORIENTED_EDGE ( 'NONE', *, *, #322, .F. ) ;
#22 = ORIENTED_EDGE ( 'NONE', *, *, #150, .F. ) ;
#23 =( LENGTH_UNIT ( ) NAMED_UNIT ( * ) SI_UNIT ( .MILLI., .METRE. ) );
#24 = PRODUCT_DEFINITION ( 'UNKNOWN', '', #302, #32 ) ;
#25 = VERTEX_POINT ( 'NONE', #78 ) ;
#26 = SURFACE_STYLE_USAGE ( .BOTH. , #310 ) ;
#27 = DIRECTION ( 'NONE',  ( -0.000000000000000000, -1.000000000000000000, -0.000000000000000000 ) ) ;
#28 = AXIS2_PLACEMENT_3D ( 'NONE', #122, #118, #145 ) ;
#29 = PRESENTATION_STYLE_ASSIGNMENT (( #292 ) ) ;
#30 = AXIS2_PLACEMENT_3D ( 'NONE', #163, #319, #234 ) ;
#31 = DIRECTION ( 'NONE',  ( 0.000000000000000000, 0.000000000000000000, 1.000000000000000000 ) ) ;
#32 = PRODUCT_DEFINITION_CONTEXT ( 'detailed design', #257, 'design' ) ;
#33 = SURFACE_STYLE_FILL_AREA ( #121 ) ;
#34 = DIRECTION ( 'NONE',  ( -0.000000000000000000, -1.000000000000000000, -0.000000000000000000 ) ) ;
#35 =( NAMED_UNIT ( * ) SI_UNIT ( $, .STERADIAN. ) SOLID_ANGLE_UNIT ( ) );
#36 =( GEOMETRIC_REPRESENTATION_CONTEXT ( 3 ) GLOBAL_UNCERTAINTY_ASSIGNED_CONTEXT ( ( #290 ) ) GLOBAL_UNIT_ASSIGNED_CONTEXT ( ( #23, #339, #50 ) ) REPRESENTATION_CONTEXT ( 'NONE', 'WORKASPACE' ) );
#37 = PRESENTATION_STYLE_ASSIGNMENT (( #293 ) ) ;
#38 = FILL_AREA_STYLE_COLOUR ( '', #227 ) ;
#39 = CARTESIAN_POINT ( 'NONE',  ( 0.000000000000000000, 1.000000000000000000, 0.000000000000000000 ) ) ;
#40 = MECHANICAL_DESIGN_GEOMETRIC_PRESENTATION_REPRESENTATION (  '', ( #116 ), #49 ) ;
#41 = DIRECTION ( 'NONE',  ( -1.000000000000000000, 0.000000000000000000, 0.000000000000000000 ) ) ;
#42 =( NAMED_UNIT ( * ) PLANE_ANGLE_UNIT ( ) SI_UNIT ( $, .RADIAN. ) );
#43 = DIRECTION ( 'NONE',  ( -0.000000000000000000, -1.000000000000000000, -0.000000000000000000 ) ) ;
#44 = SURFACE_STYLE_FILL_AREA ( #138 ) ;
#45 = EDGE_LOOP ( 'NONE', ( #252, #286 ) ) ;
#46 = VERTEX_POINT ( 'NONE', #248 ) ;
#47 = LINE ( 'NONE', #270, #162 ) ;
#48 = ADVANCED_FACE ( 'NONE', ( #106 ), #329, .T. ) ;
#49 =( GEOMETRIC_REPRESENTATION_CONTEXT ( 3 ) GLOBAL_UNCERTAINTY_ASSIGNED_CONTEXT ( ( #237 ) ) GLOBAL_UNIT_ASSIGNED_CONTEXT ( ( #112, #265, #189 ) ) REPRESENTATION_CONTEXT ( 'NONE', 'WORKASPACE' ) );
#50 =( NAMED_UNIT ( * ) SI_UNIT ( $, .STERADIAN. ) SOLID_ANGLE_UNIT ( ) );
#51 = ADVANCED_FACE ( 'NONE', ( #61 ), #232, .T. ) ;
#52 = VECTOR ( 'NONE', #139, 1000.000000000000000 ) ;
#53 = PRESENTATION_STYLE_ASSIGNMENT (( #57 ) ) ;
#54 = STYLED_ITEM ( 'NONE', ( #132 ), #17 ) ;
#55 = EDGE_LOOP ( 'NONE', ( #105, #309, #148, #176 ) ) ;
#56 = ADVANCED_FACE ( 'NONE', ( #179 ), #114, .T. ) ;
#57 = SURFACE_STYLE_USAGE ( .BOTH. , #306 ) ;
#58 = MANIFOLD_SOLID_BREP ( 'Revolve - Tool Body (Straight Shanked)', #192 ) ;
#59 = ORIENTED_EDGE ( 'NONE', *, *, #288, .T. ) ;
#60 = FILL_AREA_STYLE ('',( #38 ) ) ;
#61 = FACE_OUTER_BOUND ( 'NONE', #205, .T. ) ;
#62 =( GEOMETRIC_REPRESENTATION_CONTEXT ( 3 ) GLOBAL_UNCERTAINTY_ASSIGNED_CONTEXT ( ( #82 ) ) GLOBAL_UNIT_ASSIGNED_CONTEXT ( ( #128, #95, #296 ) ) REPRESENTATION_CONTEXT ( 'NONE', 'WORKASPACE' ) );
#63 = CARTESIAN_POINT ( 'NONE',  ( 0.000000000000000000, 0.000000000000000000, 0.000000000000000000 ) ) ;
#64 = AXIS2_PLACEMENT_3D ( 'NONE', #370, #351, #282 ) ;
#65 = FILL_AREA_STYLE ('',( #345 ) ) ;
#66 = STYLED_ITEM ( 'NONE', ( #29 ), #198 ) ;
#67 = FILL_AREA_STYLE_COLOUR ( '', #358 ) ;
#68 = DIRECTION ( 'NONE',  ( -0.000000000000000000, -1.000000000000000000, -0.000000000000000000 ) ) ;
#69 = DIRECTION ( 'NONE',  ( 0.000000000000000000, 0.000000000000000000, -1.000000000000000000 ) ) ;
#70 = CYLINDRICAL_SURFACE ( 'NONE', #161, 5.999999999999998224 ) ;
#71 = SURFACE_SIDE_STYLE ('',( #99 ) ) ;
#72 = AXIS2_PLACEMENT_3D ( 'NONE', #102, #107, #279 ) ;
#73 =( GEOMETRIC_REPRESENTATION_CONTEXT ( 3 ) GLOBAL_UNCERTAINTY_ASSIGNED_CONTEXT ( ( #349 ) ) GLOBAL_UNIT_ASSIGNED_CONTEXT ( ( #92, #89, #35 ) ) REPRESENTATION_CONTEXT ( 'NONE', 'WORKASPACE' ) );
#74 = CARTESIAN_POINT ( 'NONE',  ( 0.000000000000000000, 18.00000000000000000, 0.000000000000000000 ) ) ;
#75 = DIRECTION ( 'NONE',  ( -0.000000000000000000, -1.000000000000000000, -0.000000000000000000 ) ) ;
#76 = ORIENTED_EDGE ( 'NONE', *, *, #246, .T. ) ;
#77 = CARTESIAN_POINT ( 'NONE',  ( 0.000000000000000000, 18.00000000000000000, 0.000000000000000000 ) ) ;
#78 = CARTESIAN_POINT ( 'NONE',  ( 6.735557395310443009E-16, 0.000000000000000000, 5.000000000000000000 ) ) ;
#79 = EDGE_LOOP ( 'NONE', ( #259, #83 ) ) ;
#80 =( NAMED_UNIT ( * ) PLANE_ANGLE_UNIT ( ) SI_UNIT ( $, .RADIAN. ) );
#81 = CIRCLE ( 'NONE', #141, 6.000000000000000000 ) ;
#82 = UNCERTAINTY_MEASURE_WITH_UNIT (LENGTH_MEASURE( 1.000000000000000082E-05 ), #128, 'distance_accuracy_value', 'NONE');
#83 = ORIENTED_EDGE ( 'NONE', *, *, #150, .T. ) ;
#84 = DIRECTION ( 'NONE',  ( 1.000000000000000000, 0.000000000000000000, 0.000000000000000000 ) ) ;
#85 = EDGE_CURVE ( 'NONE', #120, #291, #255, .T. ) ;
#86 = AXIS2_PLACEMENT_3D ( 'NONE', #39, #101, #253 ) ;
#87 = STYLED_ITEM ( 'NONE', ( #238 ), #215 ) ;
#88 = EDGE_LOOP ( 'NONE', ( #355, #76, #230, #175 ) ) ;
#89 =( NAMED_UNIT ( * ) PLANE_ANGLE_UNIT ( ) SI_UNIT ( $, .RADIAN. ) );
#90 = CARTESIAN_POINT ( 'NONE',  ( -1.469576158976823750E-15, 75.00000000000000000, 0.000000000000000000 ) ) ;
#91 = APPLICATION_CONTEXT ( 'automotive_design' ) ;
#92 =( LENGTH_UNIT ( ) NAMED_UNIT ( * ) SI_UNIT ( .MILLI., .METRE. ) );
#93 = ADVANCED_FACE ( 'NONE', ( #367 ), #305, .F. ) ;
#94 = CIRCLE ( 'NONE', #191, 6.000000000000000000 ) ;
#95 =( NAMED_UNIT ( * ) PLANE_ANGLE_UNIT ( ) SI_UNIT ( $, .RADIAN. ) );
#96 = FILL_AREA_STYLE ('',( #67 ) ) ;
#97 = CIRCLE ( 'NONE', #336, 6.000000000000001776 ) ;
#98 = FACE_OUTER_BOUND ( 'NONE', #346, .T. ) ;
#99 = SURFACE_STYLE_FILL_AREA ( #96 ) ;
#100 = DIRECTION ( 'NONE',  ( -1.000000000000000000, 0.000000000000000000, 0.000000000000000000 ) ) ;
#101 = DIRECTION ( 'NONE',  ( -0.000000000000000000, -1.000000000000000000, -0.000000000000000000 ) ) ;
#102 = CARTESIAN_POINT ( 'NONE',  ( 0.000000000000000000, 18.00000000000000000, 0.000000000000000000 ) ) ;
#103 = DIRECTION ( 'NONE',  ( 1.208874916035850209E-16, -1.000000000000000000, 0.000000000000000000 ) ) ;
#104 = MECHANICAL_DESIGN_GEOMETRIC_PRESENTATION_REPRESENTATION (  '', ( #87 ), #73 ) ;
#105 = ORIENTED_EDGE ( 'NONE', *, *, #246, .F. ) ;
#106 = FACE_OUTER_BOUND ( 'NONE', #235, .T. ) ;
#107 = DIRECTION ( 'NONE',  ( 0.000000000000000000, 1.000000000000000000, 0.000000000000000000 ) ) ;
#108 = FILL_AREA_STYLE ('',( #263 ) ) ;
#109 = ORIENTED_EDGE ( 'NONE', *, *, #288, .F. ) ;
#110 = DIRECTION ( 'NONE',  ( -1.208874916035850209E-16, 1.000000000000000000, 0.000000000000000000 ) ) ;
#111 = ORIENTED_EDGE ( 'NONE', *, *, #322, .T. ) ;
#112 =( LENGTH_UNIT ( ) NAMED_UNIT ( * ) SI_UNIT ( .MILLI., .METRE. ) );
#113 = AXIS2_PLACEMENT_3D ( 'NONE', #361, #103, #222 ) ;
#114 = CYLINDRICAL_SURFACE ( 'NONE', #171, 6.000000000000000000 ) ;
#115 = COLOUR_RGB ( '',1.000000000000000000, 0.000000000000000000, 0.000000000000000000 ) ;
#116 = STYLED_ITEM ( 'NONE', ( #285 ), #56 ) ;
#117 = SURFACE_SIDE_STYLE ('',( #5 ) ) ;
#118 = DIRECTION ( 'NONE',  ( -1.208874916035850209E-16, 1.000000000000000000, -0.000000000000000000 ) ) ;
#119 = UNCERTAINTY_MEASURE_WITH_UNIT (LENGTH_MEASURE( 1.000000000000000082E-05 ), #6, 'distance_accuracy_value', 'NONE');
#120 = VERTEX_POINT ( 'NONE', #187 ) ;
#121 = FILL_AREA_STYLE ('',( #315 ) ) ;
#122 = CARTESIAN_POINT ( 'NONE',  ( -1.469576158976823750E-15, 75.00000000000000000, 0.000000000000000000 ) ) ;
#123 = VECTOR ( 'NONE', #272, 1000.000000000000000 ) ;
#124 = ORIENTED_EDGE ( 'NONE', *, *, #301, .T. ) ;
#125 = DIRECTION ( 'NONE',  ( -1.000000000000000000, 0.000000000000000000, 0.000000000000000000 ) ) ;
#126 = DIRECTION ( 'NONE',  ( -0.000000000000000000, -1.000000000000000000, -0.000000000000000000 ) ) ;
#127 = FACE_OUTER_BOUND ( 'NONE', #79, .T. ) ;
#128 =( LENGTH_UNIT ( ) NAMED_UNIT ( * ) SI_UNIT ( .MILLI., .METRE. ) );
#129 = DIRECTION ( 'NONE',  ( -1.208874916035850209E-16, 1.000000000000000000, -0.000000000000000000 ) ) ;
#130 = CARTESIAN_POINT ( 'NONE',  ( 6.123233995736766282E-16, 1.000000000000000000, 5.000000000000000000 ) ) ;
#131 = PRODUCT ( '59469', '59469', '', ( #271 ) ) ;
#132 = PRESENTATION_STYLE_ASSIGNMENT (( #299 ) ) ;
#133 = VECTOR ( 'NONE', #249, 1000.000000000000000 ) ;
#134 = CARTESIAN_POINT ( 'NONE',  ( 7.347880794884118750E-16, 1.000000000000000000, 6.000000000000000000 ) ) ;
#135 =( NAMED_UNIT ( * ) SI_UNIT ( $, .STERADIAN. ) SOLID_ANGLE_UNIT ( ) );
#136 = ADVANCED_BREP_SHAPE_REPRESENTATION ( '59469', ( #198, #58, #226 ), #216 ) ;
#137 = FACE_OUTER_BOUND ( 'NONE', #2, .T. ) ;
#138 = FILL_AREA_STYLE ('',( #221 ) ) ;
#139 = DIRECTION ( 'NONE',  ( -1.208874916035850209E-16, 1.000000000000000000, -0.000000000000000000 ) ) ;
#140 = VERTEX_POINT ( 'NONE', #354 ) ;
#141 = AXIS2_PLACEMENT_3D ( 'NONE', #295, #68, #15 ) ;
#142 = MECHANICAL_DESIGN_GEOMETRIC_PRESENTATION_REPRESENTATION (  '', ( #54 ), #343 ) ;
#143 = PRESENTATION_LAYER_ASSIGNMENT (  '', '', ( #174 ) ) ;
#144 = VERTEX_POINT ( 'NONE', #13 ) ;
#145 = DIRECTION ( 'NONE',  ( -1.000000000000000000, 0.000000000000000000, 0.000000000000000000 ) ) ;
#146 = SURFACE_STYLE_FILL_AREA ( #278 ) ;
#147 = CIRCLE ( 'NONE', #30, 5.999999999999994671 ) ;
#148 = ORIENTED_EDGE ( 'NONE', *, *, #334, .T. ) ;
#149 =( NAMED_UNIT ( * ) SI_UNIT ( $, .STERADIAN. ) SOLID_ANGLE_UNIT ( ) );
#150 = EDGE_CURVE ( 'NONE', #25, #318, #20, .T. ) ;
#151 = CARTESIAN_POINT ( 'NONE',  ( 0.000000000000000000, 1.000000000000000000, 0.000000000000000000 ) ) ;
#152 = DIRECTION ( 'NONE',  ( 0.000000000000000000, 0.000000000000000000, -1.000000000000000000 ) ) ;
#153 = TOROIDAL_SURFACE ( 'NONE', #86, 5.000000000000000000, 0.9999999999999995559 ) ;
#154 = DIRECTION ( 'NONE',  ( -1.000000000000000000, 0.000000000000000000, 0.000000000000000000 ) ) ;
#155 = CARTESIAN_POINT ( 'NONE',  ( -1.469576158976823750E-15, 75.00000000000000000, 0.000000000000000000 ) ) ;
#156 = DIRECTION ( 'NONE',  ( -1.208874916035850209E-16, 1.000000000000000000, -0.000000000000000000 ) ) ;
#157 = PRODUCT_RELATED_PRODUCT_CATEGORY ( 'part', '', ( #131 ) ) ;
#158 = SURFACE_STYLE_FILL_AREA ( #108 ) ;
#159 = UNCERTAINTY_MEASURE_WITH_UNIT (LENGTH_MEASURE( 1.000000000000000082E-05 ), #341, 'distance_accuracy_value', 'NONE');
#160 = ORIENTED_EDGE ( 'NONE', *, *, #170, .T. ) ;
#161 = AXIS2_PLACEMENT_3D ( 'NONE', #195, #298, #41 ) ;
#162 = VECTOR ( 'NONE', #300, 1000.000000000000000 ) ;
#163 = CARTESIAN_POINT ( 'NONE',  ( 5.421010862427522170E-15, 18.00000000000000355, 0.000000000000000000 ) ) ;
#164 = LINE ( 'NONE', #269, #123 ) ;
#165 =( LENGTH_UNIT ( ) NAMED_UNIT ( * ) SI_UNIT ( .MILLI., .METRE. ) );
#166 = COLOUR_RGB ( '',1.000000000000000000, 0.000000000000000000, 0.000000000000000000 ) ;
#167 = CARTESIAN_POINT ( 'NONE',  ( 6.000000000000000000, 75.00000000000000000, 7.347880794884119736E-16 ) ) ;
#168 = SURFACE_STYLE_USAGE ( .BOTH. , #225 ) ;
#169 = LINE ( 'NONE', #16, #52 ) ;
#170 = EDGE_CURVE ( 'NONE', #312, #46, #97, .T. ) ;
#171 = AXIS2_PLACEMENT_3D ( 'NONE', #320, #126, #69 ) ;
#172 =( LENGTH_UNIT ( ) NAMED_UNIT ( * ) SI_UNIT ( .MILLI., .METRE. ) );
#173 = MECHANICAL_DESIGN_GEOMETRIC_PRESENTATION_REPRESENTATION (  '', ( #332 ), #36 ) ;
#174 = STYLED_ITEM ( 'NONE', ( #53 ), #51 ) ;
#175 = ORIENTED_EDGE ( 'NONE', *, *, #334, .F. ) ;
#176 = ORIENTED_EDGE ( 'NONE', *, *, #170, .F. ) ;
#177 = SURFACE_STYLE_FILL_AREA ( #60 ) ;
#178 = CIRCLE ( 'NONE', #330, 1.000000000000000000 ) ;
#179 = FACE_OUTER_BOUND ( 'NONE', #369, .T. ) ;
#180 =( GEOMETRIC_REPRESENTATION_CONTEXT ( 3 ) GLOBAL_UNCERTAINTY_ASSIGNED_CONTEXT ( ( #159 ) ) GLOBAL_UNIT_ASSIGNED_CONTEXT ( ( #341, #80, #316 ) ) REPRESENTATION_CONTEXT ( 'NONE', 'WORKASPACE' ) );
#181 = UNCERTAINTY_MEASURE_WITH_UNIT (LENGTH_MEASURE( 1.000000000000000082E-05 ), #172, 'distance_accuracy_value', 'NONE');
#182 = COLOUR_RGB ( '',0.7921568627450980005, 0.8196078431372548767, 0.9333333333333333481 ) ;
#183 = VERTEX_POINT ( 'NONE', #281 ) ;
#184 =( NAMED_UNIT ( * ) PLANE_ANGLE_UNIT ( ) SI_UNIT ( $, .RADIAN. ) );
#185 = ORIENTED_EDGE ( 'NONE', *, *, #258, .T. ) ;
#186 = EDGE_CURVE ( 'NONE', #183, #140, #147, .T. ) ;
#187 = CARTESIAN_POINT ( 'NONE',  ( 7.347880794884119736E-16, 18.00000000000000000, 6.000000000000000000 ) ) ;
#188 = DIRECTION ( 'NONE',  ( 0.000000000000000000, -1.000000000000000000, -0.000000000000000000 ) ) ;
#189 =( NAMED_UNIT ( * ) SI_UNIT ( $, .STERADIAN. ) SOLID_ANGLE_UNIT ( ) );
#190 = ADVANCED_FACE ( 'NONE', ( #347 ), #356, .T. ) ;
#191 = AXIS2_PLACEMENT_3D ( 'NONE', #77, #8, #366 ) ;
#192 = CLOSED_SHELL ( 'NONE', ( #304, #93, #190, #317 ) ) ;
#193 = STYLED_ITEM ( 'NONE', ( #204 ), #58 ) ;
#194 = CARTESIAN_POINT ( 'NONE',  ( 0.000000000000000000, 0.000000000000000000, 0.000000000000000000 ) ) ;
#195 = CARTESIAN_POINT ( 'NONE',  ( -1.469576158976823750E-15, 75.00000000000000000, 0.000000000000000000 ) ) ;
#196 = FILL_AREA_STYLE_COLOUR ( '', #206 ) ;
#197 = PRESENTATION_LAYER_ASSIGNMENT (  '', '', ( #87 ) ) ;
#198 = MANIFOLD_SOLID_BREP ( 'Revolve - Cutting Edge', #261 ) ;
#199 = EDGE_LOOP ( 'NONE', ( #254, #21 ) ) ;
#200 = AXIS2_PLACEMENT_3D ( 'NONE', #289, #156, #154 ) ;
#201 = AXIS2_PLACEMENT_3D ( 'NONE', #348, #34, #1 ) ;
#202 = PRESENTATION_STYLE_ASSIGNMENT (( #168 ) ) ;
#203 = SHAPE_DEFINITION_REPRESENTATION ( #223, #136 ) ;
#204 = PRESENTATION_STYLE_ASSIGNMENT (( #26 ) ) ;
#205 = EDGE_LOOP ( 'NONE', ( #276, #185, #350, #256 ) ) ;
#206 = COLOUR_RGB ( '',1.000000000000000000, 0.000000000000000000, 0.000000000000000000 ) ;
#207 = AXIS2_PLACEMENT_3D ( 'NONE', #130, #325, #243 ) ;
#208 = DIRECTION ( 'NONE',  ( -1.000000000000000000, 0.000000000000000000, 0.000000000000000000 ) ) ;
#209 = DIRECTION ( 'NONE',  ( -1.000000000000000000, -1.208874916035850209E-16, 0.000000000000000000 ) ) ;
#210 = COLOUR_RGB ( '',1.000000000000000000, 0.000000000000000000, 0.000000000000000000 ) ;
#211 = UNCERTAINTY_MEASURE_WITH_UNIT (LENGTH_MEASURE( 1.000000000000000082E-05 ), #250, 'distance_accuracy_value', 'NONE');
#212 = SURFACE_SIDE_STYLE ('',( #177 ) ) ;
#213 =( NAMED_UNIT ( * ) PLANE_ANGLE_UNIT ( ) SI_UNIT ( $, .RADIAN. ) );
#214 = FILL_AREA_STYLE ('',( #328 ) ) ;
#215 = ADVANCED_FACE ( 'NONE', ( #127 ), #267, .T. ) ;
#216 =( GEOMETRIC_REPRESENTATION_CONTEXT ( 3 ) GLOBAL_UNCERTAINTY_ASSIGNED_CONTEXT ( ( #211 ) ) GLOBAL_UNIT_ASSIGNED_CONTEXT ( ( #250, #213, #228 ) ) REPRESENTATION_CONTEXT ( 'NONE', 'WORKASPACE' ) );
#217 = CARTESIAN_POINT ( 'NONE',  ( 0.000000000000000000, 1.000000000000000000, -6.000000000000000000 ) ) ;
#218 = DIRECTION ( 'NONE',  ( 0.000000000000000000, 0.000000000000000000, 1.000000000000000000 ) ) ;
#219 = EDGE_CURVE ( 'NONE', #144, #233, #164, .T. ) ;
#220 = PLANE ( 'NONE',  #72 ) ;
#221 = FILL_AREA_STYLE_COLOUR ( '', #182 ) ;
#222 = DIRECTION ( 'NONE',  ( 1.000000000000000000, 1.208874916035850209E-16, 0.000000000000000000 ) ) ;
#223 = PRODUCT_DEFINITION_SHAPE ( 'NONE', 'NONE',  #24 ) ;
#224 = AXIS2_PLACEMENT_3D ( 'NONE', #74, #43, #274 ) ;
#225 = SURFACE_SIDE_STYLE ('',( #146 ) ) ;
#226 = AXIS2_PLACEMENT_3D ( 'NONE', #314, #31, #84 ) ;
#227 = COLOUR_RGB ( '',0.7921568627450980005, 0.8196078431372548767, 0.9333333333333333481 ) ;
#228 =( NAMED_UNIT ( * ) SI_UNIT ( $, .STERADIAN. ) SOLID_ANGLE_UNIT ( ) );
#229 = APPLICATION_PROTOCOL_DEFINITION ( 'draft international standard', 'automotive_design', 1998, #91 ) ;
#230 = ORIENTED_EDGE ( 'NONE', *, *, #365, .F. ) ;
#231 = PRESENTATION_LAYER_ASSIGNMENT (  '', '', ( #332 ) ) ;
#232 = TOROIDAL_SURFACE ( 'NONE', #324, 5.000000000000000000, 0.9999999999999995559 ) ;
#233 = VERTEX_POINT ( 'NONE', #217 ) ;
#234 = DIRECTION ( 'NONE',  ( -1.000000000000000000, 0.000000000000000000, 0.000000000000000000 ) ) ;
#235 = EDGE_LOOP ( 'NONE', ( #335, #111, #264, #109 ) ) ;
#236 = SURFACE_STYLE_USAGE ( .BOTH. , #239 ) ;
#237 = UNCERTAINTY_MEASURE_WITH_UNIT (LENGTH_MEASURE( 1.000000000000000082E-05 ), #112, 'distance_accuracy_value', 'NONE');
#238 = PRESENTATION_STYLE_ASSIGNMENT (( #236 ) ) ;
#239 = SURFACE_SIDE_STYLE ('',( #33 ) ) ;
#240 = DIRECTION ( 'NONE',  ( 0.000000000000000000, 0.000000000000000000, -1.000000000000000000 ) ) ;
#241 = PRESENTATION_LAYER_ASSIGNMENT (  '', '', ( #54 ) ) ;
#242 =( GEOMETRIC_REPRESENTATION_CONTEXT ( 3 ) GLOBAL_UNCERTAINTY_ASSIGNED_CONTEXT ( ( #181 ) ) GLOBAL_UNIT_ASSIGNED_CONTEXT ( ( #172, #260, #149 ) ) REPRESENTATION_CONTEXT ( 'NONE', 'WORKASPACE' ) );
#243 = DIRECTION ( 'NONE',  ( -1.224646799147352468E-16, 0.000000000000000000, -1.000000000000000000 ) ) ;
#244 = EDGE_CURVE ( 'NONE', #318, #25, #333, .T. ) ;
#245 = PLANE ( 'NONE',  #113 ) ;
#246 = EDGE_CURVE ( 'NONE', #183, #312, #47, .T. ) ;
#247 = MECHANICAL_DESIGN_GEOMETRIC_PRESENTATION_REPRESENTATION (  '', ( #193 ), #242 ) ;
#248 = CARTESIAN_POINT ( 'NONE',  ( -6.000000000000003553, 75.00000000000000000, 0.000000000000000000 ) ) ;
#249 = DIRECTION ( 'NONE',  ( -0.000000000000000000, -1.000000000000000000, -0.000000000000000000 ) ) ;
#250 =( LENGTH_UNIT ( ) NAMED_UNIT ( * ) SI_UNIT ( .MILLI., .METRE. ) );
#251 = PRESENTATION_LAYER_ASSIGNMENT (  '', '', ( #193 ) ) ;
#252 = ORIENTED_EDGE ( 'NONE', *, *, #363, .F. ) ;
#253 = DIRECTION ( 'NONE',  ( 0.000000000000000000, 0.000000000000000000, -1.000000000000000000 ) ) ;
#254 = ORIENTED_EDGE ( 'NONE', *, *, #353, .F. ) ;
#255 = LINE ( 'NONE', #303, #133 ) ;
#256 = ORIENTED_EDGE ( 'NONE', *, *, #301, .F. ) ;
#257 = APPLICATION_CONTEXT ( 'automotive_design' ) ;
#258 = EDGE_CURVE ( 'NONE', #291, #25, #362, .T. ) ;
#259 = ORIENTED_EDGE ( 'NONE', *, *, #244, .T. ) ;
#260 =( NAMED_UNIT ( * ) PLANE_ANGLE_UNIT ( ) SI_UNIT ( $, .RADIAN. ) );
#261 = CLOSED_SHELL ( 'NONE', ( #56, #51, #215, #7, #48, #17 ) ) ;
#262 = AXIS2_PLACEMENT_3D ( 'NONE', #63, #313, #240 ) ;
#263 = FILL_AREA_STYLE_COLOUR ( '', #166 ) ;
#264 = ORIENTED_EDGE ( 'NONE', *, *, #219, .T. ) ;
#265 =( NAMED_UNIT ( * ) PLANE_ANGLE_UNIT ( ) SI_UNIT ( $, .RADIAN. ) );
#266 = UNCERTAINTY_MEASURE_WITH_UNIT (LENGTH_MEASURE( 1.000000000000000082E-05 ), #165, 'distance_accuracy_value', 'NONE');
#267 = PLANE ( 'NONE',  #280 ) ;
#268 = AXIS2_PLACEMENT_3D ( 'NONE', #3, #110, #209 ) ;
#269 = CARTESIAN_POINT ( 'NONE',  ( 0.000000000000000000, 0.000000000000000000, -6.000000000000000000 ) ) ;
#270 = CARTESIAN_POINT ( 'NONE',  ( 5.999999999999996447, 75.00000000000000000, 7.347880794884117764E-16 ) ) ;
#271 = PRODUCT_CONTEXT ( 'NONE', #91, 'mechanical' ) ;
#272 = DIRECTION ( 'NONE',  ( -0.000000000000000000, -1.000000000000000000, -0.000000000000000000 ) ) ;
#273 = APPLICATION_PROTOCOL_DEFINITION ( 'draft international standard', 'automotive_design', 1998, #257 ) ;
#274 = DIRECTION ( 'NONE',  ( 0.000000000000000000, 0.000000000000000000, -1.000000000000000000 ) ) ;
#275 = PRESENTATION_LAYER_ASSIGNMENT (  '', '', ( #19 ) ) ;
#276 = ORIENTED_EDGE ( 'NONE', *, *, #359, .T. ) ;
#277 = PRESENTATION_LAYER_ASSIGNMENT (  '', '', ( #66 ) ) ;
#278 = FILL_AREA_STYLE ('',( #196 ) ) ;
#279 = DIRECTION ( 'NONE',  ( 0.000000000000000000, -0.000000000000000000, 1.000000000000000000 ) ) ;
#280 = AXIS2_PLACEMENT_3D ( 'NONE', #10, #188, #294 ) ;
#281 = CARTESIAN_POINT ( 'NONE',  ( 6.000000000000000000, 18.00000000000000355, 7.347880794884119736E-16 ) ) ;
#282 = DIRECTION ( 'NONE',  ( 0.000000000000000000, 0.000000000000000000, -1.000000000000000000 ) ) ;
#283 = MECHANICAL_DESIGN_GEOMETRIC_PRESENTATION_REPRESENTATION (  '', ( #19 ), #62 ) ;
#284 = MECHANICAL_DESIGN_GEOMETRIC_PRESENTATION_REPRESENTATION (  '', ( #174 ), #180 ) ;
#285 = PRESENTATION_STYLE_ASSIGNMENT (( #311 ) ) ;
#286 = ORIENTED_EDGE ( 'NONE', *, *, #186, .F. ) ;
#287 =( NAMED_UNIT ( * ) SI_UNIT ( $, .STERADIAN. ) SOLID_ANGLE_UNIT ( ) );
#288 = EDGE_CURVE ( 'NONE', #291, #233, #81, .T. ) ;
#289 = CARTESIAN_POINT ( 'NONE',  ( 5.421010862427522170E-15, 18.00000000000000355, 0.000000000000000000 ) ) ;
#290 = UNCERTAINTY_MEASURE_WITH_UNIT (LENGTH_MEASURE( 1.000000000000000082E-05 ), #23, 'distance_accuracy_value', 'NONE');
#291 = VERTEX_POINT ( 'NONE', #134 ) ;
#292 = SURFACE_STYLE_USAGE ( .BOTH. , #212 ) ;
#293 = SURFACE_STYLE_USAGE ( .BOTH. , #323 ) ;
#294 = DIRECTION ( 'NONE',  ( 0.000000000000000000, 0.000000000000000000, -1.000000000000000000 ) ) ;
#295 = CARTESIAN_POINT ( 'NONE',  ( 0.000000000000000000, 1.000000000000000000, 0.000000000000000000 ) ) ;
#296 =( NAMED_UNIT ( * ) SI_UNIT ( $, .STERADIAN. ) SOLID_ANGLE_UNIT ( ) );
#297 = FACE_OUTER_BOUND ( 'NONE', #199, .T. ) ;
#298 = DIRECTION ( 'NONE',  ( -1.208874916035850209E-16, 1.000000000000000000, -0.000000000000000000 ) ) ;
#299 = SURFACE_STYLE_USAGE ( .BOTH. , #71 ) ;
#300 = DIRECTION ( 'NONE',  ( -1.208874916035850209E-16, 1.000000000000000000, -0.000000000000000000 ) ) ;
#301 = EDGE_CURVE ( 'NONE', #233, #318, #178, .T. ) ;
#302 = PRODUCT_DEFINITION_FORMATION_WITH_SPECIFIED_SOURCE ( 'ANY', '', #131, .NOT_KNOWN. ) ;
#303 = CARTESIAN_POINT ( 'NONE',  ( 7.347880794884119736E-16, 0.000000000000000000, 6.000000000000000000 ) ) ;
#304 = ADVANCED_FACE ( 'NONE', ( #327 ), #70, .T. ) ;
#305 = PLANE ( 'NONE',  #268 ) ;
#306 = SURFACE_SIDE_STYLE ('',( #158 ) ) ;
#307 = ORIENTED_EDGE ( 'NONE', *, *, #219, .F. ) ;
#308 = AXIS2_PLACEMENT_3D ( 'NONE', #194, #75, #14 ) ;
#309 = ORIENTED_EDGE ( 'NONE', *, *, #186, .T. ) ;
#310 = SURFACE_SIDE_STYLE ('',( #44 ) ) ;
#311 = SURFACE_STYLE_USAGE ( .BOTH. , #117 ) ;
#312 = VERTEX_POINT ( 'NONE', #167 ) ;
#313 = DIRECTION ( 'NONE',  ( -0.000000000000000000, -1.000000000000000000, -0.000000000000000000 ) ) ;
#314 = CARTESIAN_POINT ( 'NONE',  ( 0.000000000000000000, 0.000000000000000000, 0.000000000000000000 ) ) ;
#315 = FILL_AREA_STYLE_COLOUR ( '', #210 ) ;
#316 =( NAMED_UNIT ( * ) SI_UNIT ( $, .STERADIAN. ) SOLID_ANGLE_UNIT ( ) );
#317 = ADVANCED_FACE ( 'NONE', ( #137 ), #245, .F. ) ;
#318 = VERTEX_POINT ( 'NONE', #331 ) ;
#319 = DIRECTION ( 'NONE',  ( -1.208874916035850209E-16, 1.000000000000000000, -0.000000000000000000 ) ) ;
#320 = CARTESIAN_POINT ( 'NONE',  ( 0.000000000000000000, 0.000000000000000000, 0.000000000000000000 ) ) ;
#321 = ORIENTED_EDGE ( 'NONE', *, *, #85, .T. ) ;
#322 = EDGE_CURVE ( 'NONE', #120, #144, #342, .T. ) ;
#323 = SURFACE_SIDE_STYLE ('',( #326 ) ) ;
#324 = AXIS2_PLACEMENT_3D ( 'NONE', #151, #27, #152 ) ;
#325 = DIRECTION ( 'NONE',  ( 1.000000000000000000, 0.000000000000000000, -1.224646799147353207E-16 ) ) ;
#326 = SURFACE_STYLE_FILL_AREA ( #214 ) ;
#327 = FACE_OUTER_BOUND ( 'NONE', #88, .T. ) ;
#328 = FILL_AREA_STYLE_COLOUR ( '', #115 ) ;
#329 = CYLINDRICAL_SURFACE ( 'NONE', #201, 6.000000000000000000 ) ;
#330 = AXIS2_PLACEMENT_3D ( 'NONE', #360, #100, #218 ) ;
#331 = CARTESIAN_POINT ( 'NONE',  ( 0.000000000000000000, 0.000000000000000000, -5.000000000000000000 ) ) ;
#332 = STYLED_ITEM ( 'NONE', ( #202 ), #48 ) ;
#333 = CIRCLE ( 'NONE', #308, 5.000000000000000000 ) ;
#334 = EDGE_CURVE ( 'NONE', #140, #46, #169, .T. ) ;
#335 = ORIENTED_EDGE ( 'NONE', *, *, #85, .F. ) ;
#336 = AXIS2_PLACEMENT_3D ( 'NONE', #155, #12, #125 ) ;
#337 = PRESENTATION_LAYER_ASSIGNMENT (  '', '', ( #116 ) ) ;
#338 = ORIENTED_EDGE ( 'NONE', *, *, #365, .T. ) ;
#339 =( NAMED_UNIT ( * ) PLANE_ANGLE_UNIT ( ) SI_UNIT ( $, .RADIAN. ) );
#340 = ORIENTED_EDGE ( 'NONE', *, *, #353, .T. ) ;
#341 =( LENGTH_UNIT ( ) NAMED_UNIT ( * ) SI_UNIT ( .MILLI., .METRE. ) );
#342 = CIRCLE ( 'NONE', #224, 6.000000000000000000 ) ;
#343 =( GEOMETRIC_REPRESENTATION_CONTEXT ( 3 ) GLOBAL_UNCERTAINTY_ASSIGNED_CONTEXT ( ( #266 ) ) GLOBAL_UNIT_ASSIGNED_CONTEXT ( ( #165, #42, #135 ) ) REPRESENTATION_CONTEXT ( 'NONE', 'WORKASPACE' ) );
#344 = COLOUR_RGB ( '',1.000000000000000000, 0.000000000000000000, 0.000000000000000000 ) ;
#345 = FILL_AREA_STYLE_COLOUR ( '', #344 ) ;
#346 = EDGE_LOOP ( 'NONE', ( #9, #59, #124, #22 ) ) ;
#347 = FACE_OUTER_BOUND ( 'NONE', #55, .T. ) ;
#348 = CARTESIAN_POINT ( 'NONE',  ( 0.000000000000000000, 0.000000000000000000, 0.000000000000000000 ) ) ;
#349 = UNCERTAINTY_MEASURE_WITH_UNIT (LENGTH_MEASURE( 1.000000000000000082E-05 ), #92, 'distance_accuracy_value', 'NONE');
#350 = ORIENTED_EDGE ( 'NONE', *, *, #244, .F. ) ;
#351 = DIRECTION ( 'NONE',  ( -0.000000000000000000, -1.000000000000000000, -0.000000000000000000 ) ) ;
#352 = MECHANICAL_DESIGN_GEOMETRIC_PRESENTATION_REPRESENTATION (  '', ( #66 ), #368 ) ;
#353 = EDGE_CURVE ( 'NONE', #144, #120, #94, .T. ) ;
#354 = CARTESIAN_POINT ( 'NONE',  ( -5.999999999999989342, 18.00000000000000355, 0.000000000000000000 ) ) ;
#355 = ORIENTED_EDGE ( 'NONE', *, *, #363, .T. ) ;
#356 = CYLINDRICAL_SURFACE ( 'NONE', #11, 5.999999999999998224 ) ;
#357 = CIRCLE ( 'NONE', #28, 6.000000000000001776 ) ;
#358 = COLOUR_RGB ( '',1.000000000000000000, 0.000000000000000000, 0.000000000000000000 ) ;
#359 = EDGE_CURVE ( 'NONE', #233, #291, #18, .T. ) ;
#360 = CARTESIAN_POINT ( 'NONE',  ( 0.000000000000000000, 1.000000000000000000, -5.000000000000000000 ) ) ;
#361 = CARTESIAN_POINT ( 'NONE',  ( 6.000000000000000000, 75.00000000000000000, 0.000000000000000000 ) ) ;
#362 = CIRCLE ( 'NONE', #207, 1.000000000000000000 ) ;
#363 = EDGE_CURVE ( 'NONE', #140, #183, #4, .T. ) ;
#364 = ORIENTED_EDGE ( 'NONE', *, *, #359, .F. ) ;
#365 = EDGE_CURVE ( 'NONE', #46, #312, #357, .T. ) ;
#366 = DIRECTION ( 'NONE',  ( 0.000000000000000000, 0.000000000000000000, -1.000000000000000000 ) ) ;
#367 = FACE_OUTER_BOUND ( 'NONE', #45, .T. ) ;
#368 =( GEOMETRIC_REPRESENTATION_CONTEXT ( 3 ) GLOBAL_UNCERTAINTY_ASSIGNED_CONTEXT ( ( #119 ) ) GLOBAL_UNIT_ASSIGNED_CONTEXT ( ( #6, #184, #287 ) ) REPRESENTATION_CONTEXT ( 'NONE', 'WORKASPACE' ) );
#369 = EDGE_LOOP ( 'NONE', ( #340, #321, #364, #307 ) ) ;
#370 = CARTESIAN_POINT ( 'NONE',  ( 0.000000000000000000, 1.000000000000000000, 0.000000000000000000 ) ) ;
ENDSEC;
END-ISO-10303-21;
