ISO-10303-21;
HEADER;
FILE_DESCRIPTION (( 'STEP AP214' ),
    '1' );
FILE_NAME ('06480.STEP',
    '2023-07-05T16:03:31',
    ( '' ),
    ( '' ),
    'SwSTEP 2.0',
    'SolidWorks 2023',
    '' );
FILE_SCHEMA (( 'AUTOMOTIVE_DESIGN' ));
ENDSEC;

DATA;
#1 = ADVANCED_FACE ( 'NONE', ( #124 ), #74, .T. ) ;
#2 = FACE_OUTER_BOUND ( 'NONE', #59, .T. ) ;
#3 = DIRECTION ( 'NONE',  ( -1.000000000000000000, 0.000000000000000000, 0.000000000000000000 ) ) ;
#4 = AXIS2_PLACEMENT_3D ( 'NONE', #179, #69, #158 ) ;
#5 = ADVANCED_FACE ( 'NONE', ( #122 ), #264, .T. ) ;
#6 =( NAMED_UNIT ( * ) SI_UNIT ( $, .STERADIAN. ) SOLID_ANGLE_UNIT ( ) );
#7 = SURFACE_STYLE_FILL_AREA ( #129 ) ;
#8 =( NAMED_UNIT ( * ) PLANE_ANGLE_UNIT ( ) SI_UNIT ( $, .RADIAN. ) );
#9 = AXIS2_PLACEMENT_3D ( 'NONE', #233, #32, #112 ) ;
#10 = EDGE_CURVE ( 'NONE', #36, #265, #50, .T. ) ;
#11 = PLANE ( 'NONE',  #40 ) ;
#12 = DIMENSIONAL_EXPONENTS ( 1.000000000000000000, 0.000000000000000000, 0.000000000000000000, 0.000000000000000000, 0.000000000000000000, 0.000000000000000000, 0.000000000000000000 ) ;
#13 = CLOSED_SHELL ( 'NONE', ( #147, #51, #5 ) ) ;
#14 = DIMENSIONAL_EXPONENTS ( 1.000000000000000000, 0.000000000000000000, 0.000000000000000000, 0.000000000000000000, 0.000000000000000000, 0.000000000000000000, 0.000000000000000000 ) ;
#15 = MANIFOLD_SOLID_BREP ( 'Revolve - Tool Body (Pointed)', #89 ) ;
#16 = VERTEX_POINT ( 'NONE', #171 ) ;
#17 = EDGE_CURVE ( 'NONE', #16, #36, #148, .T. ) ;
#18 = VERTEX_POINT ( 'NONE', #67 ) ;
#19 = AXIS2_PLACEMENT_3D ( 'NONE', #183, #22, #105 ) ;
#20 =( NAMED_UNIT ( * ) SI_UNIT ( $, .STERADIAN. ) SOLID_ANGLE_UNIT ( ) );
#21 = ORIENTED_EDGE ( 'NONE', *, *, #88, .F. ) ;
#22 = DIRECTION ( 'NONE',  ( 0.000000000000000000, 0.000000000000000000, 1.000000000000000000 ) ) ;
#23 = FILL_AREA_STYLE ('',( #242 ) ) ;
#24 = CIRCLE ( 'NONE', #111, 0.09374999999999987510 ) ;
#25 = CARTESIAN_POINT ( 'NONE',  ( 3.884346365991374479E-16, 0.05412658773652723881, 0.000000000000000000 ) ) ;
#26 = VECTOR ( 'NONE', #52, 39.37007874015748854 ) ;
#27 = SURFACE_SIDE_STYLE ('',( #216 ) ) ;
#28 = EDGE_CURVE ( 'NONE', #166, #16, #199, .T. ) ;
#29 = DIRECTION ( 'NONE',  ( 1.060575238724908024E-16, 0.4999999999999979461, -0.8660254037844397068 ) ) ;
#30 = CONICAL_SURFACE ( 'NONE', #9, 68.19097667594041923, 1.047197551196600074 ) ;
#31 =( NAMED_UNIT ( * ) SI_UNIT ( $, .STERADIAN. ) SOLID_ANGLE_UNIT ( ) );
#32 = DIRECTION ( 'NONE',  ( 0.000000000000000000, 1.000000000000000000, 0.000000000000000000 ) ) ;
#33 = FACE_OUTER_BOUND ( 'NONE', #116, .T. ) ;
#34 = AXIS2_PLACEMENT_3D ( 'NONE', #97, #203, #93 ) ;
#35 = PRODUCT_CONTEXT ( 'NONE', #82, 'mechanical' ) ;
#36 = VERTEX_POINT ( 'NONE', #210 ) ;
#37 = FACE_OUTER_BOUND ( 'NONE', #53, .T. ) ;
#38 = PRESENTATION_STYLE_ASSIGNMENT (( #119 ) ) ;
#39 = DIRECTION ( 'NONE',  ( -1.000000000000000000, 0.000000000000000000, 0.000000000000000000 ) ) ;
#40 = AXIS2_PLACEMENT_3D ( 'NONE', #49, #131, #252 ) ;
#41 =( NAMED_UNIT ( * ) SI_UNIT ( $, .STERADIAN. ) SOLID_ANGLE_UNIT ( ) );
#42 = ORIENTED_EDGE ( 'NONE', *, *, #236, .F. ) ;
#43 = EDGE_LOOP ( 'NONE', ( #190, #142 ) ) ;
#44 = SURFACE_STYLE_FILL_AREA ( #227 ) ;
#45 = DIRECTION ( 'NONE',  ( -1.366841003161769405E-16, 1.000000000000000000, -0.000000000000000000 ) ) ;
#46 = VECTOR ( 'NONE', #72, 39.37007874015748143 ) ;
#47 =( LENGTH_UNIT ( ) NAMED_UNIT ( * ) SI_UNIT ( $, .METRE. ) );
#48 = LINE ( 'NONE', #213, #26 ) ;
#49 = CARTESIAN_POINT ( 'NONE',  ( 0.09374999999999998612, 2.000000000000000000, 0.000000000000000000 ) ) ;
#50 = CIRCLE ( 'NONE', #177, 0.09374999999999987510 ) ;
#51 = ADVANCED_FACE ( 'NONE', ( #2 ), #244, .T. ) ;
#52 = DIRECTION ( 'NONE',  ( 0.000000000000000000, 0.4999999999999979461, 0.8660254037844397068 ) ) ;
#53 = EDGE_LOOP ( 'NONE', ( #78, #239, #81, #192 ) ) ;
#54 =( NAMED_UNIT ( * ) PLANE_ANGLE_UNIT ( ) SI_UNIT ( $, .RADIAN. ) );
#55 = EDGE_CURVE ( 'NONE', #18, #106, #176, .T. ) ;
#56 = UNCERTAINTY_MEASURE_WITH_UNIT (LENGTH_MEASURE( 1.000000000000000082E-05 ), #125, 'distance_accuracy_value', 'NONE');
#57 = CARTESIAN_POINT ( 'NONE',  ( -0.09374999999999975020, 2.000000000000000000, 0.000000000000000000 ) ) ;
#58 = ORIENTED_EDGE ( 'NONE', *, *, #178, .F. ) ;
#59 = EDGE_LOOP ( 'NONE', ( #42, #223 ) ) ;
#60 = PRESENTATION_LAYER_ASSIGNMENT (  '', '', ( #185 ) ) ;
#61 = UNCERTAINTY_MEASURE_WITH_UNIT (LENGTH_MEASURE( 1.000000000000000082E-05 ), #121, 'distance_accuracy_value', 'NONE');
#62 = SURFACE_SIDE_STYLE ('',( #257 ) ) ;
#63 = FILL_AREA_STYLE_COLOUR ( '', #250 ) ;
#64 =( GEOMETRIC_REPRESENTATION_CONTEXT ( 3 ) GLOBAL_UNCERTAINTY_ASSIGNED_CONTEXT ( ( #167 ) ) GLOBAL_UNIT_ASSIGNED_CONTEXT ( ( #225, #123, #41 ) ) REPRESENTATION_CONTEXT ( 'NONE', 'WORKASPACE' ) );
#65 =( GEOMETRIC_REPRESENTATION_CONTEXT ( 3 ) GLOBAL_UNCERTAINTY_ASSIGNED_CONTEXT ( ( #61 ) ) GLOBAL_UNIT_ASSIGNED_CONTEXT ( ( #121, #54, #20 ) ) REPRESENTATION_CONTEXT ( 'NONE', 'WORKASPACE' ) );
#66 =( LENGTH_UNIT ( ) NAMED_UNIT ( * ) SI_UNIT ( $, .METRE. ) );
#67 = CARTESIAN_POINT ( 'NONE',  ( 0.000000000000000000, 0.000000000000000000, 0.000000000000000000 ) ) ;
#68 = LENGTH_MEASURE_WITH_UNIT ( LENGTH_MEASURE( 0.02539999999999999897 ), #47 );
#69 = DIRECTION ( 'NONE',  ( -1.366841003161769405E-16, 1.000000000000000000, 0.000000000000000000 ) ) ;
#70 = CARTESIAN_POINT ( 'NONE',  ( 0.000000000000000000, 0.05412658773652713473, 0.09375000000000001388 ) ) ;
#71 = STYLED_ITEM ( 'NONE', ( #253 ), #147 ) ;
#72 = DIRECTION ( 'NONE',  ( -1.366841003161769405E-16, 1.000000000000000000, -0.000000000000000000 ) ) ;
#73 = DIRECTION ( 'NONE',  ( -1.366841003161769405E-16, 1.000000000000000000, -0.000000000000000000 ) ) ;
#74 = CYLINDRICAL_SURFACE ( 'NONE', #229, 0.09374999999999973632 ) ;
#75 = CIRCLE ( 'NONE', #180, 0.09375000000000001388 ) ;
#76 = AXIS2_PLACEMENT_3D ( 'NONE', #222, #80, #241 ) ;
#77 = APPLICATION_PROTOCOL_DEFINITION ( 'draft international standard', 'automotive_design', 1998, #155 ) ;
#78 = ORIENTED_EDGE ( 'NONE', *, *, #17, .F. ) ;
#79 = PRODUCT_DEFINITION_CONTEXT ( 'detailed design', #155, 'design' ) ;
#80 = DIRECTION ( 'NONE',  ( -1.366841003161769405E-16, 1.000000000000000000, -0.000000000000000000 ) ) ;
#81 = ORIENTED_EDGE ( 'NONE', *, *, #88, .T. ) ;
#82 = APPLICATION_CONTEXT ( 'automotive_design' ) ;
#83 = SURFACE_SIDE_STYLE ('',( #263 ) ) ;
#84 =( GEOMETRIC_REPRESENTATION_CONTEXT ( 3 ) GLOBAL_UNCERTAINTY_ASSIGNED_CONTEXT ( ( #187 ) ) GLOBAL_UNIT_ASSIGNED_CONTEXT ( ( #152, #153, #31 ) ) REPRESENTATION_CONTEXT ( 'NONE', 'WORKASPACE' ) );
#85 = ORIENTED_EDGE ( 'NONE', *, *, #28, .F. ) ;
#86 = PRODUCT_DEFINITION_SHAPE ( 'NONE', 'NONE',  #256 ) ;
#87 = DIRECTION ( 'NONE',  ( 0.000000000000000000, 0.000000000000000000, 1.000000000000000000 ) ) ;
#88 = EDGE_CURVE ( 'NONE', #166, #265, #251, .T. ) ;
#89 = CLOSED_SHELL ( 'NONE', ( #1, #132, #245, #96 ) ) ;
#90 =( GEOMETRIC_REPRESENTATION_CONTEXT ( 3 ) GLOBAL_UNCERTAINTY_ASSIGNED_CONTEXT ( ( #163 ) ) GLOBAL_UNIT_ASSIGNED_CONTEXT ( ( #211, #195, #6 ) ) REPRESENTATION_CONTEXT ( 'NONE', 'WORKASPACE' ) );
#91 = SURFACE_SIDE_STYLE ('',( #44 ) ) ;
#92 = MECHANICAL_DESIGN_GEOMETRIC_PRESENTATION_REPRESENTATION (  '', ( #185 ), #64 ) ;
#93 = DIRECTION ( 'NONE',  ( 0.000000000000000000, -0.000000000000000000, 1.000000000000000000 ) ) ;
#94 = ADVANCED_BREP_SHAPE_REPRESENTATION ( '06480', ( #204, #15, #19 ), #65 ) ;
#95 =( CONVERSION_BASED_UNIT ( 'INCH', #173 ) LENGTH_UNIT ( ) NAMED_UNIT ( #234 ) );
#96 = ADVANCED_FACE ( 'NONE', ( #217 ), #11, .F. ) ;
#97 = CARTESIAN_POINT ( 'NONE',  ( 0.000000000000000000, 0.05412658773652713473, 0.000000000000000000 ) ) ;
#98 = MECHANICAL_DESIGN_GEOMETRIC_PRESENTATION_REPRESENTATION (  '', ( #120 ), #157 ) ;
#99 = DIRECTION ( 'NONE',  ( -0.000000000000000000, -1.000000000000000000, -0.000000000000000000 ) ) ;
#100 = PRODUCT_DEFINITION_FORMATION_WITH_SPECIFIED_SOURCE ( 'ANY', '', #174, .NOT_KNOWN. ) ;
#101 = DIRECTION ( 'NONE',  ( -1.000000000000000000, -1.821231995776183368E-16, 0.000000000000000000 ) ) ;
#102 = VERTEX_POINT ( 'NONE', #70 ) ;
#103 = ORIENTED_EDGE ( 'NONE', *, *, #55, .T. ) ;
#104 = COLOUR_RGB ( '',1.000000000000000000, 0.000000000000000000, 0.000000000000000000 ) ;
#105 = DIRECTION ( 'NONE',  ( 1.000000000000000000, 0.000000000000000000, 0.000000000000000000 ) ) ;
#106 = VERTEX_POINT ( 'NONE', #230 ) ;
#107 = MECHANICAL_DESIGN_GEOMETRIC_PRESENTATION_REPRESENTATION (  '', ( #130 ), #172 ) ;
#108 = PRESENTATION_LAYER_ASSIGNMENT (  '', '', ( #71 ) ) ;
#109 = MECHANICAL_DESIGN_GEOMETRIC_PRESENTATION_REPRESENTATION (  '', ( #206 ), #90 ) ;
#110 = CARTESIAN_POINT ( 'NONE',  ( 1.224646799147353700E-16, 2.000000000000000000, 0.000000000000000000 ) ) ;
#111 = AXIS2_PLACEMENT_3D ( 'NONE', #238, #143, #168 ) ;
#112 = DIRECTION ( 'NONE',  ( 0.000000000000000000, 0.000000000000000000, 1.000000000000000000 ) ) ;
#113 = COLOUR_RGB ( '',1.000000000000000000, 0.000000000000000000, 0.000000000000000000 ) ;
#114 = AXIS2_PLACEMENT_3D ( 'NONE', #161, #115, #182 ) ;
#115 = DIRECTION ( 'NONE',  ( -0.000000000000000000, -1.000000000000000000, -0.000000000000000000 ) ) ;
#116 = EDGE_LOOP ( 'NONE', ( #85, #145 ) ) ;
#117 = FILL_AREA_STYLE ('',( #118 ) ) ;
#118 = FILL_AREA_STYLE_COLOUR ( '', #169 ) ;
#119 = SURFACE_STYLE_USAGE ( .BOTH. , #83 ) ;
#120 = STYLED_ITEM ( 'NONE', ( #247 ), #51 ) ;
#121 =( CONVERSION_BASED_UNIT ( 'INCH', #205 ) LENGTH_UNIT ( ) NAMED_UNIT ( #156 ) );
#122 = FACE_OUTER_BOUND ( 'NONE', #224, .T. ) ;
#123 =( NAMED_UNIT ( * ) PLANE_ANGLE_UNIT ( ) SI_UNIT ( $, .RADIAN. ) );
#124 = FACE_OUTER_BOUND ( 'NONE', #189, .T. ) ;
#125 =( CONVERSION_BASED_UNIT ( 'INCH', #243 ) LENGTH_UNIT ( ) NAMED_UNIT ( #14 ) );
#126 = VECTOR ( 'NONE', #45, 39.37007874015748143 ) ;
#127 = SURFACE_STYLE_USAGE ( .BOTH. , #91 ) ;
#128 =( LENGTH_UNIT ( ) NAMED_UNIT ( * ) SI_UNIT ( $, .METRE. ) );
#129 = FILL_AREA_STYLE ('',( #149 ) ) ;
#130 = STYLED_ITEM ( 'NONE', ( #249 ), #15 ) ;
#131 = DIRECTION ( 'NONE',  ( 1.366841003161769405E-16, -1.000000000000000000, 0.000000000000000000 ) ) ;
#132 = ADVANCED_FACE ( 'NONE', ( #33 ), #159, .F. ) ;
#133 = MECHANICAL_DESIGN_GEOMETRIC_PRESENTATION_REPRESENTATION (  '', ( #71 ), #84 ) ;
#134 = AXIS2_PLACEMENT_3D ( 'NONE', #220, #73, #101 ) ;
#135 = FILL_AREA_STYLE_COLOUR ( '', #104 ) ;
#136 = DIMENSIONAL_EXPONENTS ( 1.000000000000000000, 0.000000000000000000, 0.000000000000000000, 0.000000000000000000, 0.000000000000000000, 0.000000000000000000, 0.000000000000000000 ) ;
#137 = FILL_AREA_STYLE ('',( #135 ) ) ;
#138 = CARTESIAN_POINT ( 'NONE',  ( -0.09374999999999961142, 2.000000000000000000, 0.000000000000000000 ) ) ;
#139 = CIRCLE ( 'NONE', #114, 0.09375000000000001388 ) ;
#140 = ORIENTED_EDGE ( 'NONE', *, *, #17, .T. ) ;
#141 =( LENGTH_UNIT ( ) NAMED_UNIT ( * ) SI_UNIT ( $, .METRE. ) );
#142 = ORIENTED_EDGE ( 'NONE', *, *, #10, .T. ) ;
#143 = DIRECTION ( 'NONE',  ( -1.366841003161769405E-16, 1.000000000000000000, -0.000000000000000000 ) ) ;
#144 = PRESENTATION_LAYER_ASSIGNMENT (  '', '', ( #206 ) ) ;
#145 = ORIENTED_EDGE ( 'NONE', *, *, #232, .F. ) ;
#146 =( NAMED_UNIT ( * ) SI_UNIT ( $, .STERADIAN. ) SOLID_ANGLE_UNIT ( ) );
#147 = ADVANCED_FACE ( 'NONE', ( #154 ), #30, .T. ) ;
#148 = LINE ( 'NONE', #226, #126 ) ;
#149 = FILL_AREA_STYLE_COLOUR ( '', #202 ) ;
#150 = LENGTH_MEASURE_WITH_UNIT ( LENGTH_MEASURE( 0.02539999999999999897 ), #66 );
#151 = PRESENTATION_LAYER_ASSIGNMENT (  '', '', ( #130 ) ) ;
#152 =( CONVERSION_BASED_UNIT ( 'INCH', #68 ) LENGTH_UNIT ( ) NAMED_UNIT ( #136 ) );
#153 =( NAMED_UNIT ( * ) PLANE_ANGLE_UNIT ( ) SI_UNIT ( $, .RADIAN. ) );
#154 = FACE_OUTER_BOUND ( 'NONE', #258, .T. ) ;
#155 = APPLICATION_CONTEXT ( 'automotive_design' ) ;
#156 = DIMENSIONAL_EXPONENTS ( 1.000000000000000000, 0.000000000000000000, 0.000000000000000000, 0.000000000000000000, 0.000000000000000000, 0.000000000000000000, 0.000000000000000000 ) ;
#157 =( GEOMETRIC_REPRESENTATION_CONTEXT ( 3 ) GLOBAL_UNCERTAINTY_ASSIGNED_CONTEXT ( ( #191 ) ) GLOBAL_UNIT_ASSIGNED_CONTEXT ( ( #95, #8, #181 ) ) REPRESENTATION_CONTEXT ( 'NONE', 'WORKASPACE' ) );
#158 = DIRECTION ( 'NONE',  ( -1.000000000000000000, -1.366841003161769405E-16, 0.000000000000000000 ) ) ;
#159 = PLANE ( 'NONE',  #4 ) ;
#160 = VECTOR ( 'NONE', #29, 39.37007874015748854 ) ;
#161 = CARTESIAN_POINT ( 'NONE',  ( 0.000000000000000000, 0.05412658773652713473, 0.000000000000000000 ) ) ;
#162 = CARTESIAN_POINT ( 'NONE',  ( 0.000000000000000000, 39.37007874015748143, 0.000000000000000000 ) ) ;
#163 = UNCERTAINTY_MEASURE_WITH_UNIT (LENGTH_MEASURE( 1.000000000000000082E-05 ), #211, 'distance_accuracy_value', 'NONE');
#164 = SHAPE_DEFINITION_REPRESENTATION ( #86, #94 ) ;
#165 = DIRECTION ( 'NONE',  ( -1.366841003161769405E-16, 1.000000000000000000, -0.000000000000000000 ) ) ;
#166 = VERTEX_POINT ( 'NONE', #198 ) ;
#167 = UNCERTAINTY_MEASURE_WITH_UNIT (LENGTH_MEASURE( 1.000000000000000082E-05 ), #225, 'distance_accuracy_value', 'NONE');
#168 = DIRECTION ( 'NONE',  ( -1.000000000000000000, 0.000000000000000000, 0.000000000000000000 ) ) ;
#169 = COLOUR_RGB ( '',0.7921568627450980005, 0.8196078431372548767, 0.9333333333333333481 ) ;
#170 =( LENGTH_UNIT ( ) NAMED_UNIT ( * ) SI_UNIT ( $, .METRE. ) );
#171 = CARTESIAN_POINT ( 'NONE',  ( 0.09374999999999998612, 0.05412658773652725963, 1.148106374200641089E-17 ) ) ;
#172 =( GEOMETRIC_REPRESENTATION_CONTEXT ( 3 ) GLOBAL_UNCERTAINTY_ASSIGNED_CONTEXT ( ( #56 ) ) GLOBAL_UNIT_ASSIGNED_CONTEXT ( ( #125, #228, #146 ) ) REPRESENTATION_CONTEXT ( 'NONE', 'WORKASPACE' ) );
#173 = LENGTH_MEASURE_WITH_UNIT ( LENGTH_MEASURE( 0.02539999999999999897 ), #128 );
#174 = PRODUCT ( '06480', '06480', '', ( #35 ) ) ;
#175 = SURFACE_STYLE_USAGE ( .BOTH. , #209 ) ;
#176 = LINE ( 'NONE', #235, #160 ) ;
#177 = AXIS2_PLACEMENT_3D ( 'NONE', #110, #196, #3 ) ;
#178 = EDGE_CURVE ( 'NONE', #18, #102, #48, .T. ) ;
#179 = CARTESIAN_POINT ( 'NONE',  ( 3.884346365991374479E-16, 0.05412658773652712779, 0.000000000000000000 ) ) ;
#180 = AXIS2_PLACEMENT_3D ( 'NONE', #201, #99, #254 ) ;
#181 =( NAMED_UNIT ( * ) SI_UNIT ( $, .STERADIAN. ) SOLID_ANGLE_UNIT ( ) );
#182 = DIRECTION ( 'NONE',  ( 0.000000000000000000, 0.000000000000000000, -1.000000000000000000 ) ) ;
#183 = CARTESIAN_POINT ( 'NONE',  ( 0.000000000000000000, 0.000000000000000000, 0.000000000000000000 ) ) ;
#184 = ORIENTED_EDGE ( 'NONE', *, *, #178, .T. ) ;
#185 = STYLED_ITEM ( 'NONE', ( #240 ), #204 ) ;
#186 = ORIENTED_EDGE ( 'NONE', *, *, #236, .T. ) ;
#187 = UNCERTAINTY_MEASURE_WITH_UNIT (LENGTH_MEASURE( 1.000000000000000082E-05 ), #152, 'distance_accuracy_value', 'NONE');
#188 = SURFACE_STYLE_USAGE ( .BOTH. , #62 ) ;
#189 = EDGE_LOOP ( 'NONE', ( #260, #140, #221, #21 ) ) ;
#190 = ORIENTED_EDGE ( 'NONE', *, *, #200, .T. ) ;
#191 = UNCERTAINTY_MEASURE_WITH_UNIT (LENGTH_MEASURE( 1.000000000000000082E-05 ), #95, 'distance_accuracy_value', 'NONE');
#192 = ORIENTED_EDGE ( 'NONE', *, *, #10, .F. ) ;
#193 = DIRECTION ( 'NONE',  ( -1.000000000000000000, -1.821231995776183368E-16, 0.000000000000000000 ) ) ;
#194 = DIRECTION ( 'NONE',  ( 0.000000000000000000, 1.000000000000000000, 0.000000000000000000 ) ) ;
#195 =( NAMED_UNIT ( * ) PLANE_ANGLE_UNIT ( ) SI_UNIT ( $, .RADIAN. ) );
#196 = DIRECTION ( 'NONE',  ( -1.366841003161769405E-16, 1.000000000000000000, -0.000000000000000000 ) ) ;
#197 = EDGE_CURVE ( 'NONE', #106, #102, #75, .T. ) ;
#198 = CARTESIAN_POINT ( 'NONE',  ( -0.09374999999999920897, 0.05412658773652722494, 0.000000000000000000 ) ) ;
#199 = CIRCLE ( 'NONE', #208, 0.09374999999999959754 ) ;
#200 = EDGE_CURVE ( 'NONE', #265, #36, #24, .T. ) ;
#201 = CARTESIAN_POINT ( 'NONE',  ( 0.000000000000000000, 0.05412658773652713473, 0.000000000000000000 ) ) ;
#202 = COLOUR_RGB ( '',0.7921568627450980005, 0.8196078431372548767, 0.9333333333333333481 ) ;
#203 = DIRECTION ( 'NONE',  ( 0.000000000000000000, 1.000000000000000000, 0.000000000000000000 ) ) ;
#204 = MANIFOLD_SOLID_BREP ( 'Revolve - Cutting Edge', #13 ) ;
#205 = LENGTH_MEASURE_WITH_UNIT ( LENGTH_MEASURE( 0.02539999999999999897 ), #141 );
#206 = STYLED_ITEM ( 'NONE', ( #38 ), #5 ) ;
#207 = LENGTH_MEASURE_WITH_UNIT ( LENGTH_MEASURE( 0.02539999999999999897 ), #262 );
#208 = AXIS2_PLACEMENT_3D ( 'NONE', #25, #248, #193 ) ;
#209 = SURFACE_SIDE_STYLE ('',( #7 ) ) ;
#210 = CARTESIAN_POINT ( 'NONE',  ( 0.09374999999999998612, 2.000000000000000000, 1.148106374200641089E-17 ) ) ;
#211 =( CONVERSION_BASED_UNIT ( 'INCH', #150 ) LENGTH_UNIT ( ) NAMED_UNIT ( #215 ) );
#212 = PRODUCT_RELATED_PRODUCT_CATEGORY ( 'part', '', ( #174 ) ) ;
#213 = CARTESIAN_POINT ( 'NONE',  ( 0.000000000000000000, 0.000000000000000000, 0.000000000000000000 ) ) ;
#214 = CIRCLE ( 'NONE', #134, 0.09374999999999959754 ) ;
#215 = DIMENSIONAL_EXPONENTS ( 1.000000000000000000, 0.000000000000000000, 0.000000000000000000, 0.000000000000000000, 0.000000000000000000, 0.000000000000000000, 0.000000000000000000 ) ;
#216 = SURFACE_STYLE_FILL_AREA ( #137 ) ;
#217 = FACE_OUTER_BOUND ( 'NONE', #43, .T. ) ;
#218 = AXIS2_PLACEMENT_3D ( 'NONE', #162, #194, #87 ) ;
#219 = ORIENTED_EDGE ( 'NONE', *, *, #197, .T. ) ;
#220 = CARTESIAN_POINT ( 'NONE',  ( 3.884346365991374479E-16, 0.05412658773652723881, 0.000000000000000000 ) ) ;
#221 = ORIENTED_EDGE ( 'NONE', *, *, #200, .F. ) ;
#222 = CARTESIAN_POINT ( 'NONE',  ( 1.224646799147353700E-16, 2.000000000000000000, 0.000000000000000000 ) ) ;
#223 = ORIENTED_EDGE ( 'NONE', *, *, #197, .F. ) ;
#224 = EDGE_LOOP ( 'NONE', ( #237, #184, #186 ) ) ;
#225 =( CONVERSION_BASED_UNIT ( 'INCH', #207 ) LENGTH_UNIT ( ) NAMED_UNIT ( #12 ) );
#226 = CARTESIAN_POINT ( 'NONE',  ( 0.09374999999999984734, 2.000000000000000000, 1.148106374200640473E-17 ) ) ;
#227 = FILL_AREA_STYLE ('',( #63 ) ) ;
#228 =( NAMED_UNIT ( * ) PLANE_ANGLE_UNIT ( ) SI_UNIT ( $, .RADIAN. ) );
#229 = AXIS2_PLACEMENT_3D ( 'NONE', #261, #165, #39 ) ;
#230 = CARTESIAN_POINT ( 'NONE',  ( 1.148106374200643863E-17, 0.05412658773652713473, -0.09375000000000001388 ) ) ;
#231 = SURFACE_STYLE_USAGE ( .BOTH. , #27 ) ;
#232 = EDGE_CURVE ( 'NONE', #16, #166, #214, .T. ) ;
#233 = CARTESIAN_POINT ( 'NONE',  ( 0.000000000000000000, 39.37007874015748143, 0.000000000000000000 ) ) ;
#234 = DIMENSIONAL_EXPONENTS ( 1.000000000000000000, 0.000000000000000000, 0.000000000000000000, 0.000000000000000000, 0.000000000000000000, 0.000000000000000000, 0.000000000000000000 ) ;
#235 = CARTESIAN_POINT ( 'NONE',  ( 0.000000000000000000, 0.000000000000000000, 0.000000000000000000 ) ) ;
#236 = EDGE_CURVE ( 'NONE', #102, #106, #139, .T. ) ;
#237 = ORIENTED_EDGE ( 'NONE', *, *, #55, .F. ) ;
#238 = CARTESIAN_POINT ( 'NONE',  ( 1.224646799147353700E-16, 2.000000000000000000, 0.000000000000000000 ) ) ;
#239 = ORIENTED_EDGE ( 'NONE', *, *, #232, .T. ) ;
#240 = PRESENTATION_STYLE_ASSIGNMENT (( #188 ) ) ;
#241 = DIRECTION ( 'NONE',  ( -1.000000000000000000, 0.000000000000000000, 0.000000000000000000 ) ) ;
#242 = FILL_AREA_STYLE_COLOUR ( '', #113 ) ;
#243 = LENGTH_MEASURE_WITH_UNIT ( LENGTH_MEASURE( 0.02539999999999999897 ), #170 );
#244 = PLANE ( 'NONE',  #34 ) ;
#245 = ADVANCED_FACE ( 'NONE', ( #37 ), #255, .T. ) ;
#246 = PRESENTATION_LAYER_ASSIGNMENT (  '', '', ( #120 ) ) ;
#247 = PRESENTATION_STYLE_ASSIGNMENT (( #127 ) ) ;
#248 = DIRECTION ( 'NONE',  ( -1.366841003161769405E-16, 1.000000000000000000, -0.000000000000000000 ) ) ;
#249 = PRESENTATION_STYLE_ASSIGNMENT (( #175 ) ) ;
#250 = COLOUR_RGB ( '',1.000000000000000000, 0.000000000000000000, 0.000000000000000000 ) ;
#251 = LINE ( 'NONE', #138, #46 ) ;
#252 = DIRECTION ( 'NONE',  ( 1.000000000000000000, 1.366841003161769405E-16, 0.000000000000000000 ) ) ;
#253 = PRESENTATION_STYLE_ASSIGNMENT (( #231 ) ) ;
#254 = DIRECTION ( 'NONE',  ( 0.000000000000000000, 0.000000000000000000, -1.000000000000000000 ) ) ;
#255 = CYLINDRICAL_SURFACE ( 'NONE', #76, 0.09374999999999973632 ) ;
#256 = PRODUCT_DEFINITION ( 'UNKNOWN', '', #100, #79 ) ;
#257 = SURFACE_STYLE_FILL_AREA ( #117 ) ;
#258 = EDGE_LOOP ( 'NONE', ( #58, #103, #219 ) ) ;
#259 = APPLICATION_PROTOCOL_DEFINITION ( 'draft international standard', 'automotive_design', 1998, #82 ) ;
#260 = ORIENTED_EDGE ( 'NONE', *, *, #28, .T. ) ;
#261 = CARTESIAN_POINT ( 'NONE',  ( 1.224646799147353700E-16, 2.000000000000000000, 0.000000000000000000 ) ) ;
#262 =( LENGTH_UNIT ( ) NAMED_UNIT ( * ) SI_UNIT ( $, .METRE. ) );
#263 = SURFACE_STYLE_FILL_AREA ( #23 ) ;
#264 = CONICAL_SURFACE ( 'NONE', #218, 68.19097667594041923, 1.047197551196600074 ) ;
#265 = VERTEX_POINT ( 'NONE', #57 ) ;
ENDSEC;
END-ISO-10303-21;
