ISO-10303-21;
HEADER;
FILE_DESCRIPTION (( 'STEP AP214' ),
    '1' );
FILE_NAME ('23150.STEP',
    '2023-06-22T16:37:02',
    ( '' ),
    ( '' ),
    'SwSTEP 2.0',
    'SolidWorks 2023',
    '' );
FILE_SCHEMA (( 'AUTOMOTIVE_DESIGN' ));
ENDSEC;

DATA;
#1 = CARTESIAN_POINT ( 'NONE',  ( 0.000000000000000000, 0.5000000000000000000, 0.000000000000000000 ) ) ;
#2 = STYLED_ITEM ( 'NONE', ( #183 ), #92 ) ;
#3 = ORIENTED_EDGE ( 'NONE', *, *, #152, .T. ) ;
#4 = MECHANICAL_DESIGN_GEOMETRIC_PRESENTATION_REPRESENTATION (  '', ( #232 ), #181 ) ;
#5 = UNCERTAINTY_MEASURE_WITH_UNIT (LENGTH_MEASURE( 1.000000000000000082E-05 ), #193, 'distance_accuracy_value', 'NONE');
#6 = ADVANCED_FACE ( 'NONE', ( #274 ), #57, .F. ) ;
#7 =( LENGTH_UNIT ( ) NAMED_UNIT ( * ) SI_UNIT ( $, .METRE. ) );
#8 = PRESENTATION_STYLE_ASSIGNMENT (( #134 ) ) ;
#9 = ORIENTED_EDGE ( 'NONE', *, *, #263, .F. ) ;
#10 = LINE ( 'NONE', #77, #230 ) ;
#11 = ORIENTED_EDGE ( 'NONE', *, *, #157, .T. ) ;
#12 = STYLED_ITEM ( 'NONE', ( #150 ), #257 ) ;
#13 =( GEOMETRIC_REPRESENTATION_CONTEXT ( 3 ) GLOBAL_UNCERTAINTY_ASSIGNED_CONTEXT ( ( #306 ) ) GLOBAL_UNIT_ASSIGNED_CONTEXT ( ( #131, #84, #40 ) ) REPRESENTATION_CONTEXT ( 'NONE', 'WORKASPACE' ) );
#14 = SURFACE_STYLE_USAGE ( .BOTH. , #113 ) ;
#15 = APPLICATION_CONTEXT ( 'automotive_design' ) ;
#16 = DIRECTION ( 'NONE',  ( 8.164311994315692567E-17, 1.000000000000000000, -0.000000000000000000 ) ) ;
#17 = FACE_OUTER_BOUND ( 'NONE', #110, .T. ) ;
#18 = VECTOR ( 'NONE', #167, 39.37007874015748143 ) ;
#19 = ADVANCED_FACE ( 'NONE', ( #95 ), #197, .T. ) ;
#20 = DIRECTION ( 'NONE',  ( -0.000000000000000000, -1.000000000000000000, -0.000000000000000000 ) ) ;
#21 = STYLED_ITEM ( 'NONE', ( #195 ), #80 ) ;
#22 = AXIS2_PLACEMENT_3D ( 'NONE', #261, #182, #305 ) ;
#23 = SURFACE_STYLE_FILL_AREA ( #210 ) ;
#24 = STYLED_ITEM ( 'NONE', ( #8 ), #39 ) ;
#25 = FILL_AREA_STYLE_COLOUR ( '', #122 ) ;
#26 = ORIENTED_EDGE ( 'NONE', *, *, #126, .T. ) ;
#27 = CARTESIAN_POINT ( 'NONE',  ( 0.000000000000000000, 0.5000000000000001110, 0.000000000000000000 ) ) ;
#28 = FILL_AREA_STYLE_COLOUR ( '', #180 ) ;
#29 = DIMENSIONAL_EXPONENTS ( 1.000000000000000000, 0.000000000000000000, 0.000000000000000000, 0.000000000000000000, 0.000000000000000000, 0.000000000000000000, 0.000000000000000000 ) ;
#30 = AXIS2_PLACEMENT_3D ( 'NONE', #255, #105, #281 ) ;
#31 =( NAMED_UNIT ( * ) SI_UNIT ( $, .STERADIAN. ) SOLID_ANGLE_UNIT ( ) );
#32 = ORIENTED_EDGE ( 'NONE', *, *, #72, .F. ) ;
#33 = LENGTH_MEASURE_WITH_UNIT ( LENGTH_MEASURE( 0.02539999999999999897 ), #53 );
#34 = EDGE_LOOP ( 'NONE', ( #119, #26 ) ) ;
#35 = FACE_OUTER_BOUND ( 'NONE', #298, .T. ) ;
#36 = AXIS2_PLACEMENT_3D ( 'NONE', #81, #153, #208 ) ;
#37 = ADVANCED_BREP_SHAPE_REPRESENTATION ( '23150', ( #92, #96, #227 ), #13 ) ;
#38 = DIRECTION ( 'NONE',  ( 8.164311994315692567E-17, 1.000000000000000000, -0.000000000000000000 ) ) ;
#39 = ADVANCED_FACE ( 'NONE', ( #236 ), #179, .T. ) ;
#40 =( NAMED_UNIT ( * ) SI_UNIT ( $, .STERADIAN. ) SOLID_ANGLE_UNIT ( ) );
#41 = LENGTH_MEASURE_WITH_UNIT ( LENGTH_MEASURE( 0.02539999999999999897 ), #47 );
#42 = MECHANICAL_DESIGN_GEOMETRIC_PRESENTATION_REPRESENTATION (  '', ( #24 ), #226 ) ;
#43 = SURFACE_SIDE_STYLE ('',( #155 ) ) ;
#44 = PLANE ( 'NONE',  #22 ) ;
#45 =( GEOMETRIC_REPRESENTATION_CONTEXT ( 3 ) GLOBAL_UNCERTAINTY_ASSIGNED_CONTEXT ( ( #65 ) ) GLOBAL_UNIT_ASSIGNED_CONTEXT ( ( #133, #88, #31 ) ) REPRESENTATION_CONTEXT ( 'NONE', 'WORKASPACE' ) );
#46 = PRODUCT_DEFINITION_SHAPE ( 'NONE', 'NONE',  #309 ) ;
#47 =( LENGTH_UNIT ( ) NAMED_UNIT ( * ) SI_UNIT ( $, .METRE. ) );
#48 = EDGE_LOOP ( 'NONE', ( #67, #213, #243, #211 ) ) ;
#49 = PRESENTATION_LAYER_ASSIGNMENT (  '', '', ( #192 ) ) ;
#50 = ORIENTED_EDGE ( 'NONE', *, *, #229, .T. ) ;
#51 = PRESENTATION_LAYER_ASSIGNMENT (  '', '', ( #232 ) ) ;
#52 = CARTESIAN_POINT ( 'NONE',  ( 0.000000000000000000, 0.000000000000000000, 0.000000000000000000 ) ) ;
#53 =( LENGTH_UNIT ( ) NAMED_UNIT ( * ) SI_UNIT ( $, .METRE. ) );
#54 = ORIENTED_EDGE ( 'NONE', *, *, #217, .T. ) ;
#55 = EDGE_CURVE ( 'NONE', #194, #125, #10, .T. ) ;
#56 =( NAMED_UNIT ( * ) PLANE_ANGLE_UNIT ( ) SI_UNIT ( $, .RADIAN. ) );
#57 = PLANE ( 'NONE',  #228 ) ;
#58 = CARTESIAN_POINT ( 'NONE',  ( 1.224646799147353700E-16, 2.000000000000000000, 0.000000000000000000 ) ) ;
#59 = CARTESIAN_POINT ( 'NONE',  ( -0.1874999999999997502, 2.000000000000000000, 0.000000000000000000 ) ) ;
#60 = AXIS2_PLACEMENT_3D ( 'NONE', #71, #251, #164 ) ;
#61 = SURFACE_SIDE_STYLE ('',( #166 ) ) ;
#62 =( NAMED_UNIT ( * ) PLANE_ANGLE_UNIT ( ) SI_UNIT ( $, .RADIAN. ) );
#63 = DIRECTION ( 'NONE',  ( -1.000000000000000000, 0.000000000000000000, 0.000000000000000000 ) ) ;
#64 = COLOUR_RGB ( '',0.7921568627450980005, 0.8196078431372548767, 0.9333333333333333481 ) ;
#65 = UNCERTAINTY_MEASURE_WITH_UNIT (LENGTH_MEASURE( 1.000000000000000082E-05 ), #133, 'distance_accuracy_value', 'NONE');
#66 = CARTESIAN_POINT ( 'NONE',  ( 0.1875000000000000278, 2.000000000000000000, 0.000000000000000000 ) ) ;
#67 = ORIENTED_EDGE ( 'NONE', *, *, #152, .F. ) ;
#68 = SURFACE_SIDE_STYLE ('',( #87 ) ) ;
#69 = CIRCLE ( 'NONE', #252, 0.1875000000000000278 ) ;
#70 = PRESENTATION_STYLE_ASSIGNMENT (( #289 ) ) ;
#71 = CARTESIAN_POINT ( 'NONE',  ( 0.000000000000000000, 0.5000000000000000000, 0.000000000000000000 ) ) ;
#72 = EDGE_CURVE ( 'NONE', #78, #190, #148, .T. ) ;
#73 = DIRECTION ( 'NONE',  ( -1.000000000000000000, 0.000000000000000000, 0.000000000000000000 ) ) ;
#74 = LENGTH_MEASURE_WITH_UNIT ( LENGTH_MEASURE( 0.02539999999999999897 ), #7 );
#75 = VERTEX_POINT ( 'NONE', #267 ) ;
#76 = PRESENTATION_STYLE_ASSIGNMENT (( #294 ) ) ;
#77 = CARTESIAN_POINT ( 'NONE',  ( -0.1874999999999998057, 2.000000000000000000, 0.000000000000000000 ) ) ;
#78 = VERTEX_POINT ( 'NONE', #241 ) ;
#79 = DIMENSIONAL_EXPONENTS ( 1.000000000000000000, 0.000000000000000000, 0.000000000000000000, 0.000000000000000000, 0.000000000000000000, 0.000000000000000000, 0.000000000000000000 ) ;
#80 = ADVANCED_FACE ( 'NONE', ( #35 ), #223, .T. ) ;
#81 = CARTESIAN_POINT ( 'NONE',  ( 6.248999094424413542E-34, 0.5000000000000000000, 0.000000000000000000 ) ) ;
#82 = CARTESIAN_POINT ( 'NONE',  ( 1.224646799147353700E-16, 2.000000000000000000, 0.000000000000000000 ) ) ;
#83 =( GEOMETRIC_REPRESENTATION_CONTEXT ( 3 ) GLOBAL_UNCERTAINTY_ASSIGNED_CONTEXT ( ( #106 ) ) GLOBAL_UNIT_ASSIGNED_CONTEXT ( ( #198, #128, #176 ) ) REPRESENTATION_CONTEXT ( 'NONE', 'WORKASPACE' ) );
#84 =( NAMED_UNIT ( * ) PLANE_ANGLE_UNIT ( ) SI_UNIT ( $, .RADIAN. ) );
#85 = FACE_OUTER_BOUND ( 'NONE', #245, .T. ) ;
#86 = AXIS2_PLACEMENT_3D ( 'NONE', #246, #98, #141 ) ;
#87 = SURFACE_STYLE_FILL_AREA ( #107 ) ;
#88 =( NAMED_UNIT ( * ) PLANE_ANGLE_UNIT ( ) SI_UNIT ( $, .RADIAN. ) );
#89 = EDGE_LOOP ( 'NONE', ( #54, #272, #169, #111 ) ) ;
#90 = FILL_AREA_STYLE ('',( #28 ) ) ;
#91 = SURFACE_STYLE_USAGE ( .BOTH. , #61 ) ;
#92 = MANIFOLD_SOLID_BREP ( 'Revolve - Cutting Edge', #302 ) ;
#93 = PRESENTATION_LAYER_ASSIGNMENT (  '', '', ( #24 ) ) ;
#94 = PRODUCT_DEFINITION_FORMATION_WITH_SPECIFIED_SOURCE ( 'ANY', '', #266, .NOT_KNOWN. ) ;
#95 = FACE_OUTER_BOUND ( 'NONE', #89, .T. ) ;
#96 = MANIFOLD_SOLID_BREP ( 'Revolve - Tool Body (Straight Shanked)', #297 ) ;
#97 = FILL_AREA_STYLE ('',( #112 ) ) ;
#98 = DIRECTION ( 'NONE',  ( -0.000000000000000000, -1.000000000000000000, -0.000000000000000000 ) ) ;
#99 = DIMENSIONAL_EXPONENTS ( 1.000000000000000000, 0.000000000000000000, 0.000000000000000000, 0.000000000000000000, 0.000000000000000000, 0.000000000000000000, 0.000000000000000000 ) ;
#100 = DIRECTION ( 'NONE',  ( -0.000000000000000000, -1.000000000000000000, -0.000000000000000000 ) ) ;
#101 = DIRECTION ( 'NONE',  ( -1.000000000000000000, 0.000000000000000000, 0.000000000000000000 ) ) ;
#102 =( GEOMETRIC_REPRESENTATION_CONTEXT ( 3 ) GLOBAL_UNCERTAINTY_ASSIGNED_CONTEXT ( ( #187 ) ) GLOBAL_UNIT_ASSIGNED_CONTEXT ( ( #165, #151, #235 ) ) REPRESENTATION_CONTEXT ( 'NONE', 'WORKASPACE' ) );
#103 = EDGE_CURVE ( 'NONE', #125, #75, #250, .T. ) ;
#104 =( NAMED_UNIT ( * ) SI_UNIT ( $, .STERADIAN. ) SOLID_ANGLE_UNIT ( ) );
#105 = DIRECTION ( 'NONE',  ( 0.000000000000000000, -1.000000000000000000, -0.000000000000000000 ) ) ;
#106 = UNCERTAINTY_MEASURE_WITH_UNIT (LENGTH_MEASURE( 1.000000000000000082E-05 ), #198, 'distance_accuracy_value', 'NONE');
#107 = FILL_AREA_STYLE ('',( #260 ) ) ;
#108 = EDGE_CURVE ( 'NONE', #190, #233, #225, .T. ) ;
#109 = SURFACE_SIDE_STYLE ('',( #239 ) ) ;
#110 = EDGE_LOOP ( 'NONE', ( #293, #9 ) ) ;
#111 = ORIENTED_EDGE ( 'NONE', *, *, #55, .F. ) ;
#112 = FILL_AREA_STYLE_COLOUR ( '', #64 ) ;
#113 = SURFACE_SIDE_STYLE ('',( #265 ) ) ;
#114 = COLOUR_RGB ( '',0.7921568627450980005, 0.8196078431372548767, 0.9333333333333333481 ) ;
#115 = DIRECTION ( 'NONE',  ( -0.000000000000000000, -1.000000000000000000, -0.000000000000000000 ) ) ;
#116 = EDGE_CURVE ( 'NONE', #215, #75, #254, .T. ) ;
#117 = SURFACE_SIDE_STYLE ('',( #23 ) ) ;
#118 = UNCERTAINTY_MEASURE_WITH_UNIT (LENGTH_MEASURE( 1.000000000000000082E-05 ), #199, 'distance_accuracy_value', 'NONE');
#119 = ORIENTED_EDGE ( 'NONE', *, *, #103, .T. ) ;
#120 =( NAMED_UNIT ( * ) PLANE_ANGLE_UNIT ( ) SI_UNIT ( $, .RADIAN. ) );
#121 = CARTESIAN_POINT ( 'NONE',  ( 0.1875000000000000278, 0.5000000000000001110, 2.296212748401286801E-17 ) ) ;
#122 = COLOUR_RGB ( '',1.000000000000000000, 0.000000000000000000, 0.000000000000000000 ) ;
#123 = AXIS2_PLACEMENT_3D ( 'NONE', #58, #292, #63 ) ;
#124 = CARTESIAN_POINT ( 'NONE',  ( 0.000000000000000000, 0.000000000000000000, 0.000000000000000000 ) ) ;
#125 = VERTEX_POINT ( 'NONE', #59 ) ;
#126 = EDGE_CURVE ( 'NONE', #75, #125, #142, .T. ) ;
#127 = CARTESIAN_POINT ( 'NONE',  ( 0.000000000000000000, 0.000000000000000000, -0.1875000000000000278 ) ) ;
#128 =( NAMED_UNIT ( * ) PLANE_ANGLE_UNIT ( ) SI_UNIT ( $, .RADIAN. ) );
#129 = AXIS2_PLACEMENT_3D ( 'NONE', #52, #143, #191 ) ;
#130 = CARTESIAN_POINT ( 'NONE',  ( 1.224646799147353700E-16, 2.000000000000000000, 0.000000000000000000 ) ) ;
#131 =( CONVERSION_BASED_UNIT ( 'INCH', #304 ) LENGTH_UNIT ( ) NAMED_UNIT ( #99 ) );
#132 = ADVANCED_FACE ( 'NONE', ( #249 ), #278, .T. ) ;
#133 =( CONVERSION_BASED_UNIT ( 'INCH', #41 ) LENGTH_UNIT ( ) NAMED_UNIT ( #269 ) );
#134 = SURFACE_STYLE_USAGE ( .BOTH. , #43 ) ;
#135 = DIRECTION ( 'NONE',  ( -1.000000000000000000, 0.000000000000000000, 0.000000000000000000 ) ) ;
#136 = CIRCLE ( 'NONE', #270, 0.1875000000000000278 ) ;
#137 = VERTEX_POINT ( 'NONE', #203 ) ;
#138 = DIRECTION ( 'NONE',  ( 0.000000000000000000, 0.000000000000000000, -1.000000000000000000 ) ) ;
#139 = EDGE_LOOP ( 'NONE', ( #247, #160, #219, #188 ) ) ;
#140 = ADVANCED_FACE ( 'NONE', ( #17 ), #200, .F. ) ;
#141 = DIRECTION ( 'NONE',  ( 0.000000000000000000, 0.000000000000000000, -1.000000000000000000 ) ) ;
#142 = CIRCLE ( 'NONE', #279, 0.1874999999999998890 ) ;
#143 = DIRECTION ( 'NONE',  ( -0.000000000000000000, -1.000000000000000000, -0.000000000000000000 ) ) ;
#144 = CARTESIAN_POINT ( 'NONE',  ( -0.1875000000000000278, 0.5000000000000001110, 0.000000000000000000 ) ) ;
#145 = CARTESIAN_POINT ( 'NONE',  ( 1.224646799147353700E-16, 2.000000000000000000, 0.000000000000000000 ) ) ;
#146 = FILL_AREA_STYLE_COLOUR ( '', #290 ) ;
#147 = CIRCLE ( 'NONE', #268, 0.1875000000000000278 ) ;
#148 = CIRCLE ( 'NONE', #60, 0.1875000000000000278 ) ;
#149 = DIRECTION ( 'NONE',  ( 0.000000000000000000, 0.000000000000000000, 1.000000000000000000 ) ) ;
#150 = PRESENTATION_STYLE_ASSIGNMENT (( #91 ) ) ;
#151 =( NAMED_UNIT ( * ) PLANE_ANGLE_UNIT ( ) SI_UNIT ( $, .RADIAN. ) );
#152 = EDGE_CURVE ( 'NONE', #78, #137, #258, .T. ) ;
#153 = DIRECTION ( 'NONE',  ( 8.164311994315692567E-17, 1.000000000000000000, -0.000000000000000000 ) ) ;
#154 = PRESENTATION_LAYER_ASSIGNMENT (  '', '', ( #2 ) ) ;
#155 = SURFACE_STYLE_FILL_AREA ( #256 ) ;
#156 = CARTESIAN_POINT ( 'NONE',  ( 0.000000000000000000, 0.5000000000000001110, 0.000000000000000000 ) ) ;
#157 = EDGE_CURVE ( 'NONE', #190, #78, #147, .T. ) ;
#158 = DIRECTION ( 'NONE',  ( 0.000000000000000000, 0.000000000000000000, -1.000000000000000000 ) ) ;
#159 = DIRECTION ( 'NONE',  ( -8.164311994315692567E-17, -1.000000000000000000, 0.000000000000000000 ) ) ;
#160 = ORIENTED_EDGE ( 'NONE', *, *, #263, .T. ) ;
#161 =( GEOMETRIC_REPRESENTATION_CONTEXT ( 3 ) GLOBAL_UNCERTAINTY_ASSIGNED_CONTEXT ( ( #221 ) ) GLOBAL_UNIT_ASSIGNED_CONTEXT ( ( #271, #120, #104 ) ) REPRESENTATION_CONTEXT ( 'NONE', 'WORKASPACE' ) );
#162 = CIRCLE ( 'NONE', #207, 0.1875000000000000278 ) ;
#163 = DIRECTION ( 'NONE',  ( 0.000000000000000000, 0.000000000000000000, -1.000000000000000000 ) ) ;
#164 = DIRECTION ( 'NONE',  ( 0.000000000000000000, 0.000000000000000000, -1.000000000000000000 ) ) ;
#165 =( CONVERSION_BASED_UNIT ( 'INCH', #74 ) LENGTH_UNIT ( ) NAMED_UNIT ( #196 ) );
#166 = SURFACE_STYLE_FILL_AREA ( #300 ) ;
#167 = DIRECTION ( 'NONE',  ( -0.000000000000000000, -1.000000000000000000, -0.000000000000000000 ) ) ;
#168 = CIRCLE ( 'NONE', #129, 0.1875000000000000278 ) ;
#169 = ORIENTED_EDGE ( 'NONE', *, *, #103, .F. ) ;
#170 = DIMENSIONAL_EXPONENTS ( 1.000000000000000000, 0.000000000000000000, 0.000000000000000000, 0.000000000000000000, 0.000000000000000000, 0.000000000000000000, 0.000000000000000000 ) ;
#171 = EDGE_CURVE ( 'NONE', #137, #233, #168, .T. ) ;
#172 =( LENGTH_UNIT ( ) NAMED_UNIT ( * ) SI_UNIT ( $, .METRE. ) );
#173 = MECHANICAL_DESIGN_GEOMETRIC_PRESENTATION_REPRESENTATION (  '', ( #2 ), #45 ) ;
#174 = DIRECTION ( 'NONE',  ( 8.164311994315692567E-17, 1.000000000000000000, -0.000000000000000000 ) ) ;
#175 = DIRECTION ( 'NONE',  ( -1.000000000000000000, 0.000000000000000000, 0.000000000000000000 ) ) ;
#176 =( NAMED_UNIT ( * ) SI_UNIT ( $, .STERADIAN. ) SOLID_ANGLE_UNIT ( ) );
#177 =( LENGTH_UNIT ( ) NAMED_UNIT ( * ) SI_UNIT ( $, .METRE. ) );
#178 = CARTESIAN_POINT ( 'NONE',  ( 0.000000000000000000, 0.000000000000000000, 0.000000000000000000 ) ) ;
#179 = CYLINDRICAL_SURFACE ( 'NONE', #86, 0.1875000000000000278 ) ;
#180 = COLOUR_RGB ( '',1.000000000000000000, 0.000000000000000000, 0.000000000000000000 ) ;
#181 =( GEOMETRIC_REPRESENTATION_CONTEXT ( 3 ) GLOBAL_UNCERTAINTY_ASSIGNED_CONTEXT ( ( #118 ) ) GLOBAL_UNIT_ASSIGNED_CONTEXT ( ( #199, #62, #301 ) ) REPRESENTATION_CONTEXT ( 'NONE', 'WORKASPACE' ) );
#182 = DIRECTION ( 'NONE',  ( 0.000000000000000000, 1.000000000000000000, 0.000000000000000000 ) ) ;
#183 = PRESENTATION_STYLE_ASSIGNMENT (( #286 ) ) ;
#184 = DIRECTION ( 'NONE',  ( 8.164311994315692567E-17, 1.000000000000000000, -0.000000000000000000 ) ) ;
#185 = MECHANICAL_DESIGN_GEOMETRIC_PRESENTATION_REPRESENTATION (  '', ( #21 ), #102 ) ;
#186 = CARTESIAN_POINT ( 'NONE',  ( 0.000000000000000000, 0.000000000000000000, -0.1875000000000000278 ) ) ;
#187 = UNCERTAINTY_MEASURE_WITH_UNIT (LENGTH_MEASURE( 1.000000000000000082E-05 ), #165, 'distance_accuracy_value', 'NONE');
#188 = ORIENTED_EDGE ( 'NONE', *, *, #126, .F. ) ;
#189 = APPLICATION_CONTEXT ( 'automotive_design' ) ;
#190 = VERTEX_POINT ( 'NONE', #296 ) ;
#191 = DIRECTION ( 'NONE',  ( 0.000000000000000000, 0.000000000000000000, -1.000000000000000000 ) ) ;
#192 = STYLED_ITEM ( 'NONE', ( #70 ), #96 ) ;
#193 =( CONVERSION_BASED_UNIT ( 'INCH', #33 ) LENGTH_UNIT ( ) NAMED_UNIT ( #170 ) );
#194 = VERTEX_POINT ( 'NONE', #144 ) ;
#195 = PRESENTATION_STYLE_ASSIGNMENT (( #14 ) ) ;
#196 = DIMENSIONAL_EXPONENTS ( 1.000000000000000000, 0.000000000000000000, 0.000000000000000000, 0.000000000000000000, 0.000000000000000000, 0.000000000000000000, 0.000000000000000000 ) ;
#197 = CYLINDRICAL_SURFACE ( 'NONE', #123, 0.1874999999999999445 ) ;
#198 =( CONVERSION_BASED_UNIT ( 'INCH', #275 ) LENGTH_UNIT ( ) NAMED_UNIT ( #218 ) );
#199 =( CONVERSION_BASED_UNIT ( 'INCH', #202 ) LENGTH_UNIT ( ) NAMED_UNIT ( #79 ) );
#200 = PLANE ( 'NONE',  #36 ) ;
#201 = PRESENTATION_LAYER_ASSIGNMENT (  '', '', ( #21 ) ) ;
#202 = LENGTH_MEASURE_WITH_UNIT ( LENGTH_MEASURE( 0.02539999999999999897 ), #177 );
#203 = CARTESIAN_POINT ( 'NONE',  ( 2.296212748401287726E-17, 0.000000000000000000, 0.1875000000000000278 ) ) ;
#204 = CARTESIAN_POINT ( 'NONE',  ( 0.1875000000000000833, 2.000000000000000000, 2.296212748401286493E-17 ) ) ;
#205 =( LENGTH_UNIT ( ) NAMED_UNIT ( * ) SI_UNIT ( $, .METRE. ) );
#206 = PRESENTATION_LAYER_ASSIGNMENT (  '', '', ( #12 ) ) ;
#207 = AXIS2_PLACEMENT_3D ( 'NONE', #27, #184, #73 ) ;
#208 = DIRECTION ( 'NONE',  ( -1.000000000000000000, 8.164311994315692567E-17, 0.000000000000000000 ) ) ;
#209 = LENGTH_MEASURE_WITH_UNIT ( LENGTH_MEASURE( 0.02539999999999999897 ), #205 );
#210 = FILL_AREA_STYLE ('',( #25 ) ) ;
#211 = ORIENTED_EDGE ( 'NONE', *, *, #171, .F. ) ;
#212 = CARTESIAN_POINT ( 'NONE',  ( 2.296212748401287726E-17, 0.000000000000000000, 0.1875000000000000278 ) ) ;
#213 = ORIENTED_EDGE ( 'NONE', *, *, #72, .T. ) ;
#214 = DIRECTION ( 'NONE',  ( 1.000000000000000000, -8.164311994315692567E-17, 0.000000000000000000 ) ) ;
#215 = VERTEX_POINT ( 'NONE', #121 ) ;
#216 = APPLICATION_PROTOCOL_DEFINITION ( 'draft international standard', 'automotive_design', 1998, #15 ) ;
#217 = EDGE_CURVE ( 'NONE', #194, #215, #162, .T. ) ;
#218 = DIMENSIONAL_EXPONENTS ( 1.000000000000000000, 0.000000000000000000, 0.000000000000000000, 0.000000000000000000, 0.000000000000000000, 0.000000000000000000, 0.000000000000000000 ) ;
#219 = ORIENTED_EDGE ( 'NONE', *, *, #55, .T. ) ;
#220 = CARTESIAN_POINT ( 'NONE',  ( 0.000000000000000000, 0.000000000000000000, 0.000000000000000000 ) ) ;
#221 = UNCERTAINTY_MEASURE_WITH_UNIT (LENGTH_MEASURE( 1.000000000000000082E-05 ), #271, 'distance_accuracy_value', 'NONE');
#222 = MECHANICAL_DESIGN_GEOMETRIC_PRESENTATION_REPRESENTATION (  '', ( #12 ), #161 ) ;
#223 = CYLINDRICAL_SURFACE ( 'NONE', #276, 0.1875000000000000278 ) ;
#224 = SHAPE_DEFINITION_REPRESENTATION ( #46, #37 ) ;
#225 = LINE ( 'NONE', #127, #244 ) ;
#226 =( GEOMETRIC_REPRESENTATION_CONTEXT ( 3 ) GLOBAL_UNCERTAINTY_ASSIGNED_CONTEXT ( ( #5 ) ) GLOBAL_UNIT_ASSIGNED_CONTEXT ( ( #193, #56, #248 ) ) REPRESENTATION_CONTEXT ( 'NONE', 'WORKASPACE' ) );
#227 = AXIS2_PLACEMENT_3D ( 'NONE', #124, #149, #253 ) ;
#228 = AXIS2_PLACEMENT_3D ( 'NONE', #66, #159, #214 ) ;
#229 = EDGE_CURVE ( 'NONE', #233, #137, #69, .T. ) ;
#230 = VECTOR ( 'NONE', #291, 39.37007874015748143 ) ;
#231 = FACE_OUTER_BOUND ( 'NONE', #288, .T. ) ;
#232 = STYLED_ITEM ( 'NONE', ( #76 ), #285 ) ;
#233 = VERTEX_POINT ( 'NONE', #186 ) ;
#234 = PRODUCT_DEFINITION_CONTEXT ( 'detailed design', #15, 'design' ) ;
#235 =( NAMED_UNIT ( * ) SI_UNIT ( $, .STERADIAN. ) SOLID_ANGLE_UNIT ( ) );
#236 = FACE_OUTER_BOUND ( 'NONE', #48, .T. ) ;
#237 = MECHANICAL_DESIGN_GEOMETRIC_PRESENTATION_REPRESENTATION (  '', ( #192 ), #83 ) ;
#238 = PLANE ( 'NONE',  #30 ) ;
#239 = SURFACE_STYLE_FILL_AREA ( #97 ) ;
#240 = ORIENTED_EDGE ( 'NONE', *, *, #157, .F. ) ;
#241 = CARTESIAN_POINT ( 'NONE',  ( 2.296212748401287726E-17, 0.5000000000000000000, 0.1875000000000000278 ) ) ;
#242 = ORIENTED_EDGE ( 'NONE', *, *, #229, .F. ) ;
#243 = ORIENTED_EDGE ( 'NONE', *, *, #108, .T. ) ;
#244 = VECTOR ( 'NONE', #100, 39.37007874015748143 ) ;
#245 = EDGE_LOOP ( 'NONE', ( #50, #295 ) ) ;
#246 = CARTESIAN_POINT ( 'NONE',  ( 0.000000000000000000, 0.000000000000000000, 0.000000000000000000 ) ) ;
#247 = ORIENTED_EDGE ( 'NONE', *, *, #116, .F. ) ;
#248 =( NAMED_UNIT ( * ) SI_UNIT ( $, .STERADIAN. ) SOLID_ANGLE_UNIT ( ) );
#249 = FACE_OUTER_BOUND ( 'NONE', #139, .T. ) ;
#250 = CIRCLE ( 'NONE', #287, 0.1874999999999998890 ) ;
#251 = DIRECTION ( 'NONE',  ( -0.000000000000000000, -1.000000000000000000, -0.000000000000000000 ) ) ;
#252 = AXIS2_PLACEMENT_3D ( 'NONE', #220, #264, #138 ) ;
#253 = DIRECTION ( 'NONE',  ( 1.000000000000000000, 0.000000000000000000, 0.000000000000000000 ) ) ;
#254 = LINE ( 'NONE', #204, #284 ) ;
#255 = CARTESIAN_POINT ( 'NONE',  ( 0.000000000000000000, 0.000000000000000000, 0.000000000000000000 ) ) ;
#256 = FILL_AREA_STYLE ('',( #282 ) ) ;
#257 = ADVANCED_FACE ( 'NONE', ( #231 ), #44, .T. ) ;
#258 = LINE ( 'NONE', #212, #18 ) ;
#259 = DIRECTION ( 'NONE',  ( 8.164311994315692567E-17, 1.000000000000000000, -0.000000000000000000 ) ) ;
#260 = FILL_AREA_STYLE_COLOUR ( '', #114 ) ;
#261 = CARTESIAN_POINT ( 'NONE',  ( 0.000000000000000000, 0.5000000000000000000, 0.000000000000000000 ) ) ;
#262 = ORIENTED_EDGE ( 'NONE', *, *, #108, .F. ) ;
#263 = EDGE_CURVE ( 'NONE', #215, #194, #136, .T. ) ;
#264 = DIRECTION ( 'NONE',  ( -0.000000000000000000, -1.000000000000000000, -0.000000000000000000 ) ) ;
#265 = SURFACE_STYLE_FILL_AREA ( #90 ) ;
#266 = PRODUCT ( '23150', '23150', '', ( #273 ) ) ;
#267 = CARTESIAN_POINT ( 'NONE',  ( 0.1875000000000000278, 2.000000000000000000, 2.296212748401286801E-17 ) ) ;
#268 = AXIS2_PLACEMENT_3D ( 'NONE', #1, #115, #163 ) ;
#269 = DIMENSIONAL_EXPONENTS ( 1.000000000000000000, 0.000000000000000000, 0.000000000000000000, 0.000000000000000000, 0.000000000000000000, 0.000000000000000000, 0.000000000000000000 ) ;
#270 = AXIS2_PLACEMENT_3D ( 'NONE', #156, #259, #135 ) ;
#271 =( CONVERSION_BASED_UNIT ( 'INCH', #209 ) LENGTH_UNIT ( ) NAMED_UNIT ( #29 ) );
#272 = ORIENTED_EDGE ( 'NONE', *, *, #116, .T. ) ;
#273 = PRODUCT_CONTEXT ( 'NONE', #189, 'mechanical' ) ;
#274 = FACE_OUTER_BOUND ( 'NONE', #34, .T. ) ;
#275 = LENGTH_MEASURE_WITH_UNIT ( LENGTH_MEASURE( 0.02539999999999999897 ), #172 );
#276 = AXIS2_PLACEMENT_3D ( 'NONE', #178, #20, #158 ) ;
#277 =( LENGTH_UNIT ( ) NAMED_UNIT ( * ) SI_UNIT ( $, .METRE. ) );
#278 = CYLINDRICAL_SURFACE ( 'NONE', #308, 0.1874999999999999445 ) ;
#279 = AXIS2_PLACEMENT_3D ( 'NONE', #82, #174, #175 ) ;
#280 = COLOUR_RGB ( '',1.000000000000000000, 0.000000000000000000, 0.000000000000000000 ) ;
#281 = DIRECTION ( 'NONE',  ( 0.000000000000000000, 0.000000000000000000, -1.000000000000000000 ) ) ;
#282 = FILL_AREA_STYLE_COLOUR ( '', #280 ) ;
#283 = PRODUCT_RELATED_PRODUCT_CATEGORY ( 'part', '', ( #266 ) ) ;
#284 = VECTOR ( 'NONE', #303, 39.37007874015748143 ) ;
#285 = ADVANCED_FACE ( 'NONE', ( #85 ), #238, .T. ) ;
#286 = SURFACE_STYLE_USAGE ( .BOTH. , #68 ) ;
#287 = AXIS2_PLACEMENT_3D ( 'NONE', #145, #38, #101 ) ;
#288 = EDGE_LOOP ( 'NONE', ( #240, #32 ) ) ;
#289 = SURFACE_STYLE_USAGE ( .BOTH. , #109 ) ;
#290 = COLOUR_RGB ( '',1.000000000000000000, 0.000000000000000000, 0.000000000000000000 ) ;
#291 = DIRECTION ( 'NONE',  ( 8.164311994315692567E-17, 1.000000000000000000, -0.000000000000000000 ) ) ;
#292 = DIRECTION ( 'NONE',  ( 8.164311994315692567E-17, 1.000000000000000000, -0.000000000000000000 ) ) ;
#293 = ORIENTED_EDGE ( 'NONE', *, *, #217, .F. ) ;
#294 = SURFACE_STYLE_USAGE ( .BOTH. , #117 ) ;
#295 = ORIENTED_EDGE ( 'NONE', *, *, #171, .T. ) ;
#296 = CARTESIAN_POINT ( 'NONE',  ( 0.000000000000000000, 0.5000000000000000000, -0.1875000000000000278 ) ) ;
#297 = CLOSED_SHELL ( 'NONE', ( #19, #140, #132, #6 ) ) ;
#298 = EDGE_LOOP ( 'NONE', ( #11, #3, #242, #262 ) ) ;
#299 = DIRECTION ( 'NONE',  ( -1.000000000000000000, 0.000000000000000000, 0.000000000000000000 ) ) ;
#300 = FILL_AREA_STYLE ('',( #146 ) ) ;
#301 =( NAMED_UNIT ( * ) SI_UNIT ( $, .STERADIAN. ) SOLID_ANGLE_UNIT ( ) );
#302 = CLOSED_SHELL ( 'NONE', ( #80, #257, #39, #285 ) ) ;
#303 = DIRECTION ( 'NONE',  ( 8.164311994315692567E-17, 1.000000000000000000, -0.000000000000000000 ) ) ;
#304 = LENGTH_MEASURE_WITH_UNIT ( LENGTH_MEASURE( 0.02539999999999999897 ), #277 );
#305 = DIRECTION ( 'NONE',  ( 0.000000000000000000, -0.000000000000000000, 1.000000000000000000 ) ) ;
#306 = UNCERTAINTY_MEASURE_WITH_UNIT (LENGTH_MEASURE( 1.000000000000000082E-05 ), #131, 'distance_accuracy_value', 'NONE');
#307 = APPLICATION_PROTOCOL_DEFINITION ( 'draft international standard', 'automotive_design', 1998, #189 ) ;
#308 = AXIS2_PLACEMENT_3D ( 'NONE', #130, #16, #299 ) ;
#309 = PRODUCT_DEFINITION ( 'UNKNOWN', '', #94, #234 ) ;
ENDSEC;
END-ISO-10303-21;
