ISO-10303-21;
HEADER;
FILE_DESCRIPTION (( 'STEP AP214' ),
    '1' );
FILE_NAME ('Micro_MMBM-040-15.STEP',
    '2021-09-03T16:33:39',
    ( '' ),
    ( '' ),
    'SwSTEP 2.0',
    'SolidWorks 2020',
    '' );
FILE_SCHEMA (( 'AUTOMOTIVE_DESIGN' ));
ENDSEC;

DATA;
#1 = FACE_OUTER_BOUND ( 'NONE', #297, .T. ) ;
#2 = AXIS2_PLACEMENT_3D ( 'NONE', #361, #214, #5 ) ;
#3 = CARTESIAN_POINT ( 'NONE',  ( 0.1181100000000000066, 1.446430334472939084E-17, 0.5905510000000000481 ) ) ;
#4 = ADVANCED_FACE ( 'NONE', ( #295 ), #114, .F. ) ;
#5 = DIRECTION ( 'NONE',  ( -1.000000000000000000, 0.0000000000000000000, 0.0000000000000000000 ) ) ;
#6 = CARTESIAN_POINT ( 'NONE',  ( 0.0000000000000000000, 0.0000000000000000000, 2.244094000000000033 ) ) ;
#7 = PRODUCT_DEFINITION_SHAPE ( 'NONE', 'NONE',  #118 ) ;
#8 = COLOUR_RGB ( '',0.7921568627450980005, 0.8196078431372548767, 0.9333333333333333481 ) ;
#9 = DIRECTION ( 'NONE',  ( -0.0000000000000000000, -0.0000000000000000000, -1.000000000000000000 ) ) ;
#10 = LINE ( 'NONE', #242, #305 ) ;
#11 = DIRECTION ( 'NONE',  ( -0.0000000000000000000, -0.0000000000000000000, -1.000000000000000000 ) ) ;
#12 = VECTOR ( 'NONE', #11, 39.37007874015748143 ) ;
#13 = ADVANCED_FACE ( 'NONE', ( #374 ), #140, .T. ) ;
#14 = EDGE_CURVE ( 'NONE', #192, #256, #120, .T. ) ;
#15 = DIRECTION ( 'NONE',  ( 0.1736481776669306087, 2.126576849575774688E-17, -0.9848077530122080203 ) ) ;
#16 = CARTESIAN_POINT ( 'NONE',  ( 0.07873212600000001338, 9.641904609596613134E-18, 0.1574800000000000089 ) ) ;
#17 = ORIENTED_EDGE ( 'NONE', *, *, #150, .T. ) ;
#18 = ORIENTED_EDGE ( 'NONE', *, *, #249, .F. ) ;
#19 = LENGTH_MEASURE_WITH_UNIT ( LENGTH_MEASURE( 0.02539999999999999897 ), #321 );
#20 = ORIENTED_EDGE ( 'NONE', *, *, #183, .F. ) ;
#21 = EDGE_LOOP ( 'NONE', ( #319, #347, #258, #70 ) ) ;
#22 = CIRCLE ( 'NONE', #282, 0.07480300000000006388 ) ;
#23 = DIRECTION ( 'NONE',  ( 0.0000000000000000000, 0.0000000000000000000, 1.000000000000000000 ) ) ;
#24 = CARTESIAN_POINT ( 'NONE',  ( -0.1181100000000000066, 0.0000000000000000000, 0.5905510000000000481 ) ) ;
#25 = ADVANCED_FACE ( 'NONE', ( #267, #1 ), #235, .T. ) ;
#26 = ORIENTED_EDGE ( 'NONE', *, *, #209, .F. ) ;
#27 = EDGE_CURVE ( 'NONE', #252, #201, #75, .T. ) ;
#28 = DIRECTION ( 'NONE',  ( 1.000000000000000000, 0.0000000000000000000, 0.0000000000000000000 ) ) ;
#29 = PRODUCT_DEFINITION_CONTEXT ( 'detailed design', #124, 'design' ) ;
#30 = CARTESIAN_POINT ( 'NONE',  ( 0.07480300000000002225, 9.401315030629280899E-18, 0.1797631808507871853 ) ) ;
#31 = DIRECTION ( 'NONE',  ( -0.7071067811865358044, 0.0000000000000000000, -0.7071067811865590080 ) ) ;
#32 = VECTOR ( 'NONE', #117, 39.37007874015748143 ) ;
#33 = DIRECTION ( 'NONE',  ( -0.1736481776669306087, 0.0000000000000000000, -0.9848077530122080203 ) ) ;
#34 = CARTESIAN_POINT ( 'NONE',  ( 0.0000000000000000000, 0.0000000000000000000, 0.0000000000000000000 ) ) ;
#35 = CARTESIAN_POINT ( 'NONE',  ( 0.0000000000000000000, 0.0000000000000000000, 0.0000000000000000000 ) ) ;
#36 = ORIENTED_EDGE ( 'NONE', *, *, #167, .T. ) ;
#37 = EDGE_CURVE ( 'NONE', #256, #44, #142, .T. ) ;
#38 = DIRECTION ( 'NONE',  ( -1.000000000000000000, 0.0000000000000000000, 0.0000000000000000000 ) ) ;
#39 = CIRCLE ( 'NONE', #88, 0.07873212600000001338 ) ;
#40 = ORIENTED_EDGE ( 'NONE', *, *, #27, .T. ) ;
#41 = CARTESIAN_POINT ( 'NONE',  ( 0.0000000000000000000, 0.0000000000000000000, 0.1574800000000000089 ) ) ;
#42 = ORIENTED_EDGE ( 'NONE', *, *, #223, .F. ) ;
#43 = DIRECTION ( 'NONE',  ( -1.000000000000000000, 0.0000000000000000000, 0.0000000000000000000 ) ) ;
#44 = VERTEX_POINT ( 'NONE', #24 ) ;
#45 = CARTESIAN_POINT ( 'NONE',  ( 0.0000000000000000000, 0.0000000000000000000, 0.0000000000000000000 ) ) ;
#46 = AXIS2_PLACEMENT_3D ( 'NONE', #144, #85, #260 ) ;
#47 = VERTEX_POINT ( 'NONE', #354 ) ;
#48 = CONICAL_SURFACE ( 'NONE', #143, 0.07873212600000001338, 0.1745329251994332254 ) ;
#49 = CARTESIAN_POINT ( 'NONE',  ( 0.0000000000000000000, 0.0000000000000000000, 0.0000000000000000000 ) ) ;
#50 = DIRECTION ( 'NONE',  ( -0.0000000000000000000, -0.0000000000000000000, -1.000000000000000000 ) ) ;
#51 = DIRECTION ( 'NONE',  ( -1.000000000000000000, 0.0000000000000000000, 0.0000000000000000000 ) ) ;
#52 = CARTESIAN_POINT ( 'NONE',  ( 0.0000000000000000000, 0.0000000000000000000, 0.1574800000000000089 ) ) ;
#53 = EDGE_CURVE ( 'NONE', #160, #145, #340, .T. ) ;
#54 = DIRECTION ( 'NONE',  ( 1.000000000000000000, 0.0000000000000000000, 0.0000000000000000000 ) ) ;
#55 = FACE_OUTER_BOUND ( 'NONE', #281, .T. ) ;
#56 = AXIS2_PLACEMENT_3D ( 'NONE', #211, #123, #28 ) ;
#57 = EDGE_LOOP ( 'NONE', ( #272, #290 ) ) ;
#58 = VERTEX_POINT ( 'NONE', #178 ) ;
#59 = FACE_OUTER_BOUND ( 'NONE', #313, .T. ) ;
#60 = AXIS2_PLACEMENT_3D ( 'NONE', #113, #199, #377 ) ;
#61 = CARTESIAN_POINT ( 'NONE',  ( 0.0000000000000000000, 0.0000000000000000000, 0.5905510000000000481 ) ) ;
#62 = LINE ( 'NONE', #186, #32 ) ;
#63 = DIRECTION ( 'NONE',  ( 0.0000000000000000000, 0.0000000000000000000, -1.000000000000000000 ) ) ;
#64 = CIRCLE ( 'NONE', #2, 0.1181100000000000066 ) ;
#65 = DIRECTION ( 'NONE',  ( 1.000000000000000000, 0.0000000000000000000, 0.0000000000000000000 ) ) ;
#66 = DIRECTION ( 'NONE',  ( -0.0000000000000000000, -0.0000000000000000000, -1.000000000000000000 ) ) ;
#67 = VERTEX_POINT ( 'NONE', #376 ) ;
#68 =( NAMED_UNIT ( * ) SI_UNIT ( $, .STERADIAN. ) SOLID_ANGLE_UNIT ( ) );
#69 = ORIENTED_EDGE ( 'NONE', *, *, #223, .T. ) ;
#70 = ORIENTED_EDGE ( 'NONE', *, *, #14, .F. ) ;
#71 = DIRECTION ( 'NONE',  ( 0.0000000000000000000, 0.0000000000000000000, -1.000000000000000000 ) ) ;
#72 = EDGE_LOOP ( 'NONE', ( #310, #17, #227, #26 ) ) ;
#73 = CYLINDRICAL_SURFACE ( 'NONE', #359, 0.07873212600000001338 ) ;
#74 = ORIENTED_EDGE ( 'NONE', *, *, #168, .T. ) ;
#75 = CIRCLE ( 'NONE', #182, 0.07873212600000001338 ) ;
#76 = CARTESIAN_POINT ( 'NONE',  ( 0.0000000000000000000, 0.0000000000000000000, 2.244094000000000033 ) ) ;
#77 = ADVANCED_FACE ( 'NONE', ( #352 ), #171, .T. ) ;
#78 = LENGTH_MEASURE_WITH_UNIT ( LENGTH_MEASURE( 0.02539999999999999897 ), #259 );
#79 = EDGE_CURVE ( 'NONE', #338, #192, #322, .T. ) ;
#80 = ORIENTED_EDGE ( 'NONE', *, *, #204, .F. ) ;
#81 = DIRECTION ( 'NONE',  ( -0.0000000000000000000, -0.0000000000000000000, -1.000000000000000000 ) ) ;
#82 = DIRECTION ( 'NONE',  ( -0.0000000000000000000, -0.0000000000000000000, -1.000000000000000000 ) ) ;
#83 = DIRECTION ( 'NONE',  ( -1.000000000000000000, 0.0000000000000000000, 0.0000000000000000000 ) ) ;
#84 = MECHANICAL_DESIGN_GEOMETRIC_PRESENTATION_REPRESENTATION (  '', ( #231 ), #158 ) ;
#85 = DIRECTION ( 'NONE',  ( 0.0000000000000000000, 0.0000000000000000000, -1.000000000000000000 ) ) ;
#86 = CARTESIAN_POINT ( 'NONE',  ( 0.1181100000000000066, 1.446430334472939084E-17, 2.244094000000000033 ) ) ;
#87 = CYLINDRICAL_SURFACE ( 'NONE', #370, 0.07873212600000001338 ) ;
#88 = AXIS2_PLACEMENT_3D ( 'NONE', #41, #66, #364 ) ;
#89 = DIRECTION ( 'NONE',  ( 1.000000000000000000, 0.0000000000000000000, 0.0000000000000000000 ) ) ;
#90 = ADVANCED_FACE ( 'NONE', ( #55 ), #298, .T. ) ;
#91 = CARTESIAN_POINT ( 'NONE',  ( 0.1181100000000000066, 1.446430334472939084E-17, 2.229093999999999465 ) ) ;
#92 = DIRECTION ( 'NONE',  ( 0.0000000000000000000, 0.0000000000000000000, 1.000000000000000000 ) ) ;
#93 = ADVANCED_FACE ( 'NONE', ( #335 ), #87, .T. ) ;
#94 = EDGE_CURVE ( 'NONE', #338, #67, #109, .T. ) ;
#95 = CIRCLE ( 'NONE', #343, 0.07480300000000002225 ) ;
#96 = DIRECTION ( 'NONE',  ( -0.0000000000000000000, -0.0000000000000000000, -1.000000000000000000 ) ) ;
#97 = ORIENTED_EDGE ( 'NONE', *, *, #209, .T. ) ;
#98 = CARTESIAN_POINT ( 'NONE',  ( 0.07873212600000001338, 9.641904609596613134E-18, 0.1574800000000000089 ) ) ;
#99 = VECTOR ( 'NONE', #179, 39.37007874015748854 ) ;
#100 = DIRECTION ( 'NONE',  ( -0.0000000000000000000, -0.0000000000000000000, -1.000000000000000000 ) ) ;
#101 = EDGE_LOOP ( 'NONE', ( #293, #176, #129, #20 ) ) ;
#102 = CARTESIAN_POINT ( 'NONE',  ( 0.0000000000000000000, 0.0000000000000000000, 0.1574800000000000089 ) ) ;
#103 = ORIENTED_EDGE ( 'NONE', *, *, #262, .F. ) ;
#104 = SURFACE_SIDE_STYLE ('',( #351 ) ) ;
#105 = ORIENTED_EDGE ( 'NONE', *, *, #357, .F. ) ;
#106 = AXIS2_PLACEMENT_3D ( 'NONE', #353, #23, #112 ) ;
#107 = EDGE_CURVE ( 'NONE', #170, #47, #166, .T. ) ;
#108 = ADVANCED_FACE ( 'NONE', ( #330 ), #304, .T. ) ;
#109 = CIRCLE ( 'NONE', #56, 0.1031100000000002570 ) ;
#110 = DIRECTION ( 'NONE',  ( -1.000000000000000000, 0.0000000000000000000, 0.0000000000000000000 ) ) ;
#111 = VECTOR ( 'NONE', #215, 39.37007874015748143 ) ;
#112 = DIRECTION ( 'NONE',  ( 1.000000000000000000, 0.0000000000000000000, -0.0000000000000000000 ) ) ;
#113 = CARTESIAN_POINT ( 'NONE',  ( 0.07480300000000006388, 0.0000000000000000000, 0.5905510000000000481 ) ) ;
#114 = PLANE ( 'NONE',  #106 ) ;
#115 = AXIS2_PLACEMENT_3D ( 'NONE', #35, #100, #38 ) ;
#116 = DIRECTION ( 'NONE',  ( -1.000000000000000000, 0.0000000000000000000, 0.0000000000000000000 ) ) ;
#117 = DIRECTION ( 'NONE',  ( -0.0000000000000000000, -0.0000000000000000000, -1.000000000000000000 ) ) ;
#118 = PRODUCT_DEFINITION ( 'UNKNOWN', '', #180, #29 ) ;
#119 = DIRECTION ( 'NONE',  ( -1.000000000000000000, 0.0000000000000000000, 0.0000000000000000000 ) ) ;
#120 = CIRCLE ( 'NONE', #46, 0.1181100000000000066 ) ;
#121 = CONICAL_SURFACE ( 'NONE', #248, 0.1031100000000002570, 0.7853981633974318477 ) ;
#122 = PRESENTATION_LAYER_ASSIGNMENT (  '', '', ( #231 ) ) ;
#123 = DIRECTION ( 'NONE',  ( 0.0000000000000000000, 0.0000000000000000000, 1.000000000000000000 ) ) ;
#124 = APPLICATION_CONTEXT ( 'automotive_design' ) ;
#125 = DIRECTION ( 'NONE',  ( 0.0000000000000000000, 0.0000000000000000000, -1.000000000000000000 ) ) ;
#126 = LINE ( 'NONE', #98, #318 ) ;
#127 = VECTOR ( 'NONE', #237, 39.37007874015748143 ) ;
#128 = AXIS2_PLACEMENT_3D ( 'NONE', #362, #81, #51 ) ;
#129 = ORIENTED_EDGE ( 'NONE', *, *, #263, .F. ) ;
#130 = FACE_OUTER_BOUND ( 'NONE', #101, .T. ) ;
#131 = EDGE_LOOP ( 'NONE', ( #105, #254 ) ) ;
#132 = DIRECTION ( 'NONE',  ( -1.000000000000000000, 0.0000000000000000000, 0.0000000000000000000 ) ) ;
#133 = EDGE_CURVE ( 'NONE', #58, #286, #22, .T. ) ;
#134 = ORIENTED_EDGE ( 'NONE', *, *, #107, .F. ) ;
#135 = CIRCLE ( 'NONE', #264, 0.1181100000000000066 ) ;
#136 = CARTESIAN_POINT ( 'NONE',  ( 0.07873212600000001338, 9.641904609596613134E-18, 0.0000000000000000000 ) ) ;
#137 = ORIENTED_EDGE ( 'NONE', *, *, #331, .F. ) ;
#138 = SURFACE_STYLE_USAGE ( .BOTH. , #104 ) ;
#139 = ORIENTED_EDGE ( 'NONE', *, *, #210, .F. ) ;
#140 = CYLINDRICAL_SURFACE ( 'NONE', #217, 0.1181100000000000066 ) ;
#141 = SHAPE_DEFINITION_REPRESENTATION ( #7, #379 ) ;
#142 = LINE ( 'NONE', #269, #127 ) ;
#143 = AXIS2_PLACEMENT_3D ( 'NONE', #102, #280, #251 ) ;
#144 = CARTESIAN_POINT ( 'NONE',  ( 0.0000000000000000000, 0.0000000000000000000, 2.229093999999999465 ) ) ;
#145 = VERTEX_POINT ( 'NONE', #30 ) ;
#146 = ORIENTED_EDGE ( 'NONE', *, *, #331, .T. ) ;
#147 = AXIS2_PLACEMENT_3D ( 'NONE', #6, #302, #241 ) ;
#148 = LINE ( 'NONE', #276, #205 ) ;
#149 = ADVANCED_FACE ( 'NONE', ( #151 ), #153, .T. ) ;
#150 = EDGE_CURVE ( 'NONE', #58, #145, #216, .T. ) ;
#151 = FACE_OUTER_BOUND ( 'NONE', #21, .T. ) ;
#152 = LINE ( 'NONE', #245, #111 ) ;
#153 = CONICAL_SURFACE ( 'NONE', #375, 0.1031100000000002570, 0.7853981633974318477 ) ;
#154 = CYLINDRICAL_SURFACE ( 'NONE', #328, 0.07480300000000005001 ) ;
#155 = CARTESIAN_POINT ( 'NONE',  ( -0.07480300000000002225, 0.0000000000000000000, 0.1797631808507871853 ) ) ;
#156 = SURFACE_SIDE_STYLE ('',( #222 ) ) ;
#157 = ORIENTED_EDGE ( 'NONE', *, *, #329, .F. ) ;
#158 =( GEOMETRIC_REPRESENTATION_CONTEXT ( 3 ) GLOBAL_UNCERTAINTY_ASSIGNED_CONTEXT ( ( #172 ) ) GLOBAL_UNIT_ASSIGNED_CONTEXT ( ( #316, #219, #68 ) ) REPRESENTATION_CONTEXT ( 'NONE', 'WORKASPACE' ) );
#159 = FILL_AREA_STYLE ('',( #309 ) ) ;
#160 = VERTEX_POINT ( 'NONE', #155 ) ;
#161 = DIRECTION ( 'NONE',  ( -0.0000000000000000000, -0.0000000000000000000, -1.000000000000000000 ) ) ;
#162 = ORIENTED_EDGE ( 'NONE', *, *, #133, .T. ) ;
#163 = CARTESIAN_POINT ( 'NONE',  ( 0.1031100000000002570, 1.354581824536888722E-17, 2.244094000000000033 ) ) ;
#164 = ORIENTED_EDGE ( 'NONE', *, *, #94, .T. ) ;
#165 = MECHANICAL_DESIGN_GEOMETRIC_PRESENTATION_REPRESENTATION (  '', ( #184 ), #207 ) ;
#166 = CIRCLE ( 'NONE', #294, 0.07873212600000001338 ) ;
#167 = EDGE_CURVE ( 'NONE', #67, #338, #363, .T. ) ;
#168 = EDGE_CURVE ( 'NONE', #194, #44, #64, .T. ) ;
#169 = ORIENTED_EDGE ( 'NONE', *, *, #191, .T. ) ;
#170 = VERTEX_POINT ( 'NONE', #332 ) ;
#171 = CYLINDRICAL_SURFACE ( 'NONE', #174, 0.07480300000000005001 ) ;
#172 = UNCERTAINTY_MEASURE_WITH_UNIT (LENGTH_MEASURE( 1.000000000000000082E-05 ), #316, 'distance_accuracy_value', 'NONE');
#173 = AXIS2_PLACEMENT_3D ( 'NONE', #49, #296, #54 ) ;
#174 = AXIS2_PLACEMENT_3D ( 'NONE', #206, #82, #203 ) ;
#175 = VECTOR ( 'NONE', #96, 39.37007874015748143 ) ;
#176 = ORIENTED_EDGE ( 'NONE', *, *, #249, .T. ) ;
#177 =( NAMED_UNIT ( * ) SI_UNIT ( $, .STERADIAN. ) SOLID_ANGLE_UNIT ( ) );
#178 = CARTESIAN_POINT ( 'NONE',  ( 0.07480300000000006388, 9.160725451661953287E-18, 0.5905510000000000481 ) ) ;
#179 = DIRECTION ( 'NONE',  ( 0.7071067811865358044, 8.659560562354788645E-17, -0.7071067811865590080 ) ) ;
#180 = PRODUCT_DEFINITION_FORMATION_WITH_SPECIFIED_SOURCE ( 'ANY', '', #334, .NOT_KNOWN. ) ;
#181 = CARTESIAN_POINT ( 'NONE',  ( 0.0000000000000000000, 0.0000000000000000000, 2.229093999999999465 ) ) ;
#182 = AXIS2_PLACEMENT_3D ( 'NONE', #52, #240, #110 ) ;
#183 = EDGE_CURVE ( 'NONE', #160, #201, #148, .T. ) ;
#184 = STYLED_ITEM ( 'NONE', ( #200 ), #379 ) ;
#185 = DIRECTION ( 'NONE',  ( 1.000000000000000000, 0.0000000000000000000, -0.0000000000000000000 ) ) ;
#186 = CARTESIAN_POINT ( 'NONE',  ( -0.07873212600000001338, 0.0000000000000000000, 0.0000000000000000000 ) ) ;
#187 = CARTESIAN_POINT ( 'NONE',  ( 0.0000000000000000000, 0.0000000000000000000, 2.244094000000000033 ) ) ;
#188 = DIRECTION ( 'NONE',  ( -0.0000000000000000000, -0.0000000000000000000, -1.000000000000000000 ) ) ;
#189 = SURFACE_STYLE_USAGE ( .BOTH. , #156 ) ;
#190 = EDGE_LOOP ( 'NONE', ( #284, #220, #139, #80 ) ) ;
#191 = EDGE_CURVE ( 'NONE', #201, #170, #62, .T. ) ;
#192 = VERTEX_POINT ( 'NONE', #91 ) ;
#193 = LINE ( 'NONE', #136, #12 ) ;
#194 = VERTEX_POINT ( 'NONE', #3 ) ;
#195 = DIMENSIONAL_EXPONENTS ( 1.000000000000000000, 0.0000000000000000000, 0.0000000000000000000, 0.0000000000000000000, 0.0000000000000000000, 0.0000000000000000000, 0.0000000000000000000 ) ;
#196 = FACE_OUTER_BOUND ( 'NONE', #350, .T. ) ;
#197 = ORIENTED_EDGE ( 'NONE', *, *, #191, .F. ) ;
#198 = AXIS2_PLACEMENT_3D ( 'NONE', #243, #273, #89 ) ;
#199 = DIRECTION ( 'NONE',  ( -0.0000000000000000000, 0.0000000000000000000, -1.000000000000000000 ) ) ;
#200 = PRESENTATION_STYLE_ASSIGNMENT (( #138 ) ) ;
#201 = VERTEX_POINT ( 'NONE', #327 ) ;
#202 =( NAMED_UNIT ( * ) SI_UNIT ( $, .STERADIAN. ) SOLID_ANGLE_UNIT ( ) );
#203 = DIRECTION ( 'NONE',  ( -1.000000000000000000, 0.0000000000000000000, 0.0000000000000000000 ) ) ;
#204 = EDGE_CURVE ( 'NONE', #67, #256, #10, .T. ) ;
#205 = VECTOR ( 'NONE', #33, 39.37007874015748143 ) ;
#206 = CARTESIAN_POINT ( 'NONE',  ( 0.0000000000000000000, 0.0000000000000000000, 0.0000000000000000000 ) ) ;
#207 =( GEOMETRIC_REPRESENTATION_CONTEXT ( 3 ) GLOBAL_UNCERTAINTY_ASSIGNED_CONTEXT ( ( #299 ) ) GLOBAL_UNIT_ASSIGNED_CONTEXT ( ( #257, #292, #177 ) ) REPRESENTATION_CONTEXT ( 'NONE', 'WORKASPACE' ) );
#208 = ORIENTED_EDGE ( 'NONE', *, *, #150, .F. ) ;
#209 = EDGE_CURVE ( 'NONE', #286, #160, #152, .T. ) ;
#210 = EDGE_CURVE ( 'NONE', #256, #192, #135, .T. ) ;
#211 = CARTESIAN_POINT ( 'NONE',  ( 0.0000000000000000000, 0.0000000000000000000, 2.244094000000000033 ) ) ;
#212 = DIRECTION ( 'NONE',  ( -0.0000000000000000000, -0.0000000000000000000, -1.000000000000000000 ) ) ;
#213 = COLOUR_RGB ( '',0.7921568627450980005, 0.8196078431372548767, 0.9333333333333333481 ) ;
#214 = DIRECTION ( 'NONE',  ( -0.0000000000000000000, -0.0000000000000000000, -1.000000000000000000 ) ) ;
#215 = DIRECTION ( 'NONE',  ( -0.0000000000000000000, -0.0000000000000000000, -1.000000000000000000 ) ) ;
#216 = LINE ( 'NONE', #274, #277 ) ;
#217 = AXIS2_PLACEMENT_3D ( 'NONE', #76, #50, #355 ) ;
#218 = CIRCLE ( 'NONE', #115, 0.07873212600000001338 ) ;
#219 =( NAMED_UNIT ( * ) PLANE_ANGLE_UNIT ( ) SI_UNIT ( $, .RADIAN. ) );
#220 = ORIENTED_EDGE ( 'NONE', *, *, #79, .T. ) ;
#221 = ADVANCED_FACE ( 'NONE', ( #59 ), #154, .T. ) ;
#222 = SURFACE_STYLE_FILL_AREA ( #159 ) ;
#223 = EDGE_CURVE ( 'NONE', #192, #194, #306, .T. ) ;
#224 = MANIFOLD_SOLID_BREP ( 'Cut-Revolve1', #349 ) ;
#225 = PRESENTATION_LAYER_ASSIGNMENT (  '', '', ( #184 ) ) ;
#226 = DIRECTION ( 'NONE',  ( -1.000000000000000000, 0.0000000000000000000, 0.0000000000000000000 ) ) ;
#227 = ORIENTED_EDGE ( 'NONE', *, *, #53, .F. ) ;
#228 = DIRECTION ( 'NONE',  ( -0.0000000000000000000, -0.0000000000000000000, -1.000000000000000000 ) ) ;
#229 = APPLICATION_PROTOCOL_DEFINITION ( 'draft international standard', 'automotive_design', 1998, #261 ) ;
#230 = ORIENTED_EDGE ( 'NONE', *, *, #263, .T. ) ;
#231 = STYLED_ITEM ( 'NONE', ( #346 ), #224 ) ;
#232 = FILL_AREA_STYLE ('',( #268 ) ) ;
#233 = DIRECTION ( 'NONE',  ( -0.0000000000000000000, -0.0000000000000000000, -1.000000000000000000 ) ) ;
#234 = ADVANCED_FACE ( 'NONE', ( #196 ), #288, .T. ) ;
#235 = PLANE ( 'NONE',  #60 ) ;
#236 = PRODUCT_CONTEXT ( 'NONE', #261, 'mechanical' ) ;
#237 = DIRECTION ( 'NONE',  ( -0.0000000000000000000, -0.0000000000000000000, -1.000000000000000000 ) ) ;
#238 = UNCERTAINTY_MEASURE_WITH_UNIT (LENGTH_MEASURE( 1.000000000000000082E-05 ), #239, 'distance_accuracy_value', 'NONE');
#239 =( CONVERSION_BASED_UNIT ( 'INCH', #78 ) LENGTH_UNIT ( ) NAMED_UNIT ( #344 ) );
#240 = DIRECTION ( 'NONE',  ( -0.0000000000000000000, -0.0000000000000000000, -1.000000000000000000 ) ) ;
#241 = DIRECTION ( 'NONE',  ( -1.000000000000000000, 0.0000000000000000000, 0.0000000000000000000 ) ) ;
#242 = CARTESIAN_POINT ( 'NONE',  ( -0.1031100000000002570, 0.0000000000000000000, 2.244094000000000033 ) ) ;
#243 = CARTESIAN_POINT ( 'NONE',  ( 0.0000000000000000000, 0.0000000000000000000, 2.244094000000000033 ) ) ;
#244 =( GEOMETRIC_REPRESENTATION_CONTEXT ( 3 ) GLOBAL_UNCERTAINTY_ASSIGNED_CONTEXT ( ( #238 ) ) GLOBAL_UNIT_ASSIGNED_CONTEXT ( ( #239, #378, #202 ) ) REPRESENTATION_CONTEXT ( 'NONE', 'WORKASPACE' ) );
#245 = CARTESIAN_POINT ( 'NONE',  ( -0.07480300000000005001, 0.0000000000000000000, 0.0000000000000000000 ) ) ;
#246 = CARTESIAN_POINT ( 'NONE',  ( 0.0000000000000000000, 0.0000000000000000000, 0.0000000000000000000 ) ) ;
#247 = DIRECTION ( 'NONE',  ( -1.000000000000000000, 0.0000000000000000000, 0.0000000000000000000 ) ) ;
#248 = AXIS2_PLACEMENT_3D ( 'NONE', #345, #71, #255 ) ;
#249 = EDGE_CURVE ( 'NONE', #145, #252, #126, .T. ) ;
#250 = EDGE_LOOP ( 'NONE', ( #373, #69, #157, #308 ) ) ;
#251 = DIRECTION ( 'NONE',  ( -1.000000000000000000, 0.0000000000000000000, 0.0000000000000000000 ) ) ;
#252 = VERTEX_POINT ( 'NONE', #16 ) ;
#253 = LENGTH_MEASURE_WITH_UNIT ( LENGTH_MEASURE( 0.02539999999999999897 ), #336 );
#254 = ORIENTED_EDGE ( 'NONE', *, *, #133, .F. ) ;
#255 = DIRECTION ( 'NONE',  ( -1.000000000000000000, 0.0000000000000000000, 0.0000000000000000000 ) ) ;
#256 = VERTEX_POINT ( 'NONE', #307 ) ;
#257 =( CONVERSION_BASED_UNIT ( 'INCH', #19 ) LENGTH_UNIT ( ) NAMED_UNIT ( #195 ) );
#258 = ORIENTED_EDGE ( 'NONE', *, *, #204, .T. ) ;
#259 =( LENGTH_UNIT ( ) NAMED_UNIT ( * ) SI_UNIT ( $, .METRE. ) );
#260 = DIRECTION ( 'NONE',  ( 1.000000000000000000, 0.0000000000000000000, 0.0000000000000000000 ) ) ;
#261 = APPLICATION_CONTEXT ( 'automotive_design' ) ;
#262 = EDGE_CURVE ( 'NONE', #252, #47, #193, .T. ) ;
#263 = EDGE_CURVE ( 'NONE', #201, #252, #39, .T. ) ;
#264 = AXIS2_PLACEMENT_3D ( 'NONE', #181, #63, #65 ) ;
#265 = CARTESIAN_POINT ( 'NONE',  ( 0.0000000000000000000, 0.0000000000000000000, 0.1797631808507871853 ) ) ;
#266 = APPLICATION_PROTOCOL_DEFINITION ( 'draft international standard', 'automotive_design', 1998, #124 ) ;
#267 = FACE_BOUND ( 'NONE', #131, .T. ) ;
#268 = FILL_AREA_STYLE_COLOUR ( '', #8 ) ;
#269 = CARTESIAN_POINT ( 'NONE',  ( -0.1181100000000000066, 0.0000000000000000000, 2.244094000000000033 ) ) ;
#270 = AXIS2_PLACEMENT_3D ( 'NONE', #265, #233, #83 ) ;
#271 = CIRCLE ( 'NONE', #311, 0.1181100000000000066 ) ;
#272 = ORIENTED_EDGE ( 'NONE', *, *, #107, .T. ) ;
#273 = DIRECTION ( 'NONE',  ( 0.0000000000000000000, 0.0000000000000000000, 1.000000000000000000 ) ) ;
#274 = CARTESIAN_POINT ( 'NONE',  ( 0.07480300000000005001, 9.160725451661951746E-18, 0.0000000000000000000 ) ) ;
#275 = EDGE_CURVE ( 'NONE', #47, #170, #218, .T. ) ;
#276 = CARTESIAN_POINT ( 'NONE',  ( -0.07873212600000001338, 0.0000000000000000000, 0.1574800000000000089 ) ) ;
#277 = VECTOR ( 'NONE', #356, 39.37007874015748143 ) ;
#278 = CARTESIAN_POINT ( 'NONE',  ( 0.0000000000000000000, 0.0000000000000000000, 0.0000000000000000000 ) ) ;
#279 = DIRECTION ( 'NONE',  ( -0.0000000000000000000, -0.0000000000000000000, -1.000000000000000000 ) ) ;
#280 = DIRECTION ( 'NONE',  ( -0.0000000000000000000, -0.0000000000000000000, -1.000000000000000000 ) ) ;
#281 = EDGE_LOOP ( 'NONE', ( #36, #164 ) ) ;
#282 = AXIS2_PLACEMENT_3D ( 'NONE', #61, #9, #119 ) ;
#283 = DIRECTION ( 'NONE',  ( -0.0000000000000000000, -0.0000000000000000000, -1.000000000000000000 ) ) ;
#284 = ORIENTED_EDGE ( 'NONE', *, *, #94, .F. ) ;
#285 = CARTESIAN_POINT ( 'NONE',  ( 0.0000000000000000000, 0.0000000000000000000, 0.1574800000000000089 ) ) ;
#286 = VERTEX_POINT ( 'NONE', #339 ) ;
#287 = EDGE_LOOP ( 'NONE', ( #230, #365, #134, #197 ) ) ;
#288 = CONICAL_SURFACE ( 'NONE', #324, 0.07873212600000001338, 0.1745329251994332254 ) ;
#289 = EDGE_LOOP ( 'NONE', ( #42, #325, #372, #320 ) ) ;
#290 = ORIENTED_EDGE ( 'NONE', *, *, #275, .T. ) ;
#291 = ADVANCED_FACE ( 'NONE', ( #130 ), #48, .T. ) ;
#292 =( NAMED_UNIT ( * ) PLANE_ANGLE_UNIT ( ) SI_UNIT ( $, .RADIAN. ) );
#293 = ORIENTED_EDGE ( 'NONE', *, *, #53, .T. ) ;
#294 = AXIS2_PLACEMENT_3D ( 'NONE', #246, #303, #333 ) ;
#295 = FACE_OUTER_BOUND ( 'NONE', #57, .T. ) ;
#296 = DIRECTION ( 'NONE',  ( 0.0000000000000000000, 0.0000000000000000000, 1.000000000000000000 ) ) ;
#297 = EDGE_LOOP ( 'NONE', ( #337, #74 ) ) ;
#298 = PLANE ( 'NONE',  #323 ) ;
#299 = UNCERTAINTY_MEASURE_WITH_UNIT (LENGTH_MEASURE( 1.000000000000000082E-05 ), #257, 'distance_accuracy_value', 'NONE');
#300 = CIRCLE ( 'NONE', #128, 0.07480300000000006388 ) ;
#301 = DIRECTION ( 'NONE',  ( -1.000000000000000000, 0.0000000000000000000, 0.0000000000000000000 ) ) ;
#302 = DIRECTION ( 'NONE',  ( -0.0000000000000000000, -0.0000000000000000000, -1.000000000000000000 ) ) ;
#303 = DIRECTION ( 'NONE',  ( -0.0000000000000000000, -0.0000000000000000000, -1.000000000000000000 ) ) ;
#304 = CYLINDRICAL_SURFACE ( 'NONE', #147, 0.1181100000000000066 ) ;
#305 = VECTOR ( 'NONE', #31, 39.37007874015748854 ) ;
#306 = LINE ( 'NONE', #86, #175 ) ;
#307 = CARTESIAN_POINT ( 'NONE',  ( -0.1181100000000000066, 0.0000000000000000000, 2.229093999999999465 ) ) ;
#308 = ORIENTED_EDGE ( 'NONE', *, *, #37, .F. ) ;
#309 = FILL_AREA_STYLE_COLOUR ( '', #213 ) ;
#310 = ORIENTED_EDGE ( 'NONE', *, *, #357, .T. ) ;
#311 = AXIS2_PLACEMENT_3D ( 'NONE', #366, #228, #226 ) ;
#312 = CARTESIAN_POINT ( 'NONE',  ( 0.0000000000000000000, 0.0000000000000000000, 0.1797631808507871853 ) ) ;
#313 = EDGE_LOOP ( 'NONE', ( #208, #162, #97, #137 ) ) ;
#314 = DIMENSIONAL_EXPONENTS ( 1.000000000000000000, 0.0000000000000000000, 0.0000000000000000000, 0.0000000000000000000, 0.0000000000000000000, 0.0000000000000000000, 0.0000000000000000000 ) ;
#315 = EDGE_LOOP ( 'NONE', ( #103, #40, #169, #368 ) ) ;
#316 =( CONVERSION_BASED_UNIT ( 'INCH', #253 ) LENGTH_UNIT ( ) NAMED_UNIT ( #314 ) );
#317 = ORIENTED_EDGE ( 'NONE', *, *, #27, .F. ) ;
#318 = VECTOR ( 'NONE', #15, 39.37007874015748143 ) ;
#319 = ORIENTED_EDGE ( 'NONE', *, *, #79, .F. ) ;
#320 = ORIENTED_EDGE ( 'NONE', *, *, #168, .F. ) ;
#321 =( LENGTH_UNIT ( ) NAMED_UNIT ( * ) SI_UNIT ( $, .METRE. ) );
#322 = LINE ( 'NONE', #326, #99 ) ;
#323 = AXIS2_PLACEMENT_3D ( 'NONE', #358, #92, #185 ) ;
#324 = AXIS2_PLACEMENT_3D ( 'NONE', #285, #283, #43 ) ;
#325 = ORIENTED_EDGE ( 'NONE', *, *, #14, .T. ) ;
#326 = CARTESIAN_POINT ( 'NONE',  ( 0.1031100000000002570, 1.262733314600838667E-17, 2.244094000000000033 ) ) ;
#327 = CARTESIAN_POINT ( 'NONE',  ( -0.07873212600000001338, 0.0000000000000000000, 0.1574800000000000089 ) ) ;
#328 = AXIS2_PLACEMENT_3D ( 'NONE', #278, #188, #116 ) ;
#329 = EDGE_CURVE ( 'NONE', #44, #194, #271, .T. ) ;
#330 = FACE_OUTER_BOUND ( 'NONE', #289, .T. ) ;
#331 = EDGE_CURVE ( 'NONE', #145, #160, #95, .T. ) ;
#332 = CARTESIAN_POINT ( 'NONE',  ( -0.07873212600000001338, 0.0000000000000000000, 0.0000000000000000000 ) ) ;
#333 = DIRECTION ( 'NONE',  ( -1.000000000000000000, 0.0000000000000000000, 0.0000000000000000000 ) ) ;
#334 = PRODUCT ( 'Micro_MMBM-040-15', 'Micro_MMBM-040-15', '', ( #236 ) ) ;
#335 = FACE_OUTER_BOUND ( 'NONE', #315, .T. ) ;
#336 =( LENGTH_UNIT ( ) NAMED_UNIT ( * ) SI_UNIT ( $, .METRE. ) );
#337 = ORIENTED_EDGE ( 'NONE', *, *, #329, .T. ) ;
#338 = VERTEX_POINT ( 'NONE', #163 ) ;
#339 = CARTESIAN_POINT ( 'NONE',  ( -0.07480300000000006388, 0.0000000000000000000, 0.5905510000000000481 ) ) ;
#340 = CIRCLE ( 'NONE', #270, 0.07480300000000002225 ) ;
#341 = ORIENTED_EDGE ( 'NONE', *, *, #183, .T. ) ;
#342 = ADVANCED_FACE ( 'NONE', ( #369 ), #121, .T. ) ;
#343 = AXIS2_PLACEMENT_3D ( 'NONE', #312, #161, #132 ) ;
#344 = DIMENSIONAL_EXPONENTS ( 1.000000000000000000, 0.0000000000000000000, 0.0000000000000000000, 0.0000000000000000000, 0.0000000000000000000, 0.0000000000000000000, 0.0000000000000000000 ) ;
#345 = CARTESIAN_POINT ( 'NONE',  ( 0.0000000000000000000, 0.0000000000000000000, 2.244094000000000033 ) ) ;
#346 = PRESENTATION_STYLE_ASSIGNMENT (( #189 ) ) ;
#347 = ORIENTED_EDGE ( 'NONE', *, *, #167, .F. ) ;
#348 = ADVANCED_FACE ( 'NONE', ( #371 ), #73, .T. ) ;
#349 = CLOSED_SHELL ( 'NONE', ( #348, #77, #291, #342, #13, #108, #90, #149, #25, #234, #221, #93, #4 ) ) ;
#350 = EDGE_LOOP ( 'NONE', ( #18, #146, #341, #317 ) ) ;
#351 = SURFACE_STYLE_FILL_AREA ( #232 ) ;
#352 = FACE_OUTER_BOUND ( 'NONE', #72, .T. ) ;
#353 = CARTESIAN_POINT ( 'NONE',  ( 0.0000000000000000000, 0.0000000000000000000, 0.0000000000000000000 ) ) ;
#354 = CARTESIAN_POINT ( 'NONE',  ( 0.07873212600000001338, 9.641904609596613134E-18, 0.0000000000000000000 ) ) ;
#355 = DIRECTION ( 'NONE',  ( -1.000000000000000000, 0.0000000000000000000, 0.0000000000000000000 ) ) ;
#356 = DIRECTION ( 'NONE',  ( -0.0000000000000000000, -0.0000000000000000000, -1.000000000000000000 ) ) ;
#357 = EDGE_CURVE ( 'NONE', #286, #58, #300, .T. ) ;
#358 = CARTESIAN_POINT ( 'NONE',  ( 0.0000000000000000000, 0.0000000000000000000, 2.244094000000000033 ) ) ;
#359 = AXIS2_PLACEMENT_3D ( 'NONE', #45, #279, #247 ) ;
#360 = DIRECTION ( 'NONE',  ( -1.000000000000000000, 0.0000000000000000000, 0.0000000000000000000 ) ) ;
#361 = CARTESIAN_POINT ( 'NONE',  ( 0.0000000000000000000, 0.0000000000000000000, 0.5905510000000000481 ) ) ;
#362 = CARTESIAN_POINT ( 'NONE',  ( 0.0000000000000000000, 0.0000000000000000000, 0.5905510000000000481 ) ) ;
#363 = CIRCLE ( 'NONE', #198, 0.1031100000000002570 ) ;
#364 = DIRECTION ( 'NONE',  ( -1.000000000000000000, 0.0000000000000000000, 0.0000000000000000000 ) ) ;
#365 = ORIENTED_EDGE ( 'NONE', *, *, #262, .T. ) ;
#366 = CARTESIAN_POINT ( 'NONE',  ( 0.0000000000000000000, 0.0000000000000000000, 0.5905510000000000481 ) ) ;
#367 = PRODUCT_RELATED_PRODUCT_CATEGORY ( 'part', '', ( #334 ) ) ;
#368 = ORIENTED_EDGE ( 'NONE', *, *, #275, .F. ) ;
#369 = FACE_OUTER_BOUND ( 'NONE', #190, .T. ) ;
#370 = AXIS2_PLACEMENT_3D ( 'NONE', #34, #212, #301 ) ;
#371 = FACE_OUTER_BOUND ( 'NONE', #287, .T. ) ;
#372 = ORIENTED_EDGE ( 'NONE', *, *, #37, .T. ) ;
#373 = ORIENTED_EDGE ( 'NONE', *, *, #210, .T. ) ;
#374 = FACE_OUTER_BOUND ( 'NONE', #250, .T. ) ;
#375 = AXIS2_PLACEMENT_3D ( 'NONE', #187, #125, #360 ) ;
#376 = CARTESIAN_POINT ( 'NONE',  ( -0.1031100000000002570, 0.0000000000000000000, 2.244094000000000033 ) ) ;
#377 = DIRECTION ( 'NONE',  ( -1.000000000000000000, 0.0000000000000000000, 0.0000000000000000000 ) ) ;
#378 =( NAMED_UNIT ( * ) PLANE_ANGLE_UNIT ( ) SI_UNIT ( $, .RADIAN. ) );
#379 = ADVANCED_BREP_SHAPE_REPRESENTATION ( 'Micro_MMBM-040-15', ( #224, #173 ), #244 ) ;
ENDSEC;
END-ISO-10303-21;
