ISO-10303-21;
HEADER;
FILE_DESCRIPTION (( 'STEP AP214' ),
    '1' );
FILE_NAME ('Micro_SFL-125-22.STEP',
    '2021-09-02T04:36:34',
    ( '' ),
    ( '' ),
    'SwSTEP 2.0',
    'SolidWorks 2020',
    '' );
FILE_SCHEMA (( 'AUTOMOTIVE_DESIGN' ));
ENDSEC;

DATA;
#1 = VERTEX_POINT ( 'NONE', #98 ) ;
#2 = ADVANCED_FACE ( 'NONE', ( #260 ), #100, .T. ) ;
#3 = AXIS2_PLACEMENT_3D ( 'NONE', #216, #103, #11 ) ;
#4 = ORIENTED_EDGE ( 'NONE', *, *, #59, .T. ) ;
#5 = PRODUCT ( 'Micro_SFL-125-22', 'Micro_SFL-125-22', '', ( #77 ) ) ;
#6 = DIRECTION ( 'NONE',  ( 0.0000000000000000000, 0.0000000000000000000, 1.000000000000000000 ) ) ;
#7 = ORIENTED_EDGE ( 'NONE', *, *, #232, .F. ) ;
#8 = CONICAL_SURFACE ( 'NONE', #40, 0.06243749999999999301, 0.1745329251994339748 ) ;
#9 = ADVANCED_FACE ( 'NONE', ( #237 ), #255, .T. ) ;
#10 = VERTEX_POINT ( 'NONE', #164 ) ;
#11 = DIRECTION ( 'NONE',  ( 1.000000000000000000, 0.0000000000000000000, 0.0000000000000000000 ) ) ;
#12 = DIRECTION ( 'NONE',  ( -1.224646799147353454E-16, -0.0000000000000000000, -1.000000000000000000 ) ) ;
#13 = STYLED_ITEM ( 'NONE', ( #151 ), #115 ) ;
#14 = CARTESIAN_POINT ( 'NONE',  ( 0.06250000000000002776, 7.654042494670959086E-18, 0.2503544551137261154 ) ) ;
#15 = CARTESIAN_POINT ( 'NONE',  ( -0.06243749999999995831, 7.646388452176285834E-18, 0.2500000000000000000 ) ) ;
#16 = DIRECTION ( 'NONE',  ( -0.0000000000000000000, -0.0000000000000000000, -1.000000000000000000 ) ) ;
#17 =( GEOMETRIC_REPRESENTATION_CONTEXT ( 3 ) GLOBAL_UNCERTAINTY_ASSIGNED_CONTEXT ( ( #86 ) ) GLOBAL_UNIT_ASSIGNED_CONTEXT ( ( #32, #68, #253 ) ) REPRESENTATION_CONTEXT ( 'NONE', 'WORKASPACE' ) );
#18 = DIRECTION ( 'NONE',  ( -1.000000000000000000, 0.0000000000000000000, 0.0000000000000000000 ) ) ;
#19 = EDGE_CURVE ( 'NONE', #149, #280, #27, .T. ) ;
#20 = CYLINDRICAL_SURFACE ( 'NONE', #43, 0.06243749999999999994 ) ;
#21 = EDGE_CURVE ( 'NONE', #158, #298, #33, .T. ) ;
#22 = DIRECTION ( 'NONE',  ( 0.1736481776669314692, 0.0000000000000000000, 0.9848077530122077983 ) ) ;
#23 = ORIENTED_EDGE ( 'NONE', *, *, #91, .T. ) ;
#24 = EDGE_CURVE ( 'NONE', #210, #78, #242, .T. ) ;
#25 = STYLED_ITEM ( 'NONE', ( #148 ), #182 ) ;
#26 = EDGE_LOOP ( 'NONE', ( #138, #254, #207, #212 ) ) ;
#27 = CIRCLE ( 'NONE', #299, 0.04750000000000064587 ) ;
#28 = LENGTH_MEASURE_WITH_UNIT ( LENGTH_MEASURE( 0.02539999999999999897 ), #144 );
#29 = ORIENTED_EDGE ( 'NONE', *, *, #21, .F. ) ;
#30 = VECTOR ( 'NONE', #245, 39.37007874015748143 ) ;
#31 = SURFACE_STYLE_FILL_AREA ( #145 ) ;
#32 =( CONVERSION_BASED_UNIT ( 'INCH', #28 ) LENGTH_UNIT ( ) NAMED_UNIT ( #140 ) );
#33 = LINE ( 'NONE', #123, #196 ) ;
#34 = FACE_OUTER_BOUND ( 'NONE', #71, .T. ) ;
#35 = CIRCLE ( 'NONE', #172, 0.06243749999999999301 ) ;
#36 = CARTESIAN_POINT ( 'NONE',  ( 0.0000000000000000000, 0.0000000000000000000, 1.500000000000000222 ) ) ;
#37 = DIRECTION ( 'NONE',  ( 0.0000000000000000000, 0.0000000000000000000, -1.000000000000000000 ) ) ;
#38 = LINE ( 'NONE', #126, #30 ) ;
#39 = LINE ( 'NONE', #199, #81 ) ;
#40 = AXIS2_PLACEMENT_3D ( 'NONE', #294, #109, #243 ) ;
#41 = CARTESIAN_POINT ( 'NONE',  ( 3.065957821073044867E-17, 0.0000000000000000000, 0.2503544551137261154 ) ) ;
#42 = DIRECTION ( 'NONE',  ( -0.0000000000000000000, -0.0000000000000000000, -1.000000000000000000 ) ) ;
#43 = AXIS2_PLACEMENT_3D ( 'NONE', #113, #297, #249 ) ;
#44 = DIMENSIONAL_EXPONENTS ( 1.000000000000000000, 0.0000000000000000000, 0.0000000000000000000, 0.0000000000000000000, 0.0000000000000000000, 0.0000000000000000000, 0.0000000000000000000 ) ;
#45 = LINE ( 'NONE', #136, #102 ) ;
#46 = AXIS2_PLACEMENT_3D ( 'NONE', #87, #6, #70 ) ;
#47 = ORIENTED_EDGE ( 'NONE', *, *, #94, .T. ) ;
#48 = COLOUR_RGB ( '',0.7921568627450980005, 0.8196078431372548767, 0.9333333333333333481 ) ;
#49 = CARTESIAN_POINT ( 'NONE',  ( -0.04750000000000064587, 0.0000000000000000000, 1.500000000000000222 ) ) ;
#50 = CARTESIAN_POINT ( 'NONE',  ( 0.06250000000000000000, 7.654042494670956004E-18, 1.485000000000000764 ) ) ;
#51 = CARTESIAN_POINT ( 'NONE',  ( 0.0000000000000000000, 0.0000000000000000000, 0.0000000000000000000 ) ) ;
#52 = DIRECTION ( 'NONE',  ( -1.000000000000000000, 0.0000000000000000000, 0.0000000000000000000 ) ) ;
#53 = SURFACE_STYLE_USAGE ( .BOTH. , #74 ) ;
#54 = AXIS2_PLACEMENT_3D ( 'NONE', #41, #153, #198 ) ;
#55 = DIRECTION ( 'NONE',  ( -1.000000000000000000, 0.0000000000000000000, 1.224646799147353700E-16 ) ) ;
#56 = FACE_OUTER_BOUND ( 'NONE', #26, .T. ) ;
#57 = FILL_AREA_STYLE_COLOUR ( '', #48 ) ;
#58 = FILL_AREA_STYLE ('',( #57 ) ) ;
#59 = EDGE_CURVE ( 'NONE', #298, #1, #111, .T. ) ;
#60 = DIRECTION ( 'NONE',  ( -0.0000000000000000000, -0.0000000000000000000, -1.000000000000000000 ) ) ;
#61 = VECTOR ( 'NONE', #89, 39.37007874015748143 ) ;
#62 = AXIS2_PLACEMENT_3D ( 'NONE', #268, #37, #295 ) ;
#63 = ADVANCED_FACE ( 'NONE', ( #56 ), #118, .T. ) ;
#64 = EDGE_LOOP ( 'NONE', ( #179, #282, #93, #88 ) ) ;
#65 = CARTESIAN_POINT ( 'NONE',  ( -0.06243750000000001382, 0.0000000000000000000, 1.529277690435257783E-17 ) ) ;
#66 = EDGE_CURVE ( 'NONE', #78, #210, #231, .T. ) ;
#67 = ORIENTED_EDGE ( 'NONE', *, *, #265, .T. ) ;
#68 =( NAMED_UNIT ( * ) PLANE_ANGLE_UNIT ( ) SI_UNIT ( $, .RADIAN. ) );
#69 = EDGE_CURVE ( 'NONE', #1, #298, #283, .T. ) ;
#70 = DIRECTION ( 'NONE',  ( 1.000000000000000000, 0.0000000000000000000, 0.0000000000000000000 ) ) ;
#71 = EDGE_LOOP ( 'NONE', ( #161, #160, #205, #228 ) ) ;
#72 = ADVANCED_FACE ( 'NONE', ( #195 ), #192, .T. ) ;
#73 = ORIENTED_EDGE ( 'NONE', *, *, #91, .F. ) ;
#74 = SURFACE_SIDE_STYLE ('',( #31 ) ) ;
#75 = DIRECTION ( 'NONE',  ( 0.0000000000000000000, 0.0000000000000000000, 1.000000000000000000 ) ) ;
#76 = AXIS2_PLACEMENT_3D ( 'NONE', #240, #42, #181 ) ;
#77 = PRODUCT_CONTEXT ( 'NONE', #226, 'mechanical' ) ;
#78 = VERTEX_POINT ( 'NONE', #14 ) ;
#79 = DIRECTION ( 'NONE',  ( 1.000000000000000000, 0.0000000000000000000, 0.0000000000000000000 ) ) ;
#80 = SURFACE_STYLE_FILL_AREA ( #58 ) ;
#81 = VECTOR ( 'NONE', #121, 39.37007874015748143 ) ;
#82 =( NAMED_UNIT ( * ) PLANE_ANGLE_UNIT ( ) SI_UNIT ( $, .RADIAN. ) );
#83 = CARTESIAN_POINT ( 'NONE',  ( 0.06250000000000000000, 7.654042494670956004E-18, 1.500000000000000222 ) ) ;
#84 = CIRCLE ( 'NONE', #184, 0.06243749999999999301 ) ;
#85 = ORIENTED_EDGE ( 'NONE', *, *, #21, .T. ) ;
#86 = UNCERTAINTY_MEASURE_WITH_UNIT (LENGTH_MEASURE( 1.000000000000000082E-05 ), #32, 'distance_accuracy_value', 'NONE');
#87 = CARTESIAN_POINT ( 'NONE',  ( 0.0000000000000000000, 0.0000000000000000000, 1.500000000000000222 ) ) ;
#88 = ORIENTED_EDGE ( 'NONE', *, *, #202, .F. ) ;
#89 = DIRECTION ( 'NONE',  ( -0.7071067811865456854, 0.0000000000000000000, -0.7071067811865493491 ) ) ;
#90 = ORIENTED_EDGE ( 'NONE', *, *, #59, .F. ) ;
#91 = EDGE_CURVE ( 'NONE', #10, #1, #129, .T. ) ;
#92 = VECTOR ( 'NONE', #173, 39.37007874015748143 ) ;
#93 = ORIENTED_EDGE ( 'NONE', *, *, #24, .F. ) ;
#94 = EDGE_CURVE ( 'NONE', #158, #210, #286, .T. ) ;
#95 = EDGE_LOOP ( 'NONE', ( #4, #272 ) ) ;
#96 = VECTOR ( 'NONE', #60, 39.37007874015748143 ) ;
#97 = EDGE_LOOP ( 'NONE', ( #235, #183 ) ) ;
#98 = CARTESIAN_POINT ( 'NONE',  ( 0.06243750000000001382, 7.646388452176287375E-18, 0.0000000000000000000 ) ) ;
#99 = DIRECTION ( 'NONE',  ( -1.224646799147353454E-16, -0.0000000000000000000, -1.000000000000000000 ) ) ;
#100 = CYLINDRICAL_SURFACE ( 'NONE', #246, 0.06243749999999999994 ) ;
#101 = DIRECTION ( 'NONE',  ( 1.000000000000000000, 0.0000000000000000000, 0.0000000000000000000 ) ) ;
#102 = VECTOR ( 'NONE', #22, 39.37007874015748143 ) ;
#103 = DIRECTION ( 'NONE',  ( 0.0000000000000000000, 0.0000000000000000000, 1.000000000000000000 ) ) ;
#104 = VECTOR ( 'NONE', #200, 39.37007874015748143 ) ;
#105 = CARTESIAN_POINT ( 'NONE',  ( 0.06243749999999999994, 7.646388452176287375E-18, -7.646388452176288915E-18 ) ) ;
#106 = PRODUCT_DEFINITION ( 'UNKNOWN', '', #167, #248 ) ;
#107 = CARTESIAN_POINT ( 'NONE',  ( 9.364125142994979186E-34, 0.0000000000000000000, 7.646388452176288915E-18 ) ) ;
#108 = EDGE_CURVE ( 'NONE', #273, #185, #117, .T. ) ;
#109 = DIRECTION ( 'NONE',  ( 1.224646799147353454E-16, 0.0000000000000000000, 1.000000000000000000 ) ) ;
#110 = DIRECTION ( 'NONE',  ( -1.224646799147353454E-16, -0.0000000000000000000, -1.000000000000000000 ) ) ;
#111 = CIRCLE ( 'NONE', #156, 0.06243750000000001382 ) ;
#112 = LINE ( 'NONE', #83, #96 ) ;
#113 = CARTESIAN_POINT ( 'NONE',  ( 0.0000000000000000000, 0.0000000000000000000, 0.0000000000000000000 ) ) ;
#114 = ORIENTED_EDGE ( 'NONE', *, *, #209, .F. ) ;
#115 = MANIFOLD_SOLID_BREP ( 'Cut-Revolve1', #287 ) ;
#116 = ORIENTED_EDGE ( 'NONE', *, *, #24, .T. ) ;
#117 = CIRCLE ( 'NONE', #62, 0.06250000000000000000 ) ;
#118 = CYLINDRICAL_SURFACE ( 'NONE', #137, 0.06250000000000000000 ) ;
#119 = EDGE_LOOP ( 'NONE', ( #252, #277, #67, #120 ) ) ;
#120 = ORIENTED_EDGE ( 'NONE', *, *, #201, .F. ) ;
#121 = DIRECTION ( 'NONE',  ( -0.0000000000000000000, -0.0000000000000000000, -1.000000000000000000 ) ) ;
#122 = CARTESIAN_POINT ( 'NONE',  ( 0.0000000000000000000, 0.0000000000000000000, 1.500000000000000222 ) ) ;
#123 = CARTESIAN_POINT ( 'NONE',  ( -0.06243749999999999994, 0.0000000000000000000, 7.646388452176288915E-18 ) ) ;
#124 = ADVANCED_FACE ( 'NONE', ( #34 ), #8, .T. ) ;
#125 = CIRCLE ( 'NONE', #46, 0.04750000000000064587 ) ;
#126 = CARTESIAN_POINT ( 'NONE',  ( 0.04750000000000064587, 5.817072295950006528E-18, 1.500000000000000222 ) ) ;
#127 =( NAMED_UNIT ( * ) SI_UNIT ( $, .STERADIAN. ) SOLID_ANGLE_UNIT ( ) );
#128 = PRESENTATION_LAYER_ASSIGNMENT (  '', '', ( #13 ) ) ;
#129 = LINE ( 'NONE', #105, #92 ) ;
#130 = SURFACE_SIDE_STYLE ('',( #80 ) ) ;
#131 = DIRECTION ( 'NONE',  ( 0.0000000000000000000, 0.0000000000000000000, -1.000000000000000000 ) ) ;
#132 = CARTESIAN_POINT ( 'NONE',  ( 0.04750000000000064587, 6.735557395310482421E-18, 1.500000000000000222 ) ) ;
#133 = EDGE_CURVE ( 'NONE', #149, #185, #38, .T. ) ;
#134 = ORIENTED_EDGE ( 'NONE', *, *, #69, .F. ) ;
#135 = PRESENTATION_LAYER_ASSIGNMENT (  '', '', ( #25 ) ) ;
#136 = CARTESIAN_POINT ( 'NONE',  ( 0.06243750000000002770, 0.0000000000000000000, 0.2500000000000000000 ) ) ;
#137 = AXIS2_PLACEMENT_3D ( 'NONE', #155, #16, #177 ) ;
#138 = ORIENTED_EDGE ( 'NONE', *, *, #142, .F. ) ;
#139 = ADVANCED_FACE ( 'NONE', ( #266 ), #187, .T. ) ;
#140 = DIMENSIONAL_EXPONENTS ( 1.000000000000000000, 0.0000000000000000000, 0.0000000000000000000, 0.0000000000000000000, 0.0000000000000000000, 0.0000000000000000000, 0.0000000000000000000 ) ;
#141 = AXIS2_PLACEMENT_3D ( 'NONE', #288, #274, #229 ) ;
#142 = EDGE_CURVE ( 'NONE', #185, #78, #112, .T. ) ;
#143 = ORIENTED_EDGE ( 'NONE', *, *, #133, .T. ) ;
#144 =( LENGTH_UNIT ( ) NAMED_UNIT ( * ) SI_UNIT ( $, .METRE. ) );
#145 = FILL_AREA_STYLE ('',( #165 ) ) ;
#146 = AXIS2_PLACEMENT_3D ( 'NONE', #159, #211, #261 ) ;
#147 = DIRECTION ( 'NONE',  ( -1.224646799147353454E-16, -0.0000000000000000000, -1.000000000000000000 ) ) ;
#148 = PRESENTATION_STYLE_ASSIGNMENT (( #53 ) ) ;
#149 = VERTEX_POINT ( 'NONE', #132 ) ;
#150 = APPLICATION_PROTOCOL_DEFINITION ( 'draft international standard', 'automotive_design', 1998, #269 ) ;
#151 = PRESENTATION_STYLE_ASSIGNMENT (( #154 ) ) ;
#152 =( LENGTH_UNIT ( ) NAMED_UNIT ( * ) SI_UNIT ( $, .METRE. ) );
#153 = DIRECTION ( 'NONE',  ( -1.224646799147353454E-16, -0.0000000000000000000, -1.000000000000000000 ) ) ;
#154 = SURFACE_STYLE_USAGE ( .BOTH. , #130 ) ;
#155 = CARTESIAN_POINT ( 'NONE',  ( 0.0000000000000000000, 0.0000000000000000000, 1.500000000000000222 ) ) ;
#156 = AXIS2_PLACEMENT_3D ( 'NONE', #234, #169, #263 ) ;
#157 = ADVANCED_FACE ( 'NONE', ( #223 ), #20, .T. ) ;
#158 = VERTEX_POINT ( 'NONE', #208 ) ;
#159 = CARTESIAN_POINT ( 'NONE',  ( 0.0000000000000000000, 0.0000000000000000000, 0.0000000000000000000 ) ) ;
#160 = ORIENTED_EDGE ( 'NONE', *, *, #285, .F. ) ;
#161 = ORIENTED_EDGE ( 'NONE', *, *, #94, .F. ) ;
#162 = CARTESIAN_POINT ( 'NONE',  ( 3.061616997868383634E-17, 0.0000000000000000000, 0.2500000000000000000 ) ) ;
#163 = MECHANICAL_DESIGN_GEOMETRIC_PRESENTATION_REPRESENTATION (  '', ( #13 ), #267 ) ;
#164 = CARTESIAN_POINT ( 'NONE',  ( 0.06243750000000002770, 0.0000000000000000000, 0.2500000000000000000 ) ) ;
#165 = FILL_AREA_STYLE_COLOUR ( '', #239 ) ;
#166 = ORIENTED_EDGE ( 'NONE', *, *, #209, .T. ) ;
#167 = PRODUCT_DEFINITION_FORMATION_WITH_SPECIFIED_SOURCE ( 'ANY', '', #5, .NOT_KNOWN. ) ;
#168 = ORIENTED_EDGE ( 'NONE', *, *, #108, .F. ) ;
#169 = DIRECTION ( 'NONE',  ( -1.224646799147353454E-16, -0.0000000000000000000, -1.000000000000000000 ) ) ;
#170 = LENGTH_MEASURE_WITH_UNIT ( LENGTH_MEASURE( 0.02539999999999999897 ), #152 );
#171 = LENGTH_MEASURE_WITH_UNIT ( LENGTH_MEASURE( 0.02539999999999999897 ), #270 );
#172 = AXIS2_PLACEMENT_3D ( 'NONE', #281, #99, #258 ) ;
#173 = DIRECTION ( 'NONE',  ( -1.224646799147353454E-16, -0.0000000000000000000, -1.000000000000000000 ) ) ;
#174 =( CONVERSION_BASED_UNIT ( 'INCH', #170 ) LENGTH_UNIT ( ) NAMED_UNIT ( #44 ) );
#175 =( NAMED_UNIT ( * ) SI_UNIT ( $, .STERADIAN. ) SOLID_ANGLE_UNIT ( ) );
#176 = DIRECTION ( 'NONE',  ( 0.0000000000000000000, 0.0000000000000000000, 1.000000000000000000 ) ) ;
#177 = DIRECTION ( 'NONE',  ( -1.000000000000000000, 0.0000000000000000000, 0.0000000000000000000 ) ) ;
#178 = DIMENSIONAL_EXPONENTS ( 1.000000000000000000, 0.0000000000000000000, 0.0000000000000000000, 0.0000000000000000000, 0.0000000000000000000, 0.0000000000000000000, 0.0000000000000000000 ) ;
#179 = ORIENTED_EDGE ( 'NONE', *, *, #108, .T. ) ;
#180 = ADVANCED_FACE ( 'NONE', ( #276 ), #291, .T. ) ;
#181 = DIRECTION ( 'NONE',  ( -1.000000000000000000, 0.0000000000000000000, 0.0000000000000000000 ) ) ;
#182 = ADVANCED_BREP_SHAPE_REPRESENTATION ( 'Micro_SFL-125-22', ( #115, #3 ), #17 ) ;
#183 = ORIENTED_EDGE ( 'NONE', *, *, #19, .T. ) ;
#184 = AXIS2_PLACEMENT_3D ( 'NONE', #162, #110, #52 ) ;
#185 = VERTEX_POINT ( 'NONE', #50 ) ;
#186 = EDGE_LOOP ( 'NONE', ( #230, #143, #168, #250 ) ) ;
#187 = CONICAL_SURFACE ( 'NONE', #251, 0.04750000000000064587, 0.7853981633974457255 ) ;
#188 = ORIENTED_EDGE ( 'NONE', *, *, #285, .T. ) ;
#189 = CARTESIAN_POINT ( 'NONE',  ( 0.0000000000000000000, 0.0000000000000000000, 1.500000000000000222 ) ) ;
#190 =( GEOMETRIC_REPRESENTATION_CONTEXT ( 3 ) GLOBAL_UNCERTAINTY_ASSIGNED_CONTEXT ( ( #284 ) ) GLOBAL_UNIT_ASSIGNED_CONTEXT ( ( #174, #219, #127 ) ) REPRESENTATION_CONTEXT ( 'NONE', 'WORKASPACE' ) );
#191 = AXIS2_PLACEMENT_3D ( 'NONE', #107, #194, #215 ) ;
#192 = PLANE ( 'NONE',  #222 ) ;
#193 = FACE_OUTER_BOUND ( 'NONE', #259, .T. ) ;
#194 = DIRECTION ( 'NONE',  ( -1.224646799147353454E-16, -0.0000000000000000000, -1.000000000000000000 ) ) ;
#195 = FACE_OUTER_BOUND ( 'NONE', #97, .T. ) ;
#196 = VECTOR ( 'NONE', #257, 39.37007874015748143 ) ;
#197 = CARTESIAN_POINT ( 'NONE',  ( -0.04750000000000064587, 0.0000000000000000000, 1.500000000000000222 ) ) ;
#198 = DIRECTION ( 'NONE',  ( 1.000000000000000000, 0.0000000000000000000, 0.0000000000000000000 ) ) ;
#199 = CARTESIAN_POINT ( 'NONE',  ( -0.06250000000000000000, 0.0000000000000000000, 1.500000000000000222 ) ) ;
#200 = DIRECTION ( 'NONE',  ( -0.1736481776669312471, 2.126576849575783933E-17, 0.9848077530122077983 ) ) ;
#201 = EDGE_CURVE ( 'NONE', #185, #273, #296, .T. ) ;
#202 = EDGE_CURVE ( 'NONE', #273, #210, #39, .T. ) ;
#203 = CARTESIAN_POINT ( 'NONE',  ( -0.06249999999999996531, 0.0000000000000000000, 0.2503544551137261154 ) ) ;
#204 = EDGE_LOOP ( 'NONE', ( #166, #23, #90, #29 ) ) ;
#205 = ORIENTED_EDGE ( 'NONE', *, *, #232, .T. ) ;
#206 = AXIS2_PLACEMENT_3D ( 'NONE', #122, #233, #213 ) ;
#207 = ORIENTED_EDGE ( 'NONE', *, *, #202, .T. ) ;
#208 = CARTESIAN_POINT ( 'NONE',  ( -0.06243749999999995831, 7.650215473423621689E-18, 0.2500000000000000000 ) ) ;
#209 = EDGE_CURVE ( 'NONE', #158, #10, #84, .T. ) ;
#210 = VERTEX_POINT ( 'NONE', #203 ) ;
#211 = DIRECTION ( 'NONE',  ( 0.0000000000000000000, 0.0000000000000000000, 1.000000000000000000 ) ) ;
#212 = ORIENTED_EDGE ( 'NONE', *, *, #66, .F. ) ;
#213 = DIRECTION ( 'NONE',  ( -1.000000000000000000, 0.0000000000000000000, 0.0000000000000000000 ) ) ;
#214 = CARTESIAN_POINT ( 'NONE',  ( 3.065957821073044867E-17, 0.0000000000000000000, 0.2503544551137261154 ) ) ;
#215 = DIRECTION ( 'NONE',  ( -1.000000000000000000, 0.0000000000000000000, 1.224646799147353207E-16 ) ) ;
#216 = CARTESIAN_POINT ( 'NONE',  ( 0.0000000000000000000, 0.0000000000000000000, 0.0000000000000000000 ) ) ;
#217 = DIRECTION ( 'NONE',  ( 0.0000000000000000000, 0.0000000000000000000, -1.000000000000000000 ) ) ;
#218 = EDGE_CURVE ( 'NONE', #280, #149, #125, .T. ) ;
#219 =( NAMED_UNIT ( * ) PLANE_ANGLE_UNIT ( ) SI_UNIT ( $, .RADIAN. ) );
#220 = SHAPE_DEFINITION_REPRESENTATION ( #227, #182 ) ;
#221 = MECHANICAL_DESIGN_GEOMETRIC_PRESENTATION_REPRESENTATION (  '', ( #25 ), #190 ) ;
#222 = AXIS2_PLACEMENT_3D ( 'NONE', #36, #176, #289 ) ;
#223 = FACE_OUTER_BOUND ( 'NONE', #275, .T. ) ;
#224 = LINE ( 'NONE', #197, #61 ) ;
#225 = ADVANCED_FACE ( 'NONE', ( #193 ), #244, .T. ) ;
#226 = APPLICATION_CONTEXT ( 'automotive_design' ) ;
#227 = PRODUCT_DEFINITION_SHAPE ( 'NONE', 'NONE',  #106 ) ;
#228 = ORIENTED_EDGE ( 'NONE', *, *, #66, .T. ) ;
#229 = DIRECTION ( 'NONE',  ( 1.000000000000000000, 0.0000000000000000000, 0.0000000000000000000 ) ) ;
#230 = ORIENTED_EDGE ( 'NONE', *, *, #19, .F. ) ;
#231 = CIRCLE ( 'NONE', #54, 0.06250000000000000000 ) ;
#232 = EDGE_CURVE ( 'NONE', #10, #78, #45, .T. ) ;
#233 = DIRECTION ( 'NONE',  ( 0.0000000000000000000, 0.0000000000000000000, -1.000000000000000000 ) ) ;
#234 = CARTESIAN_POINT ( 'NONE',  ( 9.364125142994979186E-34, 0.0000000000000000000, 7.646388452176288915E-18 ) ) ;
#235 = ORIENTED_EDGE ( 'NONE', *, *, #218, .T. ) ;
#236 = CARTESIAN_POINT ( 'NONE',  ( 0.0000000000000000000, 0.0000000000000000000, 1.485000000000000764 ) ) ;
#237 = FACE_OUTER_BOUND ( 'NONE', #119, .T. ) ;
#238 = DIRECTION ( 'NONE',  ( 1.000000000000000000, 0.0000000000000000000, 0.0000000000000000000 ) ) ;
#239 = COLOUR_RGB ( '',0.7921568627450980005, 0.8196078431372548767, 0.9333333333333333481 ) ;
#240 = CARTESIAN_POINT ( 'NONE',  ( 0.0000000000000000000, 0.0000000000000000000, 1.500000000000000222 ) ) ;
#241 = CARTESIAN_POINT ( 'NONE',  ( 0.0000000000000000000, 0.0000000000000000000, 1.500000000000000222 ) ) ;
#242 = CIRCLE ( 'NONE', #278, 0.06250000000000000000 ) ;
#243 = DIRECTION ( 'NONE',  ( 1.000000000000000000, 0.0000000000000000000, 0.0000000000000000000 ) ) ;
#244 = CONICAL_SURFACE ( 'NONE', #141, 0.06243749999999999301, 0.1745329251994339748 ) ;
#245 = DIRECTION ( 'NONE',  ( 0.7071067811865456854, 8.659560562354911904E-17, -0.7071067811865493491 ) ) ;
#246 = AXIS2_PLACEMENT_3D ( 'NONE', #51, #147, #55 ) ;
#247 = PRODUCT_RELATED_PRODUCT_CATEGORY ( 'part', '', ( #5 ) ) ;
#248 = PRODUCT_DEFINITION_CONTEXT ( 'detailed design', #269, 'design' ) ;
#249 = DIRECTION ( 'NONE',  ( -1.000000000000000000, 0.0000000000000000000, 1.224646799147353700E-16 ) ) ;
#250 = ORIENTED_EDGE ( 'NONE', *, *, #265, .F. ) ;
#251 = AXIS2_PLACEMENT_3D ( 'NONE', #241, #131, #18 ) ;
#252 = ORIENTED_EDGE ( 'NONE', *, *, #133, .F. ) ;
#253 =( NAMED_UNIT ( * ) SI_UNIT ( $, .STERADIAN. ) SOLID_ANGLE_UNIT ( ) );
#254 = ORIENTED_EDGE ( 'NONE', *, *, #201, .T. ) ;
#255 = CONICAL_SURFACE ( 'NONE', #206, 0.04750000000000064587, 0.7853981633974457255 ) ;
#256 = ADVANCED_FACE ( 'NONE', ( #264 ), #271, .F. ) ;
#257 = DIRECTION ( 'NONE',  ( -1.224646799147353454E-16, -0.0000000000000000000, -1.000000000000000000 ) ) ;
#258 = DIRECTION ( 'NONE',  ( -1.000000000000000000, 0.0000000000000000000, 0.0000000000000000000 ) ) ;
#259 = EDGE_LOOP ( 'NONE', ( #114, #47, #116, #7 ) ) ;
#260 = FACE_OUTER_BOUND ( 'NONE', #204, .T. ) ;
#261 = DIRECTION ( 'NONE',  ( 1.000000000000000000, 0.0000000000000000000, -0.0000000000000000000 ) ) ;
#262 = CARTESIAN_POINT ( 'NONE',  ( -0.06250000000000000000, 0.0000000000000000000, 1.485000000000000764 ) ) ;
#263 = DIRECTION ( 'NONE',  ( -1.000000000000000000, 0.0000000000000000000, 1.224646799147353207E-16 ) ) ;
#264 = FACE_OUTER_BOUND ( 'NONE', #95, .T. ) ;
#265 = EDGE_CURVE ( 'NONE', #280, #273, #224, .T. ) ;
#266 = FACE_OUTER_BOUND ( 'NONE', #186, .T. ) ;
#267 =( GEOMETRIC_REPRESENTATION_CONTEXT ( 3 ) GLOBAL_UNCERTAINTY_ASSIGNED_CONTEXT ( ( #293 ) ) GLOBAL_UNIT_ASSIGNED_CONTEXT ( ( #292, #82, #175 ) ) REPRESENTATION_CONTEXT ( 'NONE', 'WORKASPACE' ) );
#268 = CARTESIAN_POINT ( 'NONE',  ( 0.0000000000000000000, 0.0000000000000000000, 1.485000000000000764 ) ) ;
#269 = APPLICATION_CONTEXT ( 'automotive_design' ) ;
#270 =( LENGTH_UNIT ( ) NAMED_UNIT ( * ) SI_UNIT ( $, .METRE. ) );
#271 = PLANE ( 'NONE',  #146 ) ;
#272 = ORIENTED_EDGE ( 'NONE', *, *, #69, .T. ) ;
#273 = VERTEX_POINT ( 'NONE', #262 ) ;
#274 = DIRECTION ( 'NONE',  ( 1.224646799147353454E-16, 0.0000000000000000000, 1.000000000000000000 ) ) ;
#275 = EDGE_LOOP ( 'NONE', ( #73, #188, #85, #134 ) ) ;
#276 = FACE_OUTER_BOUND ( 'NONE', #64, .T. ) ;
#277 = ORIENTED_EDGE ( 'NONE', *, *, #218, .F. ) ;
#278 = AXIS2_PLACEMENT_3D ( 'NONE', #214, #12, #101 ) ;
#279 = APPLICATION_PROTOCOL_DEFINITION ( 'draft international standard', 'automotive_design', 1998, #226 ) ;
#280 = VERTEX_POINT ( 'NONE', #49 ) ;
#281 = CARTESIAN_POINT ( 'NONE',  ( 3.061616997868383634E-17, 0.0000000000000000000, 0.2500000000000000000 ) ) ;
#282 = ORIENTED_EDGE ( 'NONE', *, *, #142, .T. ) ;
#283 = CIRCLE ( 'NONE', #191, 0.06243750000000001382 ) ;
#284 = UNCERTAINTY_MEASURE_WITH_UNIT (LENGTH_MEASURE( 1.000000000000000082E-05 ), #174, 'distance_accuracy_value', 'NONE');
#285 = EDGE_CURVE ( 'NONE', #10, #158, #35, .T. ) ;
#286 = LINE ( 'NONE', #15, #104 ) ;
#287 = CLOSED_SHELL ( 'NONE', ( #2, #225, #139, #180, #63, #72, #9, #124, #157, #256 ) ) ;
#288 = CARTESIAN_POINT ( 'NONE',  ( 3.061616997868383634E-17, 0.0000000000000000000, 0.2500000000000000000 ) ) ;
#289 = DIRECTION ( 'NONE',  ( 1.000000000000000000, 0.0000000000000000000, -0.0000000000000000000 ) ) ;
#290 = AXIS2_PLACEMENT_3D ( 'NONE', #236, #217, #79 ) ;
#291 = CYLINDRICAL_SURFACE ( 'NONE', #76, 0.06250000000000000000 ) ;
#292 =( CONVERSION_BASED_UNIT ( 'INCH', #171 ) LENGTH_UNIT ( ) NAMED_UNIT ( #178 ) );
#293 = UNCERTAINTY_MEASURE_WITH_UNIT (LENGTH_MEASURE( 1.000000000000000082E-05 ), #292, 'distance_accuracy_value', 'NONE');
#294 = CARTESIAN_POINT ( 'NONE',  ( 3.061616997868383634E-17, 0.0000000000000000000, 0.2500000000000000000 ) ) ;
#295 = DIRECTION ( 'NONE',  ( 1.000000000000000000, 0.0000000000000000000, 0.0000000000000000000 ) ) ;
#296 = CIRCLE ( 'NONE', #290, 0.06250000000000000000 ) ;
#297 = DIRECTION ( 'NONE',  ( -1.224646799147353454E-16, -0.0000000000000000000, -1.000000000000000000 ) ) ;
#298 = VERTEX_POINT ( 'NONE', #65 ) ;
#299 = AXIS2_PLACEMENT_3D ( 'NONE', #189, #75, #238 ) ;
ENDSEC;
END-ISO-10303-21;
