ISO-10303-21;
HEADER;
FILE_DESCRIPTION (( 'STEP AP214' ),
    '1' );
FILE_NAME ('59758.STEP',
    '2023-07-24T15:34:33',
    ( '' ),
    ( '' ),
    'SwSTEP 2.0',
    'SolidWorks 2023',
    '' );
FILE_SCHEMA (( 'AUTOMOTIVE_DESIGN' ));
ENDSEC;

DATA;
#1 =( NAMED_UNIT ( * ) PLANE_ANGLE_UNIT ( ) SI_UNIT ( $, .RADIAN. ) );
#2 = VERTEX_POINT ( 'NONE', #315 ) ;
#3 = CLOSED_SHELL ( 'NONE', ( #147, #102, #176, #188, #76, #4 ) ) ;
#4 = ADVANCED_FACE ( 'NONE', ( #228 ), #5, .T. ) ;
#5 = PLANE ( 'NONE',  #144 ) ;
#6 = VERTEX_POINT ( 'NONE', #293 ) ;
#7 = EDGE_LOOP ( 'NONE', ( #82, #289, #172, #204 ) ) ;
#8 = COLOUR_RGB ( '',1.000000000000000000, 0.000000000000000000, 0.000000000000000000 ) ;
#9 = AXIS2_PLACEMENT_3D ( 'NONE', #305, #216, #267 ) ;
#10 = SURFACE_SIDE_STYLE ('',( #64 ) ) ;
#11 = PRESENTATION_STYLE_ASSIGNMENT (( #91 ) ) ;
#12 = FACE_OUTER_BOUND ( 'NONE', #225, .T. ) ;
#13 = CARTESIAN_POINT ( 'NONE',  ( 9.999999999999996447, 100.0000000000000000, 1.224646799147353059E-15 ) ) ;
#14 = TOROIDAL_SURFACE ( 'NONE', #245, 9.500000000000000000, 0.5000000000000002220 ) ;
#15 = CIRCLE ( 'NONE', #116, 10.00000000000000000 ) ;
#16 = DIRECTION ( 'NONE',  ( -0.000000000000000000, -1.000000000000000000, -0.000000000000000000 ) ) ;
#17 = CARTESIAN_POINT ( 'NONE',  ( -1.347111479062090180E-15, 100.0000000000000000, 0.000000000000000000 ) ) ;
#18 = CARTESIAN_POINT ( 'NONE',  ( -10.00000000000000533, 100.0000000000000000, 0.000000000000000000 ) ) ;
#19 = FILL_AREA_STYLE_COLOUR ( '', #265 ) ;
#20 = AXIS2_PLACEMENT_3D ( 'NONE', #85, #369, #224 ) ;
#21 = DIRECTION ( 'NONE',  ( 0.000000000000000000, 0.000000000000000000, -1.000000000000000000 ) ) ;
#22 = DIRECTION ( 'NONE',  ( -0.000000000000000000, -1.000000000000000000, -0.000000000000000000 ) ) ;
#23 = PRESENTATION_STYLE_ASSIGNMENT (( #340 ) ) ;
#24 = EDGE_CURVE ( 'NONE', #6, #318, #93, .T. ) ;
#25 = STYLED_ITEM ( 'NONE', ( #307 ), #176 ) ;
#26 = CIRCLE ( 'NONE', #367, 10.00000000000000000 ) ;
#27 = SURFACE_STYLE_USAGE ( .BOTH. , #201 ) ;
#28 =( NAMED_UNIT ( * ) SI_UNIT ( $, .STERADIAN. ) SOLID_ANGLE_UNIT ( ) );
#29 = ORIENTED_EDGE ( 'NONE', *, *, #199, .F. ) ;
#30 = AXIS2_PLACEMENT_3D ( 'NONE', #221, #244, #21 ) ;
#31 = PRODUCT_DEFINITION_FORMATION_WITH_SPECIFIED_SOURCE ( 'ANY', '', #65, .NOT_KNOWN. ) ;
#32 = ORIENTED_EDGE ( 'NONE', *, *, #310, .T. ) ;
#33 = EDGE_LOOP ( 'NONE', ( #229, #60 ) ) ;
#34 = CARTESIAN_POINT ( 'NONE',  ( 0.000000000000000000, 0.5000000000000000000, 0.000000000000000000 ) ) ;
#35 = CYLINDRICAL_SURFACE ( 'NONE', #207, 10.00000000000000000 ) ;
#36 = DIRECTION ( 'NONE',  ( -1.236440607496819135E-16, 1.000000000000000000, 0.000000000000000000 ) ) ;
#37 = FACE_OUTER_BOUND ( 'NONE', #119, .T. ) ;
#38 = DIRECTION ( 'NONE',  ( -1.000000000000000000, 0.000000000000000000, 0.000000000000000000 ) ) ;
#39 = UNCERTAINTY_MEASURE_WITH_UNIT (LENGTH_MEASURE( 1.000000000000000082E-05 ), #346, 'distance_accuracy_value', 'NONE');
#40 = AXIS2_PLACEMENT_3D ( 'NONE', #17, #132, #330 ) ;
#41 = MECHANICAL_DESIGN_GEOMETRIC_PRESENTATION_REPRESENTATION (  '', ( #232 ), #184 ) ;
#42 = DIRECTION ( 'NONE',  ( -1.236440607496819135E-16, 1.000000000000000000, -0.000000000000000000 ) ) ;
#43 = CYLINDRICAL_SURFACE ( 'NONE', #181, 9.999999999999998224 ) ;
#44 = DIRECTION ( 'NONE',  ( -1.000000000000000000, 0.000000000000000000, 0.000000000000000000 ) ) ;
#45 = CARTESIAN_POINT ( 'NONE',  ( -9.999999999999987566, 40.00000000000000000, 0.000000000000000000 ) ) ;
#46 = DIRECTION ( 'NONE',  ( 0.000000000000000000, 0.000000000000000000, -1.000000000000000000 ) ) ;
#47 = CLOSED_SHELL ( 'NONE', ( #55, #302, #72, #275 ) ) ;
#48 = AXIS2_PLACEMENT_3D ( 'NONE', #312, #22, #219 ) ;
#49 = DIRECTION ( 'NONE',  ( -0.000000000000000000, -1.000000000000000000, -0.000000000000000000 ) ) ;
#50 =( NAMED_UNIT ( * ) PLANE_ANGLE_UNIT ( ) SI_UNIT ( $, .RADIAN. ) );
#51 = PRESENTATION_LAYER_ASSIGNMENT (  '', '', ( #214 ) ) ;
#52 =( GEOMETRIC_REPRESENTATION_CONTEXT ( 3 ) GLOBAL_UNCERTAINTY_ASSIGNED_CONTEXT ( ( #306 ) ) GLOBAL_UNIT_ASSIGNED_CONTEXT ( ( #243, #97, #297 ) ) REPRESENTATION_CONTEXT ( 'NONE', 'WORKASPACE' ) );
#53 = DIRECTION ( 'NONE',  ( -1.000000000000000000, 0.000000000000000000, 0.000000000000000000 ) ) ;
#54 = FILL_AREA_STYLE_COLOUR ( '', #163 ) ;
#55 = ADVANCED_FACE ( 'NONE', ( #37 ), #99, .T. ) ;
#56 =( GEOMETRIC_REPRESENTATION_CONTEXT ( 3 ) GLOBAL_UNCERTAINTY_ASSIGNED_CONTEXT ( ( #92 ) ) GLOBAL_UNIT_ASSIGNED_CONTEXT ( ( #127, #101, #211 ) ) REPRESENTATION_CONTEXT ( 'NONE', 'WORKASPACE' ) );
#57 = COLOUR_RGB ( '',1.000000000000000000, 0.000000000000000000, 0.000000000000000000 ) ;
#58 = AXIS2_PLACEMENT_3D ( 'NONE', #107, #66, #44 ) ;
#59 = PRESENTATION_STYLE_ASSIGNMENT (( #258 ) ) ;
#60 = ORIENTED_EDGE ( 'NONE', *, *, #352, .T. ) ;
#61 = DIRECTION ( 'NONE',  ( 1.000000000000000000, 0.000000000000000000, -1.224646799147353207E-16 ) ) ;
#62 = STYLED_ITEM ( 'NONE', ( #59 ), #4 ) ;
#63 = MANIFOLD_SOLID_BREP ( 'Revolve - Tool Body (Straight Shanked)', #47 ) ;
#64 = SURFACE_STYLE_FILL_AREA ( #327 ) ;
#65 = PRODUCT ( '59758', '59758', '', ( #189 ) ) ;
#66 = DIRECTION ( 'NONE',  ( -1.236440607496819135E-16, 1.000000000000000000, -0.000000000000000000 ) ) ;
#67 = PRESENTATION_LAYER_ASSIGNMENT (  '', '', ( #319 ) ) ;
#68 = MECHANICAL_DESIGN_GEOMETRIC_PRESENTATION_REPRESENTATION (  '', ( #25 ), #160 ) ;
#69 = DIRECTION ( 'NONE',  ( -1.000000000000000000, 0.000000000000000000, 0.000000000000000000 ) ) ;
#70 = LINE ( 'NONE', #13, #251 ) ;
#71 = CARTESIAN_POINT ( 'NONE',  ( 0.000000000000000000, 0.000000000000000000, -9.500000000000000000 ) ) ;
#72 = ADVANCED_FACE ( 'NONE', ( #235 ), #43, .T. ) ;
#73 = SURFACE_STYLE_FILL_AREA ( #136 ) ;
#74 = CIRCLE ( 'NONE', #179, 10.00000000000000355 ) ;
#75 = ORIENTED_EDGE ( 'NONE', *, *, #111, .F. ) ;
#76 = ADVANCED_FACE ( 'NONE', ( #205 ), #35, .T. ) ;
#77 =( NAMED_UNIT ( * ) SI_UNIT ( $, .STERADIAN. ) SOLID_ANGLE_UNIT ( ) );
#78 = EDGE_LOOP ( 'NONE', ( #29, #347 ) ) ;
#79 = FILL_AREA_STYLE ('',( #223 ) ) ;
#80 = DIRECTION ( 'NONE',  ( 0.000000000000000000, 0.000000000000000000, -1.000000000000000000 ) ) ;
#81 = EDGE_CURVE ( 'NONE', #148, #90, #298, .T. ) ;
#82 = ORIENTED_EDGE ( 'NONE', *, *, #199, .T. ) ;
#83 = CIRCLE ( 'NONE', #20, 10.00000000000000000 ) ;
#84 = AXIS2_PLACEMENT_3D ( 'NONE', #300, #36, #157 ) ;
#85 = CARTESIAN_POINT ( 'NONE',  ( 0.000000000000000000, 40.00000000000000000, 0.000000000000000000 ) ) ;
#86 = ORIENTED_EDGE ( 'NONE', *, *, #250, .F. ) ;
#87 = EDGE_LOOP ( 'NONE', ( #193, #108, #343, #88 ) ) ;
#88 = ORIENTED_EDGE ( 'NONE', *, *, #352, .F. ) ;
#89 =( GEOMETRIC_REPRESENTATION_CONTEXT ( 3 ) GLOBAL_UNCERTAINTY_ASSIGNED_CONTEXT ( ( #356 ) ) GLOBAL_UNIT_ASSIGNED_CONTEXT ( ( #156, #124, #153 ) ) REPRESENTATION_CONTEXT ( 'NONE', 'WORKASPACE' ) );
#90 = VERTEX_POINT ( 'NONE', #262 ) ;
#91 = SURFACE_STYLE_USAGE ( .BOTH. , #233 ) ;
#92 = UNCERTAINTY_MEASURE_WITH_UNIT (LENGTH_MEASURE( 1.000000000000000082E-05 ), #127, 'distance_accuracy_value', 'NONE');
#93 = LINE ( 'NONE', #242, #230 ) ;
#94 = MECHANICAL_DESIGN_GEOMETRIC_PRESENTATION_REPRESENTATION (  '', ( #62 ), #206 ) ;
#95 = AXIS2_PLACEMENT_3D ( 'NONE', #96, #61, #177 ) ;
#96 = CARTESIAN_POINT ( 'NONE',  ( 1.163414459189985485E-15, 0.5000000000000000000, 9.500000000000000000 ) ) ;
#97 =( NAMED_UNIT ( * ) PLANE_ANGLE_UNIT ( ) SI_UNIT ( $, .RADIAN. ) );
#98 = UNCERTAINTY_MEASURE_WITH_UNIT (LENGTH_MEASURE( 1.000000000000000082E-05 ), #249, 'distance_accuracy_value', 'NONE');
#99 = CYLINDRICAL_SURFACE ( 'NONE', #40, 9.999999999999998224 ) ;
#100 = CARTESIAN_POINT ( 'NONE',  ( 0.000000000000000000, 0.000000000000000000, 0.000000000000000000 ) ) ;
#101 =( NAMED_UNIT ( * ) PLANE_ANGLE_UNIT ( ) SI_UNIT ( $, .RADIAN. ) );
#102 = ADVANCED_FACE ( 'NONE', ( #12 ), #349, .T. ) ;
#103 = CIRCLE ( 'NONE', #185, 9.500000000000000000 ) ;
#104 =( NAMED_UNIT ( * ) PLANE_ANGLE_UNIT ( ) SI_UNIT ( $, .RADIAN. ) );
#105 = DIRECTION ( 'NONE',  ( -0.000000000000000000, -1.000000000000000000, -0.000000000000000000 ) ) ;
#106 = FACE_OUTER_BOUND ( 'NONE', #257, .T. ) ;
#107 = CARTESIAN_POINT ( 'NONE',  ( -1.347111479062089982E-15, 100.0000000000000000, 0.000000000000000000 ) ) ;
#108 = ORIENTED_EDGE ( 'NONE', *, *, #222, .T. ) ;
#109 = CYLINDRICAL_SURFACE ( 'NONE', #363, 10.00000000000000000 ) ;
#110 = DIRECTION ( 'NONE',  ( -0.000000000000000000, -1.000000000000000000, -0.000000000000000000 ) ) ;
#111 = EDGE_CURVE ( 'NONE', #198, #148, #236, .T. ) ;
#112 = FACE_OUTER_BOUND ( 'NONE', #345, .T. ) ;
#113 = ORIENTED_EDGE ( 'NONE', *, *, #81, .T. ) ;
#114 = PRESENTATION_LAYER_ASSIGNMENT (  '', '', ( #62 ) ) ;
#115 = COLOUR_RGB ( '',1.000000000000000000, 0.000000000000000000, 0.000000000000000000 ) ;
#116 = AXIS2_PLACEMENT_3D ( 'NONE', #329, #105, #360 ) ;
#117 = CARTESIAN_POINT ( 'NONE',  ( 0.000000000000000000, 40.00000000000000000, 0.000000000000000000 ) ) ;
#118 =( LENGTH_UNIT ( ) NAMED_UNIT ( * ) SI_UNIT ( .MILLI., .METRE. ) );
#119 = EDGE_LOOP ( 'NONE', ( #202, #149, #200, #292 ) ) ;
#120 = VERTEX_POINT ( 'NONE', #45 ) ;
#121 = MECHANICAL_DESIGN_GEOMETRIC_PRESENTATION_REPRESENTATION (  '', ( #319 ), #89 ) ;
#122 = COLOUR_RGB ( '',0.7921568627450980005, 0.8196078431372548767, 0.9333333333333333481 ) ;
#123 = AXIS2_PLACEMENT_3D ( 'NONE', #303, #271, #263 ) ;
#124 =( NAMED_UNIT ( * ) PLANE_ANGLE_UNIT ( ) SI_UNIT ( $, .RADIAN. ) );
#125 = EDGE_CURVE ( 'NONE', #198, #6, #357, .T. ) ;
#126 =( NAMED_UNIT ( * ) PLANE_ANGLE_UNIT ( ) SI_UNIT ( $, .RADIAN. ) );
#127 =( LENGTH_UNIT ( ) NAMED_UNIT ( * ) SI_UNIT ( .MILLI., .METRE. ) );
#128 = PRESENTATION_LAYER_ASSIGNMENT (  '', '', ( #286 ) ) ;
#129 = CARTESIAN_POINT ( 'NONE',  ( 0.000000000000000000, 0.5000000000000000000, -10.00000000000000000 ) ) ;
#130 = SURFACE_STYLE_USAGE ( .BOTH. , #10 ) ;
#131 = FACE_OUTER_BOUND ( 'NONE', #137, .T. ) ;
#132 = DIRECTION ( 'NONE',  ( -1.236440607496819135E-16, 1.000000000000000000, -0.000000000000000000 ) ) ;
#133 = DIRECTION ( 'NONE',  ( 0.000000000000000000, 0.000000000000000000, -1.000000000000000000 ) ) ;
#134 = DIRECTION ( 'NONE',  ( -1.236440607496819135E-16, 1.000000000000000000, -0.000000000000000000 ) ) ;
#135 = PRESENTATION_LAYER_ASSIGNMENT (  '', '', ( #25 ) ) ;
#136 = FILL_AREA_STYLE ('',( #19 ) ) ;
#137 = EDGE_LOOP ( 'NONE', ( #191, #279 ) ) ;
#138 = SURFACE_STYLE_USAGE ( .BOTH. , #366 ) ;
#139 = STYLED_ITEM ( 'NONE', ( #23 ), #102 ) ;
#140 = CIRCLE ( 'NONE', #123, 9.999999999999994671 ) ;
#141 = UNCERTAINTY_MEASURE_WITH_UNIT (LENGTH_MEASURE( 1.000000000000000082E-05 ), #325, 'distance_accuracy_value', 'NONE');
#142 = CARTESIAN_POINT ( 'NONE',  ( 0.000000000000000000, 0.000000000000000000, 0.000000000000000000 ) ) ;
#143 = SURFACE_STYLE_FILL_AREA ( #341 ) ;
#144 = AXIS2_PLACEMENT_3D ( 'NONE', #117, #291, #353 ) ;
#145 = VECTOR ( 'NONE', #194, 1000.000000000000000 ) ;
#146 =( NAMED_UNIT ( * ) SI_UNIT ( $, .STERADIAN. ) SOLID_ANGLE_UNIT ( ) );
#147 = ADVANCED_FACE ( 'NONE', ( #334 ), #109, .T. ) ;
#148 = VERTEX_POINT ( 'NONE', #247 ) ;
#149 = ORIENTED_EDGE ( 'NONE', *, *, #259, .T. ) ;
#150 = ORIENTED_EDGE ( 'NONE', *, *, #24, .T. ) ;
#151 = PRESENTATION_STYLE_ASSIGNMENT (( #256 ) ) ;
#152 = PLANE ( 'NONE',  #84 ) ;
#153 =( NAMED_UNIT ( * ) SI_UNIT ( $, .STERADIAN. ) SOLID_ANGLE_UNIT ( ) );
#154 = DIRECTION ( 'NONE',  ( 1.000000000000000000, 1.236440607496819135E-16, 0.000000000000000000 ) ) ;
#155 = CIRCLE ( 'NONE', #203, 9.500000000000000000 ) ;
#156 =( LENGTH_UNIT ( ) NAMED_UNIT ( * ) SI_UNIT ( .MILLI., .METRE. ) );
#157 = DIRECTION ( 'NONE',  ( -1.000000000000000000, -1.236440607496819135E-16, 0.000000000000000000 ) ) ;
#158 =( LENGTH_UNIT ( ) NAMED_UNIT ( * ) SI_UNIT ( .MILLI., .METRE. ) );
#159 = APPLICATION_PROTOCOL_DEFINITION ( 'draft international standard', 'automotive_design', 1998, #170 ) ;
#160 =( GEOMETRIC_REPRESENTATION_CONTEXT ( 3 ) GLOBAL_UNCERTAINTY_ASSIGNED_CONTEXT ( ( #39 ) ) GLOBAL_UNIT_ASSIGNED_CONTEXT ( ( #346, #1, #146 ) ) REPRESENTATION_CONTEXT ( 'NONE', 'WORKASPACE' ) );
#161 = CARTESIAN_POINT ( 'NONE',  ( -10.00000000000000000, 100.0000000000000000, 0.000000000000000000 ) ) ;
#162 = SURFACE_SIDE_STYLE ('',( #73 ) ) ;
#163 = COLOUR_RGB ( '',1.000000000000000000, 0.000000000000000000, 0.000000000000000000 ) ;
#164 = FILL_AREA_STYLE_COLOUR ( '', #8 ) ;
#165 = VECTOR ( 'NONE', #110, 1000.000000000000000 ) ;
#166 = EDGE_CURVE ( 'NONE', #120, #321, #187, .T. ) ;
#167 = DIRECTION ( 'NONE',  ( 0.000000000000000000, -1.000000000000000000, -0.000000000000000000 ) ) ;
#168 = SURFACE_STYLE_FILL_AREA ( #231 ) ;
#169 =( NAMED_UNIT ( * ) SI_UNIT ( $, .STERADIAN. ) SOLID_ANGLE_UNIT ( ) );
#170 = APPLICATION_CONTEXT ( 'automotive_design' ) ;
#171 = SURFACE_SIDE_STYLE ('',( #317 ) ) ;
#172 = ORIENTED_EDGE ( 'NONE', *, *, #310, .F. ) ;
#173 = PRESENTATION_LAYER_ASSIGNMENT (  '', '', ( #139 ) ) ;
#174 = EDGE_LOOP ( 'NONE', ( #75, #370, #150, #323 ) ) ;
#175 = VERTEX_POINT ( 'NONE', #71 ) ;
#176 = ADVANCED_FACE ( 'NONE', ( #106 ), #304, .T. ) ;
#177 = DIRECTION ( 'NONE',  ( -1.224646799147353454E-16, 0.000000000000000000, -1.000000000000000000 ) ) ;
#178 =( GEOMETRIC_REPRESENTATION_CONTEXT ( 3 ) GLOBAL_UNCERTAINTY_ASSIGNED_CONTEXT ( ( #141 ) ) GLOBAL_UNIT_ASSIGNED_CONTEXT ( ( #325, #283, #28 ) ) REPRESENTATION_CONTEXT ( 'NONE', 'WORKASPACE' ) );
#179 = AXIS2_PLACEMENT_3D ( 'NONE', #239, #134, #38 ) ;
#180 = CARTESIAN_POINT ( 'NONE',  ( 10.00000000000000355, 100.0000000000000000, 1.224646799147353651E-15 ) ) ;
#181 = AXIS2_PLACEMENT_3D ( 'NONE', #354, #331, #69 ) ;
#182 = MANIFOLD_SOLID_BREP ( 'Revolve - Cutting Edge', #3 ) ;
#183 = APPLICATION_PROTOCOL_DEFINITION ( 'draft international standard', 'automotive_design', 1998, #339 ) ;
#184 =( GEOMETRIC_REPRESENTATION_CONTEXT ( 3 ) GLOBAL_UNCERTAINTY_ASSIGNED_CONTEXT ( ( #301 ) ) GLOBAL_UNIT_ASSIGNED_CONTEXT ( ( #158, #50, #215 ) ) REPRESENTATION_CONTEXT ( 'NONE', 'WORKASPACE' ) );
#185 = AXIS2_PLACEMENT_3D ( 'NONE', #100, #209, #295 ) ;
#186 = CARTESIAN_POINT ( 'NONE',  ( 10.00000000000000178, 100.0000000000000000, 0.000000000000000000 ) ) ;
#187 = LINE ( 'NONE', #161, #145 ) ;
#188 = ADVANCED_FACE ( 'NONE', ( #112 ), #14, .T. ) ;
#189 = PRODUCT_CONTEXT ( 'NONE', #339, 'mechanical' ) ;
#190 = SURFACE_STYLE_USAGE ( .BOTH. , #162 ) ;
#191 = ORIENTED_EDGE ( 'NONE', *, *, #290, .F. ) ;
#192 = STYLED_ITEM ( 'NONE', ( #282 ), #182 ) ;
#193 = ORIENTED_EDGE ( 'NONE', *, *, #259, .F. ) ;
#194 = DIRECTION ( 'NONE',  ( -1.236440607496819135E-16, 1.000000000000000000, -0.000000000000000000 ) ) ;
#195 = CARTESIAN_POINT ( 'NONE',  ( 6.071532165918824830E-15, 40.00000000000000000, 0.000000000000000000 ) ) ;
#196 = ORIENTED_EDGE ( 'NONE', *, *, #81, .F. ) ;
#197 = CARTESIAN_POINT ( 'NONE',  ( 0.000000000000000000, 0.000000000000000000, 0.000000000000000000 ) ) ;
#198 = VERTEX_POINT ( 'NONE', #294 ) ;
#199 = EDGE_CURVE ( 'NONE', #6, #198, #83, .T. ) ;
#200 = ORIENTED_EDGE ( 'NONE', *, *, #342, .F. ) ;
#201 = SURFACE_SIDE_STYLE ('',( #143 ) ) ;
#202 = ORIENTED_EDGE ( 'NONE', *, *, #290, .T. ) ;
#203 = AXIS2_PLACEMENT_3D ( 'NONE', #142, #254, #46 ) ;
#204 = ORIENTED_EDGE ( 'NONE', *, *, #24, .F. ) ;
#205 = FACE_OUTER_BOUND ( 'NONE', #174, .T. ) ;
#206 =( GEOMETRIC_REPRESENTATION_CONTEXT ( 3 ) GLOBAL_UNCERTAINTY_ASSIGNED_CONTEXT ( ( #234 ) ) GLOBAL_UNIT_ASSIGNED_CONTEXT ( ( #284, #255, #169 ) ) REPRESENTATION_CONTEXT ( 'NONE', 'WORKASPACE' ) );
#207 = AXIS2_PLACEMENT_3D ( 'NONE', #264, #324, #240 ) ;
#208 = FILL_AREA_STYLE_COLOUR ( '', #237 ) ;
#209 = DIRECTION ( 'NONE',  ( -0.000000000000000000, -1.000000000000000000, -0.000000000000000000 ) ) ;
#210 = FILL_AREA_STYLE_COLOUR ( '', #281 ) ;
#211 =( NAMED_UNIT ( * ) SI_UNIT ( $, .STERADIAN. ) SOLID_ANGLE_UNIT ( ) );
#212 = MECHANICAL_DESIGN_GEOMETRIC_PRESENTATION_REPRESENTATION (  '', ( #192 ), #238 ) ;
#213 = CARTESIAN_POINT ( 'NONE',  ( 0.000000000000000000, 0.000000000000000000, 0.000000000000000000 ) ) ;
#214 = STYLED_ITEM ( 'NONE', ( #151 ), #188 ) ;
#215 =( NAMED_UNIT ( * ) SI_UNIT ( $, .STERADIAN. ) SOLID_ANGLE_UNIT ( ) );
#216 = DIRECTION ( 'NONE',  ( -1.000000000000000000, 0.000000000000000000, 0.000000000000000000 ) ) ;
#217 = PRESENTATION_STYLE_ASSIGNMENT (( #138 ) ) ;
#218 = ADVANCED_BREP_SHAPE_REPRESENTATION ( '59758', ( #182, #63, #266 ), #52 ) ;
#219 = DIRECTION ( 'NONE',  ( 0.000000000000000000, 0.000000000000000000, -1.000000000000000000 ) ) ;
#220 = ORIENTED_EDGE ( 'NONE', *, *, #361, .T. ) ;
#221 = CARTESIAN_POINT ( 'NONE',  ( 0.000000000000000000, 0.5000000000000000000, 0.000000000000000000 ) ) ;
#222 = EDGE_CURVE ( 'NONE', #2, #120, #276, .T. ) ;
#223 = FILL_AREA_STYLE_COLOUR ( '', #57 ) ;
#224 = DIRECTION ( 'NONE',  ( 0.000000000000000000, 0.000000000000000000, -1.000000000000000000 ) ) ;
#225 = EDGE_LOOP ( 'NONE', ( #32, #113, #86, #316 ) ) ;
#226 =( NAMED_UNIT ( * ) SI_UNIT ( $, .STERADIAN. ) SOLID_ANGLE_UNIT ( ) );
#227 = ORIENTED_EDGE ( 'NONE', *, *, #278, .T. ) ;
#228 = FACE_OUTER_BOUND ( 'NONE', #78, .T. ) ;
#229 = ORIENTED_EDGE ( 'NONE', *, *, #342, .T. ) ;
#230 = VECTOR ( 'NONE', #359, 1000.000000000000000 ) ;
#231 = FILL_AREA_STYLE ('',( #54 ) ) ;
#232 = STYLED_ITEM ( 'NONE', ( #217 ), #147 ) ;
#233 = SURFACE_SIDE_STYLE ('',( #261 ) ) ;
#234 = UNCERTAINTY_MEASURE_WITH_UNIT (LENGTH_MEASURE( 1.000000000000000082E-05 ), #284, 'distance_accuracy_value', 'NONE');
#235 = FACE_OUTER_BOUND ( 'NONE', #87, .T. ) ;
#236 = LINE ( 'NONE', #365, #165 ) ;
#237 = COLOUR_RGB ( '',0.7921568627450980005, 0.8196078431372548767, 0.9333333333333333481 ) ;
#238 =( GEOMETRIC_REPRESENTATION_CONTEXT ( 3 ) GLOBAL_UNCERTAINTY_ASSIGNED_CONTEXT ( ( #268 ) ) GLOBAL_UNIT_ASSIGNED_CONTEXT ( ( #118, #126, #226 ) ) REPRESENTATION_CONTEXT ( 'NONE', 'WORKASPACE' ) );
#239 = CARTESIAN_POINT ( 'NONE',  ( -1.347111479062089982E-15, 100.0000000000000000, 0.000000000000000000 ) ) ;
#240 = DIRECTION ( 'NONE',  ( 0.000000000000000000, 0.000000000000000000, -1.000000000000000000 ) ) ;
#241 = PLANE ( 'NONE',  #358 ) ;
#242 = CARTESIAN_POINT ( 'NONE',  ( 0.000000000000000000, 0.000000000000000000, -10.00000000000000000 ) ) ;
#243 =( LENGTH_UNIT ( ) NAMED_UNIT ( * ) SI_UNIT ( .MILLI., .METRE. ) );
#244 = DIRECTION ( 'NONE',  ( -0.000000000000000000, -1.000000000000000000, -0.000000000000000000 ) ) ;
#245 = AXIS2_PLACEMENT_3D ( 'NONE', #34, #285, #355 ) ;
#246 = FACE_OUTER_BOUND ( 'NONE', #33, .T. ) ;
#247 = CARTESIAN_POINT ( 'NONE',  ( 1.224646799147353256E-15, 0.5000000000000000000, 10.00000000000000000 ) ) ;
#248 = DIRECTION ( 'NONE',  ( 1.236440607496819135E-16, -1.000000000000000000, 0.000000000000000000 ) ) ;
#249 =( LENGTH_UNIT ( ) NAMED_UNIT ( * ) SI_UNIT ( .MILLI., .METRE. ) );
#250 = EDGE_CURVE ( 'NONE', #175, #90, #155, .T. ) ;
#251 = VECTOR ( 'NONE', #42, 1000.000000000000000 ) ;
#252 = FILL_AREA_STYLE ('',( #328 ) ) ;
#253 = FILL_AREA_STYLE_COLOUR ( '', #122 ) ;
#254 = DIRECTION ( 'NONE',  ( -0.000000000000000000, -1.000000000000000000, -0.000000000000000000 ) ) ;
#255 =( NAMED_UNIT ( * ) PLANE_ANGLE_UNIT ( ) SI_UNIT ( $, .RADIAN. ) );
#256 = SURFACE_STYLE_USAGE ( .BOTH. , #171 ) ;
#257 = EDGE_LOOP ( 'NONE', ( #335, #227 ) ) ;
#258 = SURFACE_STYLE_USAGE ( .BOTH. , #351 ) ;
#259 = EDGE_CURVE ( 'NONE', #2, #338, #70, .T. ) ;
#260 = MECHANICAL_DESIGN_GEOMETRIC_PRESENTATION_REPRESENTATION (  '', ( #214 ), #178 ) ;
#261 = SURFACE_STYLE_FILL_AREA ( #270 ) ;
#262 = CARTESIAN_POINT ( 'NONE',  ( 1.194030629168669469E-15, 0.000000000000000000, 9.500000000000000000 ) ) ;
#263 = DIRECTION ( 'NONE',  ( -1.000000000000000000, 0.000000000000000000, 0.000000000000000000 ) ) ;
#264 = CARTESIAN_POINT ( 'NONE',  ( 0.000000000000000000, 0.000000000000000000, 0.000000000000000000 ) ) ;
#265 = COLOUR_RGB ( '',1.000000000000000000, 0.000000000000000000, 0.000000000000000000 ) ;
#266 = AXIS2_PLACEMENT_3D ( 'NONE', #213, #332, #274 ) ;
#267 = DIRECTION ( 'NONE',  ( 0.000000000000000000, 0.000000000000000000, 1.000000000000000000 ) ) ;
#268 = UNCERTAINTY_MEASURE_WITH_UNIT (LENGTH_MEASURE( 1.000000000000000082E-05 ), #118, 'distance_accuracy_value', 'NONE');
#269 = PRODUCT_DEFINITION_CONTEXT ( 'detailed design', #170, 'design' ) ;
#270 = FILL_AREA_STYLE ('',( #208 ) ) ;
#271 = DIRECTION ( 'NONE',  ( -1.236440607496819135E-16, 1.000000000000000000, -0.000000000000000000 ) ) ;
#272 = PRODUCT_RELATED_PRODUCT_CATEGORY ( 'part', '', ( #65 ) ) ;
#273 = SURFACE_STYLE_FILL_AREA ( #79 ) ;
#274 = DIRECTION ( 'NONE',  ( 1.000000000000000000, 0.000000000000000000, 0.000000000000000000 ) ) ;
#275 = ADVANCED_FACE ( 'NONE', ( #246 ), #241, .F. ) ;
#276 = CIRCLE ( 'NONE', #320, 9.999999999999994671 ) ;
#277 = SHAPE_DEFINITION_REPRESENTATION ( #322, #218 ) ;
#278 = EDGE_CURVE ( 'NONE', #90, #175, #103, .T. ) ;
#279 = ORIENTED_EDGE ( 'NONE', *, *, #222, .F. ) ;
#280 = SURFACE_SIDE_STYLE ('',( #362 ) ) ;
#281 = COLOUR_RGB ( '',1.000000000000000000, 0.000000000000000000, 0.000000000000000000 ) ;
#282 = PRESENTATION_STYLE_ASSIGNMENT (( #27 ) ) ;
#283 =( NAMED_UNIT ( * ) PLANE_ANGLE_UNIT ( ) SI_UNIT ( $, .RADIAN. ) );
#284 =( LENGTH_UNIT ( ) NAMED_UNIT ( * ) SI_UNIT ( .MILLI., .METRE. ) );
#285 = DIRECTION ( 'NONE',  ( -0.000000000000000000, -1.000000000000000000, -0.000000000000000000 ) ) ;
#286 = STYLED_ITEM ( 'NONE', ( #11 ), #63 ) ;
#287 = AXIS2_PLACEMENT_3D ( 'NONE', #197, #167, #80 ) ;
#288 = FILL_AREA_STYLE ('',( #164 ) ) ;
#289 = ORIENTED_EDGE ( 'NONE', *, *, #111, .T. ) ;
#290 = EDGE_CURVE ( 'NONE', #120, #2, #140, .T. ) ;
#291 = DIRECTION ( 'NONE',  ( 0.000000000000000000, 1.000000000000000000, 0.000000000000000000 ) ) ;
#292 = ORIENTED_EDGE ( 'NONE', *, *, #166, .F. ) ;
#293 = CARTESIAN_POINT ( 'NONE',  ( 0.000000000000000000, 40.00000000000000000, -10.00000000000000000 ) ) ;
#294 = CARTESIAN_POINT ( 'NONE',  ( 1.224646799147353256E-15, 40.00000000000000000, 10.00000000000000000 ) ) ;
#295 = DIRECTION ( 'NONE',  ( 0.000000000000000000, 0.000000000000000000, -1.000000000000000000 ) ) ;
#296 = PRESENTATION_STYLE_ASSIGNMENT (( #130 ) ) ;
#297 =( NAMED_UNIT ( * ) SI_UNIT ( $, .STERADIAN. ) SOLID_ANGLE_UNIT ( ) );
#298 = CIRCLE ( 'NONE', #95, 0.5000000000000004441 ) ;
#299 = PRODUCT_DEFINITION ( 'UNKNOWN', '', #31, #269 ) ;
#300 = CARTESIAN_POINT ( 'NONE',  ( 6.071532165918824830E-15, 40.00000000000000000, 0.000000000000000000 ) ) ;
#301 = UNCERTAINTY_MEASURE_WITH_UNIT (LENGTH_MEASURE( 1.000000000000000082E-05 ), #158, 'distance_accuracy_value', 'NONE');
#302 = ADVANCED_FACE ( 'NONE', ( #131 ), #152, .F. ) ;
#303 = CARTESIAN_POINT ( 'NONE',  ( 6.071532165918824830E-15, 40.00000000000000000, 0.000000000000000000 ) ) ;
#304 = PLANE ( 'NONE',  #287 ) ;
#305 = CARTESIAN_POINT ( 'NONE',  ( 0.000000000000000000, 0.5000000000000000000, -9.500000000000000000 ) ) ;
#306 = UNCERTAINTY_MEASURE_WITH_UNIT (LENGTH_MEASURE( 1.000000000000000082E-05 ), #243, 'distance_accuracy_value', 'NONE');
#307 = PRESENTATION_STYLE_ASSIGNMENT (( #190 ) ) ;
#308 = ORIENTED_EDGE ( 'NONE', *, *, #278, .F. ) ;
#309 = PRESENTATION_LAYER_ASSIGNMENT (  '', '', ( #192 ) ) ;
#310 = EDGE_CURVE ( 'NONE', #318, #148, #15, .T. ) ;
#311 = CARTESIAN_POINT ( 'NONE',  ( 0.000000000000000000, 0.000000000000000000, 0.000000000000000000 ) ) ;
#312 = CARTESIAN_POINT ( 'NONE',  ( 0.000000000000000000, 40.00000000000000000, 0.000000000000000000 ) ) ;
#313 = MECHANICAL_DESIGN_GEOMETRIC_PRESENTATION_REPRESENTATION (  '', ( #139 ), #326 ) ;
#314 = DIRECTION ( 'NONE',  ( -1.236440607496819135E-16, 1.000000000000000000, -0.000000000000000000 ) ) ;
#315 = CARTESIAN_POINT ( 'NONE',  ( 10.00000000000000178, 40.00000000000000000, 1.224646799147353651E-15 ) ) ;
#316 = ORIENTED_EDGE ( 'NONE', *, *, #368, .F. ) ;
#317 = SURFACE_STYLE_FILL_AREA ( #288 ) ;
#318 = VERTEX_POINT ( 'NONE', #129 ) ;
#319 = STYLED_ITEM ( 'NONE', ( #296 ), #76 ) ;
#320 = AXIS2_PLACEMENT_3D ( 'NONE', #195, #314, #53 ) ;
#321 = VERTEX_POINT ( 'NONE', #18 ) ;
#322 = PRODUCT_DEFINITION_SHAPE ( 'NONE', 'NONE',  #299 ) ;
#323 = ORIENTED_EDGE ( 'NONE', *, *, #361, .F. ) ;
#324 = DIRECTION ( 'NONE',  ( -0.000000000000000000, -1.000000000000000000, -0.000000000000000000 ) ) ;
#325 =( LENGTH_UNIT ( ) NAMED_UNIT ( * ) SI_UNIT ( .MILLI., .METRE. ) );
#326 =( GEOMETRIC_REPRESENTATION_CONTEXT ( 3 ) GLOBAL_UNCERTAINTY_ASSIGNED_CONTEXT ( ( #98 ) ) GLOBAL_UNIT_ASSIGNED_CONTEXT ( ( #249, #104, #77 ) ) REPRESENTATION_CONTEXT ( 'NONE', 'WORKASPACE' ) );
#327 = FILL_AREA_STYLE ('',( #210 ) ) ;
#328 = FILL_AREA_STYLE_COLOUR ( '', #115 ) ;
#329 = CARTESIAN_POINT ( 'NONE',  ( 0.000000000000000000, 0.5000000000000000000, 0.000000000000000000 ) ) ;
#330 = DIRECTION ( 'NONE',  ( -1.000000000000000000, 0.000000000000000000, 0.000000000000000000 ) ) ;
#331 = DIRECTION ( 'NONE',  ( -1.236440607496819135E-16, 1.000000000000000000, -0.000000000000000000 ) ) ;
#332 = DIRECTION ( 'NONE',  ( 0.000000000000000000, 0.000000000000000000, 1.000000000000000000 ) ) ;
#333 = DIRECTION ( 'NONE',  ( 0.000000000000000000, 0.000000000000000000, -1.000000000000000000 ) ) ;
#334 = FACE_OUTER_BOUND ( 'NONE', #7, .T. ) ;
#335 = ORIENTED_EDGE ( 'NONE', *, *, #250, .T. ) ;
#336 = MECHANICAL_DESIGN_GEOMETRIC_PRESENTATION_REPRESENTATION (  '', ( #286 ), #56 ) ;
#337 = CIRCLE ( 'NONE', #9, 0.5000000000000004441 ) ;
#338 = VERTEX_POINT ( 'NONE', #180 ) ;
#339 = APPLICATION_CONTEXT ( 'automotive_design' ) ;
#340 = SURFACE_STYLE_USAGE ( .BOTH. , #280 ) ;
#341 = FILL_AREA_STYLE ('',( #253 ) ) ;
#342 = EDGE_CURVE ( 'NONE', #321, #338, #350, .T. ) ;
#343 = ORIENTED_EDGE ( 'NONE', *, *, #166, .T. ) ;
#344 = PRESENTATION_LAYER_ASSIGNMENT (  '', '', ( #232 ) ) ;
#345 = EDGE_LOOP ( 'NONE', ( #196, #220, #348, #308 ) ) ;
#346 =( LENGTH_UNIT ( ) NAMED_UNIT ( * ) SI_UNIT ( .MILLI., .METRE. ) );
#347 = ORIENTED_EDGE ( 'NONE', *, *, #125, .F. ) ;
#348 = ORIENTED_EDGE ( 'NONE', *, *, #368, .T. ) ;
#349 = TOROIDAL_SURFACE ( 'NONE', #30, 9.500000000000000000, 0.5000000000000002220 ) ;
#350 = CIRCLE ( 'NONE', #58, 10.00000000000000355 ) ;
#351 = SURFACE_SIDE_STYLE ('',( #168 ) ) ;
#352 = EDGE_CURVE ( 'NONE', #338, #321, #74, .T. ) ;
#353 = DIRECTION ( 'NONE',  ( 0.000000000000000000, -0.000000000000000000, 1.000000000000000000 ) ) ;
#354 = CARTESIAN_POINT ( 'NONE',  ( -1.347111479062090180E-15, 100.0000000000000000, 0.000000000000000000 ) ) ;
#355 = DIRECTION ( 'NONE',  ( 0.000000000000000000, 0.000000000000000000, -1.000000000000000000 ) ) ;
#356 = UNCERTAINTY_MEASURE_WITH_UNIT (LENGTH_MEASURE( 1.000000000000000082E-05 ), #156, 'distance_accuracy_value', 'NONE');
#357 = CIRCLE ( 'NONE', #48, 10.00000000000000000 ) ;
#358 = AXIS2_PLACEMENT_3D ( 'NONE', #186, #248, #154 ) ;
#359 = DIRECTION ( 'NONE',  ( -0.000000000000000000, -1.000000000000000000, -0.000000000000000000 ) ) ;
#360 = DIRECTION ( 'NONE',  ( 0.000000000000000000, 0.000000000000000000, -1.000000000000000000 ) ) ;
#361 = EDGE_CURVE ( 'NONE', #148, #318, #26, .T. ) ;
#362 = SURFACE_STYLE_FILL_AREA ( #252 ) ;
#363 = AXIS2_PLACEMENT_3D ( 'NONE', #311, #49, #333 ) ;
#364 = CARTESIAN_POINT ( 'NONE',  ( 0.000000000000000000, 0.5000000000000000000, 0.000000000000000000 ) ) ;
#365 = CARTESIAN_POINT ( 'NONE',  ( 1.224646799147353256E-15, 0.000000000000000000, 10.00000000000000000 ) ) ;
#366 = SURFACE_SIDE_STYLE ('',( #273 ) ) ;
#367 = AXIS2_PLACEMENT_3D ( 'NONE', #364, #16, #133 ) ;
#368 = EDGE_CURVE ( 'NONE', #318, #175, #337, .T. ) ;
#369 = DIRECTION ( 'NONE',  ( -0.000000000000000000, -1.000000000000000000, -0.000000000000000000 ) ) ;
#370 = ORIENTED_EDGE ( 'NONE', *, *, #125, .T. ) ;
ENDSEC;
END-ISO-10303-21;
