ISO-10303-21;
HEADER;
FILE_DESCRIPTION (( 'STEP AP214' ),
    '1' );
FILE_NAME ('Micro_RTC-375-1.STEP',
    '2021-09-03T18:15:55',
    ( '' ),
    ( '' ),
    'SwSTEP 2.0',
    'SolidWorks 2020',
    '' );
FILE_SCHEMA (( 'AUTOMOTIVE_DESIGN' ));
ENDSEC;

DATA;
#1 = CARTESIAN_POINT ( 'NONE',  ( 0.0000000000000000000, 0.0000000000000000000, 0.0000000000000000000 ) ) ;
#2 = VECTOR ( 'NONE', #42, 39.37007874015748143 ) ;
#3 = COLOUR_RGB ( '',0.7921568627450980005, 0.8196078431372548767, 0.9333333333333333481 ) ;
#4 = LINE ( 'NONE', #64, #33 ) ;
#5 = EDGE_LOOP ( 'NONE', ( #142, #38, #100, #152 ) ) ;
#6 = ORIENTED_EDGE ( 'NONE', *, *, #87, .T. ) ;
#7 = ORIENTED_EDGE ( 'NONE', *, *, #244, .T. ) ;
#8 = DIRECTION ( 'NONE',  ( -1.000000000000000000, 0.0000000000000000000, 0.0000000000000000000 ) ) ;
#9 = AXIS2_PLACEMENT_3D ( 'NONE', #173, #66, #193 ) ;
#10 = DIRECTION ( 'NONE',  ( 1.000000000000000000, 0.0000000000000000000, 0.0000000000000000000 ) ) ;
#11 = LINE ( 'NONE', #195, #246 ) ;
#12 =( NAMED_UNIT ( * ) PLANE_ANGLE_UNIT ( ) SI_UNIT ( $, .RADIAN. ) );
#13 =( LENGTH_UNIT ( ) NAMED_UNIT ( * ) SI_UNIT ( $, .METRE. ) );
#14 = AXIS2_PLACEMENT_3D ( 'NONE', #111, #155, #16 ) ;
#15 = CARTESIAN_POINT ( 'NONE',  ( 0.0000000000000000000, 0.0000000000000000000, 2.500000000000000000 ) ) ;
#16 = DIRECTION ( 'NONE',  ( -1.000000000000000000, 0.0000000000000000000, 0.0000000000000000000 ) ) ;
#17 = FILL_AREA_STYLE ('',( #73 ) ) ;
#18 = CARTESIAN_POINT ( 'NONE',  ( 0.0000000000000000000, 0.0000000000000000000, 0.0000000000000000000 ) ) ;
#19 = MECHANICAL_DESIGN_GEOMETRIC_PRESENTATION_REPRESENTATION (  '', ( #114 ), #37 ) ;
#20 = CYLINDRICAL_SURFACE ( 'NONE', #9, 0.1875000000000000278 ) ;
#21 = PRODUCT_RELATED_PRODUCT_CATEGORY ( 'part', '', ( #230 ) ) ;
#22 = AXIS2_PLACEMENT_3D ( 'NONE', #170, #124, #202 ) ;
#23 = ORIENTED_EDGE ( 'NONE', *, *, #131, .F. ) ;
#24 = FACE_OUTER_BOUND ( 'NONE', #237, .T. ) ;
#25 = CARTESIAN_POINT ( 'NONE',  ( 0.1875000000000000278, 2.296212748401287726E-17, 2.484999999999999432 ) ) ;
#26 = EDGE_CURVE ( 'NONE', #31, #240, #188, .T. ) ;
#27 = ORIENTED_EDGE ( 'NONE', *, *, #107, .F. ) ;
#28 = FACE_OUTER_BOUND ( 'NONE', #41, .T. ) ;
#29 = DIMENSIONAL_EXPONENTS ( 1.000000000000000000, 0.0000000000000000000, 0.0000000000000000000, 0.0000000000000000000, 0.0000000000000000000, 0.0000000000000000000, 0.0000000000000000000 ) ;
#30 = ORIENTED_EDGE ( 'NONE', *, *, #131, .T. ) ;
#31 = VERTEX_POINT ( 'NONE', #209 ) ;
#32 = DIRECTION ( 'NONE',  ( 0.0000000000000000000, 0.0000000000000000000, -1.000000000000000000 ) ) ;
#33 = VECTOR ( 'NONE', #186, 39.37007874015748854 ) ;
#34 = CARTESIAN_POINT ( 'NONE',  ( 0.0000000000000000000, 0.0000000000000000000, 0.0000000000000000000 ) ) ;
#35 = DIRECTION ( 'NONE',  ( 0.0000000000000000000, 0.0000000000000000000, 1.000000000000000000 ) ) ;
#36 = APPLICATION_PROTOCOL_DEFINITION ( 'draft international standard', 'automotive_design', 1998, #130 ) ;
#37 =( GEOMETRIC_REPRESENTATION_CONTEXT ( 3 ) GLOBAL_UNCERTAINTY_ASSIGNED_CONTEXT ( ( #207 ) ) GLOBAL_UNIT_ASSIGNED_CONTEXT ( ( #222, #226, #148 ) ) REPRESENTATION_CONTEXT ( 'NONE', 'WORKASPACE' ) );
#38 = ORIENTED_EDGE ( 'NONE', *, *, #69, .T. ) ;
#39 = AXIS2_PLACEMENT_3D ( 'NONE', #18, #206, #166 ) ;
#40 = PLANE ( 'NONE',  #61 ) ;
#41 = EDGE_LOOP ( 'NONE', ( #102, #7 ) ) ;
#42 = DIRECTION ( 'NONE',  ( -0.0000000000000000000, -0.0000000000000000000, -1.000000000000000000 ) ) ;
#43 = CIRCLE ( 'NONE', #14, 0.1875000000000000278 ) ;
#44 = ORIENTED_EDGE ( 'NONE', *, *, #216, .T. ) ;
#45 = LINE ( 'NONE', #97, #2 ) ;
#46 = DIRECTION ( 'NONE',  ( 1.000000000000000000, 0.0000000000000000000, 0.0000000000000000000 ) ) ;
#47 = AXIS2_PLACEMENT_3D ( 'NONE', #159, #238, #60 ) ;
#48 = SURFACE_STYLE_FILL_AREA ( #147 ) ;
#49 = SURFACE_SIDE_STYLE ('',( #50 ) ) ;
#50 = SURFACE_STYLE_FILL_AREA ( #17 ) ;
#51 = ADVANCED_FACE ( 'NONE', ( #113 ), #20, .T. ) ;
#52 = AXIS2_PLACEMENT_3D ( 'NONE', #201, #103, #85 ) ;
#53 = EDGE_CURVE ( 'NONE', #59, #119, #161, .T. ) ;
#54 = EDGE_LOOP ( 'NONE', ( #23, #214, #158, #200 ) ) ;
#55 = CONICAL_SURFACE ( 'NONE', #95, 0.1724999999999995981, 0.7853981633974357335 ) ;
#56 = PRODUCT_DEFINITION_SHAPE ( 'NONE', 'NONE',  #154 ) ;
#57 = DIRECTION ( 'NONE',  ( 0.0000000000000000000, 0.0000000000000000000, 1.000000000000000000 ) ) ;
#58 = DIRECTION ( 'NONE',  ( 0.0000000000000000000, 0.0000000000000000000, 1.000000000000000000 ) ) ;
#59 = VERTEX_POINT ( 'NONE', #75 ) ;
#60 = DIRECTION ( 'NONE',  ( 1.000000000000000000, 0.0000000000000000000, 0.0000000000000000000 ) ) ;
#61 = AXIS2_PLACEMENT_3D ( 'NONE', #196, #81, #181 ) ;
#62 = EDGE_CURVE ( 'NONE', #119, #59, #43, .T. ) ;
#63 = EDGE_LOOP ( 'NONE', ( #79, #6, #116, #82 ) ) ;
#64 = CARTESIAN_POINT ( 'NONE',  ( 0.1724999999999995981, 2.112515728529179297E-17, 2.500000000000000000 ) ) ;
#65 = DIRECTION ( 'NONE',  ( 1.000000000000000000, 0.0000000000000000000, 0.0000000000000000000 ) ) ;
#66 = DIRECTION ( 'NONE',  ( -0.0000000000000000000, -0.0000000000000000000, -1.000000000000000000 ) ) ;
#67 = FILL_AREA_STYLE_COLOUR ( '', #3 ) ;
#68 = AXIS2_PLACEMENT_3D ( 'NONE', #157, #183, #241 ) ;
#69 = EDGE_CURVE ( 'NONE', #137, #119, #236, .T. ) ;
#70 = DIRECTION ( 'NONE',  ( 1.000000000000000000, 0.0000000000000000000, 0.0000000000000000000 ) ) ;
#71 = SURFACE_STYLE_USAGE ( .BOTH. , #49 ) ;
#72 = APPLICATION_PROTOCOL_DEFINITION ( 'draft international standard', 'automotive_design', 1998, #132 ) ;
#73 = FILL_AREA_STYLE_COLOUR ( '', #232 ) ;
#74 = PRESENTATION_LAYER_ASSIGNMENT (  '', '', ( #247 ) ) ;
#75 = CARTESIAN_POINT ( 'NONE',  ( -0.1875000000000000278, 0.0000000000000000000, 0.6848313231888862873 ) ) ;
#76 = EDGE_CURVE ( 'NONE', #185, #242, #217, .T. ) ;
#77 = CARTESIAN_POINT ( 'NONE',  ( 0.0000000000000000000, 0.0000000000000000000, 2.500000000000000000 ) ) ;
#78 = FACE_OUTER_BOUND ( 'NONE', #5, .T. ) ;
#79 = ORIENTED_EDGE ( 'NONE', *, *, #244, .F. ) ;
#80 = EDGE_CURVE ( 'NONE', #185, #119, #117, .T. ) ;
#81 = DIRECTION ( 'NONE',  ( 0.0000000000000000000, 0.0000000000000000000, 1.000000000000000000 ) ) ;
#82 = ORIENTED_EDGE ( 'NONE', *, *, #80, .F. ) ;
#83 = CARTESIAN_POINT ( 'NONE',  ( 0.0000000000000000000, 0.0000000000000000000, 0.0000000000000000000 ) ) ;
#84 = PRODUCT_DEFINITION_FORMATION_WITH_SPECIFIED_SOURCE ( 'ANY', '', #230, .NOT_KNOWN. ) ;
#85 = DIRECTION ( 'NONE',  ( -1.000000000000000000, 0.0000000000000000000, 0.0000000000000000000 ) ) ;
#86 = CARTESIAN_POINT ( 'NONE',  ( 0.0000000000000000000, 0.0000000000000000000, 0.0000000000000000000 ) ) ;
#87 = EDGE_CURVE ( 'NONE', #242, #59, #11, .T. ) ;
#88 = FACE_OUTER_BOUND ( 'NONE', #63, .T. ) ;
#89 = ORIENTED_EDGE ( 'NONE', *, *, #224, .T. ) ;
#90 = ADVANCED_FACE ( 'NONE', ( #220 ), #104, .T. ) ;
#91 = CARTESIAN_POINT ( 'NONE',  ( -0.1875000000000000278, 0.0000000000000000000, 2.484999999999999432 ) ) ;
#92 = DIRECTION ( 'NONE',  ( -0.7071067811865385799, 0.0000000000000000000, -0.7071067811865563435 ) ) ;
#93 = PLANE ( 'NONE',  #22 ) ;
#94 = CIRCLE ( 'NONE', #191, 0.1724999999999995981 ) ;
#95 = AXIS2_PLACEMENT_3D ( 'NONE', #122, #32, #101 ) ;
#96 = SURFACE_SIDE_STYLE ('',( #48 ) ) ;
#97 = CARTESIAN_POINT ( 'NONE',  ( -0.1875000000000000278, 0.0000000000000000000, 2.500000000000000000 ) ) ;
#98 = CIRCLE ( 'NONE', #47, 0.1875000000000000278 ) ;
#99 = ORIENTED_EDGE ( 'NONE', *, *, #192, .F. ) ;
#100 = ORIENTED_EDGE ( 'NONE', *, *, #53, .F. ) ;
#101 = DIRECTION ( 'NONE',  ( -1.000000000000000000, 0.0000000000000000000, 0.0000000000000000000 ) ) ;
#102 = ORIENTED_EDGE ( 'NONE', *, *, #76, .T. ) ;
#103 = DIRECTION ( 'NONE',  ( 0.0000000000000000000, 0.0000000000000000000, -1.000000000000000000 ) ) ;
#104 = CONICAL_SURFACE ( 'NONE', #52, 0.1724999999999995981, 0.7853981633974357335 ) ;
#105 =( GEOMETRIC_REPRESENTATION_CONTEXT ( 3 ) GLOBAL_UNCERTAINTY_ASSIGNED_CONTEXT ( ( #127 ) ) GLOBAL_UNIT_ASSIGNED_CONTEXT ( ( #112, #12, #126 ) ) REPRESENTATION_CONTEXT ( 'NONE', 'WORKASPACE' ) );
#106 = PRESENTATION_STYLE_ASSIGNMENT (( #71 ) ) ;
#107 = EDGE_CURVE ( 'NONE', #240, #137, #139, .T. ) ;
#108 = LENGTH_MEASURE_WITH_UNIT ( LENGTH_MEASURE( 0.02539999999999999897 ), #167 );
#109 = PRODUCT_DEFINITION_CONTEXT ( 'detailed design', #132, 'design' ) ;
#110 = CARTESIAN_POINT ( 'NONE',  ( -0.003999999999999999216, 1.172599310183590411E-17, 0.0000000000000000000 ) ) ;
#111 = CARTESIAN_POINT ( 'NONE',  ( 0.0000000000000000000, 0.0000000000000000000, 0.6848313231888862873 ) ) ;
#112 =( CONVERSION_BASED_UNIT ( 'INCH', #108 ) LENGTH_UNIT ( ) NAMED_UNIT ( #136 ) );
#113 = FACE_OUTER_BOUND ( 'NONE', #160, .T. ) ;
#114 = STYLED_ITEM ( 'NONE', ( #106 ), #235 ) ;
#115 =( GEOMETRIC_REPRESENTATION_CONTEXT ( 3 ) GLOBAL_UNCERTAINTY_ASSIGNED_CONTEXT ( ( #203 ) ) GLOBAL_UNIT_ASSIGNED_CONTEXT ( ( #145, #223, #189 ) ) REPRESENTATION_CONTEXT ( 'NONE', 'WORKASPACE' ) );
#116 = ORIENTED_EDGE ( 'NONE', *, *, #53, .T. ) ;
#117 = LINE ( 'NONE', #165, #178 ) ;
#118 = CARTESIAN_POINT ( 'NONE',  ( 0.1875000000000000278, 2.296212748401287726E-17, 0.6848313231888862873 ) ) ;
#119 = VERTEX_POINT ( 'NONE', #118 ) ;
#120 = VECTOR ( 'NONE', #92, 39.37007874015748854 ) ;
#121 = ORIENTED_EDGE ( 'NONE', *, *, #87, .F. ) ;
#122 = CARTESIAN_POINT ( 'NONE',  ( 0.0000000000000000000, 0.0000000000000000000, 2.500000000000000000 ) ) ;
#123 = ADVANCED_FACE ( 'NONE', ( #24 ), #205, .T. ) ;
#124 = DIRECTION ( 'NONE',  ( 0.0000000000000000000, 0.0000000000000000000, 1.000000000000000000 ) ) ;
#125 = PRESENTATION_LAYER_ASSIGNMENT (  '', '', ( #114 ) ) ;
#126 =( NAMED_UNIT ( * ) SI_UNIT ( $, .STERADIAN. ) SOLID_ANGLE_UNIT ( ) );
#127 = UNCERTAINTY_MEASURE_WITH_UNIT (LENGTH_MEASURE( 1.000000000000000082E-05 ), #112, 'distance_accuracy_value', 'NONE');
#128 = DIRECTION ( 'NONE',  ( 0.0000000000000000000, 0.0000000000000000000, 1.000000000000000000 ) ) ;
#129 = AXIS2_PLACEMENT_3D ( 'NONE', #34, #169, #70 ) ;
#130 = APPLICATION_CONTEXT ( 'automotive_design' ) ;
#131 = EDGE_CURVE ( 'NONE', #151, #137, #4, .T. ) ;
#132 = APPLICATION_CONTEXT ( 'automotive_design' ) ;
#133 = DIRECTION ( 'NONE',  ( 1.000000000000000000, 0.0000000000000000000, 0.0000000000000000000 ) ) ;
#134 = ORIENTED_EDGE ( 'NONE', *, *, #80, .T. ) ;
#135 = DIRECTION ( 'NONE',  ( -0.0000000000000000000, -0.0000000000000000000, -1.000000000000000000 ) ) ;
#136 = DIMENSIONAL_EXPONENTS ( 1.000000000000000000, 0.0000000000000000000, 0.0000000000000000000, 0.0000000000000000000, 0.0000000000000000000, 0.0000000000000000000, 0.0000000000000000000 ) ;
#137 = VERTEX_POINT ( 'NONE', #25 ) ;
#138 = EDGE_LOOP ( 'NONE', ( #99, #30, #27, #180 ) ) ;
#139 = CIRCLE ( 'NONE', #153, 0.1875000000000000278 ) ;
#140 = FACE_OUTER_BOUND ( 'NONE', #138, .T. ) ;
#141 = ORIENTED_EDGE ( 'NONE', *, *, #192, .T. ) ;
#142 = ORIENTED_EDGE ( 'NONE', *, *, #107, .T. ) ;
#143 = DIRECTION ( 'NONE',  ( 0.2588190451025216832, 0.0000000000000000000, 0.9659258262890679791 ) ) ;
#144 = PRODUCT_CONTEXT ( 'NONE', #130, 'mechanical' ) ;
#145 =( CONVERSION_BASED_UNIT ( 'INCH', #208 ) LENGTH_UNIT ( ) NAMED_UNIT ( #179 ) );
#146 = AXIS2_PLACEMENT_3D ( 'NONE', #77, #58, #133 ) ;
#147 = FILL_AREA_STYLE ('',( #67 ) ) ;
#148 =( NAMED_UNIT ( * ) SI_UNIT ( $, .STERADIAN. ) SOLID_ANGLE_UNIT ( ) );
#149 = ADVANCED_BREP_SHAPE_REPRESENTATION ( 'Micro_RTC-375-1', ( #235, #175 ), #115 ) ;
#150 = CIRCLE ( 'NONE', #39, 0.003999999999999999216 ) ;
#151 = VERTEX_POINT ( 'NONE', #213 ) ;
#152 = ORIENTED_EDGE ( 'NONE', *, *, #172, .F. ) ;
#153 = AXIS2_PLACEMENT_3D ( 'NONE', #243, #215, #219 ) ;
#154 = PRODUCT_DEFINITION ( 'UNKNOWN', '', #84, #109 ) ;
#155 = DIRECTION ( 'NONE',  ( -0.0000000000000000000, -0.0000000000000000000, -1.000000000000000000 ) ) ;
#156 = CARTESIAN_POINT ( 'NONE',  ( 0.1875000000000000278, 2.296212748401287726E-17, 2.500000000000000000 ) ) ;
#157 = CARTESIAN_POINT ( 'NONE',  ( 0.0000000000000000000, 0.0000000000000000000, 2.500000000000000000 ) ) ;
#158 = ORIENTED_EDGE ( 'NONE', *, *, #26, .T. ) ;
#159 = CARTESIAN_POINT ( 'NONE',  ( 0.0000000000000000000, 0.0000000000000000000, 2.484999999999999432 ) ) ;
#160 = EDGE_LOOP ( 'NONE', ( #198, #44, #248, #184 ) ) ;
#161 = CIRCLE ( 'NONE', #171, 0.1875000000000000278 ) ;
#162 = MECHANICAL_DESIGN_GEOMETRIC_PRESENTATION_REPRESENTATION (  '', ( #247 ), #105 ) ;
#163 = DIRECTION ( 'NONE',  ( -0.0000000000000000000, -0.0000000000000000000, -1.000000000000000000 ) ) ;
#164 = SHAPE_DEFINITION_REPRESENTATION ( #56, #149 ) ;
#165 = CARTESIAN_POINT ( 'NONE',  ( 0.003999999999999999216, 0.0000000000000000000, 0.0000000000000000000 ) ) ;
#166 = DIRECTION ( 'NONE',  ( -1.000000000000000000, 0.0000000000000000000, 0.0000000000000000000 ) ) ;
#167 =( LENGTH_UNIT ( ) NAMED_UNIT ( * ) SI_UNIT ( $, .METRE. ) );
#168 = VECTOR ( 'NONE', #135, 39.37007874015748143 ) ;
#169 = DIRECTION ( 'NONE',  ( 0.0000000000000000000, 0.0000000000000000000, 1.000000000000000000 ) ) ;
#170 = CARTESIAN_POINT ( 'NONE',  ( 0.0000000000000000000, 0.0000000000000000000, 2.500000000000000000 ) ) ;
#171 = AXIS2_PLACEMENT_3D ( 'NONE', #176, #249, #231 ) ;
#172 = EDGE_CURVE ( 'NONE', #240, #59, #45, .T. ) ;
#173 = CARTESIAN_POINT ( 'NONE',  ( 0.0000000000000000000, 0.0000000000000000000, 2.500000000000000000 ) ) ;
#174 = ADVANCED_FACE ( 'NONE', ( #78 ), #233, .T. ) ;
#175 = AXIS2_PLACEMENT_3D ( 'NONE', #86, #128, #10 ) ;
#176 = CARTESIAN_POINT ( 'NONE',  ( 0.0000000000000000000, 0.0000000000000000000, 0.6848313231888862873 ) ) ;
#177 = CARTESIAN_POINT ( 'NONE',  ( 0.003999999999999999216, 0.0000000000000000000, 0.0000000000000000000 ) ) ;
#178 = VECTOR ( 'NONE', #143, 39.37007874015748143 ) ;
#179 = DIMENSIONAL_EXPONENTS ( 1.000000000000000000, 0.0000000000000000000, 0.0000000000000000000, 0.0000000000000000000, 0.0000000000000000000, 0.0000000000000000000, 0.0000000000000000000 ) ;
#180 = ORIENTED_EDGE ( 'NONE', *, *, #26, .F. ) ;
#181 = DIRECTION ( 'NONE',  ( 1.000000000000000000, 0.0000000000000000000, -0.0000000000000000000 ) ) ;
#182 = ORIENTED_EDGE ( 'NONE', *, *, #62, .T. ) ;
#183 = DIRECTION ( 'NONE',  ( -0.0000000000000000000, -0.0000000000000000000, -1.000000000000000000 ) ) ;
#184 = ORIENTED_EDGE ( 'NONE', *, *, #62, .F. ) ;
#185 = VERTEX_POINT ( 'NONE', #177 ) ;
#186 = DIRECTION ( 'NONE',  ( 0.7071067811865385799, 8.659560562354823157E-17, -0.7071067811865563435 ) ) ;
#187 = FACE_OUTER_BOUND ( 'NONE', #194, .T. ) ;
#188 = LINE ( 'NONE', #245, #120 ) ;
#189 =( NAMED_UNIT ( * ) SI_UNIT ( $, .STERADIAN. ) SOLID_ANGLE_UNIT ( ) );
#190 = LENGTH_MEASURE_WITH_UNIT ( LENGTH_MEASURE( 0.02539999999999999897 ), #13 );
#191 = AXIS2_PLACEMENT_3D ( 'NONE', #15, #35, #46 ) ;
#192 = EDGE_CURVE ( 'NONE', #151, #31, #197, .T. ) ;
#193 = DIRECTION ( 'NONE',  ( -1.000000000000000000, 0.0000000000000000000, 0.0000000000000000000 ) ) ;
#194 = EDGE_LOOP ( 'NONE', ( #89, #141 ) ) ;
#195 = CARTESIAN_POINT ( 'NONE',  ( -0.003999999999999999216, 4.898587196589411612E-19, 0.0000000000000000000 ) ) ;
#196 = CARTESIAN_POINT ( 'NONE',  ( 0.0000000000000000000, 0.0000000000000000000, 0.0000000000000000000 ) ) ;
#197 = CIRCLE ( 'NONE', #146, 0.1724999999999995981 ) ;
#198 = ORIENTED_EDGE ( 'NONE', *, *, #69, .F. ) ;
#199 = DIRECTION ( 'NONE',  ( -0.2588190451025216832, 3.169619151431776035E-17, 0.9659258262890679791 ) ) ;
#200 = ORIENTED_EDGE ( 'NONE', *, *, #216, .F. ) ;
#201 = CARTESIAN_POINT ( 'NONE',  ( 0.0000000000000000000, 0.0000000000000000000, 2.500000000000000000 ) ) ;
#202 = DIRECTION ( 'NONE',  ( 1.000000000000000000, 0.0000000000000000000, -0.0000000000000000000 ) ) ;
#203 = UNCERTAINTY_MEASURE_WITH_UNIT (LENGTH_MEASURE( 1.000000000000000082E-05 ), #145, 'distance_accuracy_value', 'NONE');
#204 =( LENGTH_UNIT ( ) NAMED_UNIT ( * ) SI_UNIT ( $, .METRE. ) );
#205 = CONICAL_SURFACE ( 'NONE', #225, 0.003999999999999999216, 0.2617993877991502960 ) ;
#206 = DIRECTION ( 'NONE',  ( -0.0000000000000000000, -0.0000000000000000000, -1.000000000000000000 ) ) ;
#207 = UNCERTAINTY_MEASURE_WITH_UNIT (LENGTH_MEASURE( 1.000000000000000082E-05 ), #222, 'distance_accuracy_value', 'NONE');
#208 = LENGTH_MEASURE_WITH_UNIT ( LENGTH_MEASURE( 0.02539999999999999897 ), #204 );
#209 = CARTESIAN_POINT ( 'NONE',  ( -0.1724999999999995981, 0.0000000000000000000, 2.500000000000000000 ) ) ;
#210 = ADVANCED_FACE ( 'NONE', ( #28 ), #40, .F. ) ;
#211 = PRESENTATION_STYLE_ASSIGNMENT (( #227 ) ) ;
#212 = AXIS2_PLACEMENT_3D ( 'NONE', #1, #163, #8 ) ;
#213 = CARTESIAN_POINT ( 'NONE',  ( 0.1724999999999995981, 2.204364238465233357E-17, 2.500000000000000000 ) ) ;
#214 = ORIENTED_EDGE ( 'NONE', *, *, #224, .F. ) ;
#215 = DIRECTION ( 'NONE',  ( 0.0000000000000000000, 0.0000000000000000000, -1.000000000000000000 ) ) ;
#216 = EDGE_CURVE ( 'NONE', #137, #240, #98, .T. ) ;
#217 = CIRCLE ( 'NONE', #212, 0.003999999999999999216 ) ;
#218 = ORIENTED_EDGE ( 'NONE', *, *, #76, .F. ) ;
#219 = DIRECTION ( 'NONE',  ( 1.000000000000000000, 0.0000000000000000000, 0.0000000000000000000 ) ) ;
#220 = FACE_OUTER_BOUND ( 'NONE', #54, .T. ) ;
#221 = ADVANCED_FACE ( 'NONE', ( #140 ), #55, .T. ) ;
#222 =( CONVERSION_BASED_UNIT ( 'INCH', #190 ) LENGTH_UNIT ( ) NAMED_UNIT ( #29 ) );
#223 =( NAMED_UNIT ( * ) PLANE_ANGLE_UNIT ( ) SI_UNIT ( $, .RADIAN. ) );
#224 = EDGE_CURVE ( 'NONE', #31, #151, #94, .T. ) ;
#225 = AXIS2_PLACEMENT_3D ( 'NONE', #83, #57, #65 ) ;
#226 =( NAMED_UNIT ( * ) PLANE_ANGLE_UNIT ( ) SI_UNIT ( $, .RADIAN. ) );
#227 = SURFACE_STYLE_USAGE ( .BOTH. , #96 ) ;
#228 = CLOSED_SHELL ( 'NONE', ( #229, #221, #174, #51, #234, #90, #123, #210 ) ) ;
#229 = ADVANCED_FACE ( 'NONE', ( #88 ), #239, .T. ) ;
#230 = PRODUCT ( 'Micro_RTC-375-1', 'Micro_RTC-375-1', '', ( #144 ) ) ;
#231 = DIRECTION ( 'NONE',  ( -1.000000000000000000, 0.0000000000000000000, 0.0000000000000000000 ) ) ;
#232 = COLOUR_RGB ( '',0.7921568627450980005, 0.8196078431372548767, 0.9333333333333333481 ) ;
#233 = CYLINDRICAL_SURFACE ( 'NONE', #68, 0.1875000000000000278 ) ;
#234 = ADVANCED_FACE ( 'NONE', ( #187 ), #93, .T. ) ;
#235 = MANIFOLD_SOLID_BREP ( 'Cut-Revolve1', #228 ) ;
#236 = LINE ( 'NONE', #156, #168 ) ;
#237 = EDGE_LOOP ( 'NONE', ( #121, #218, #134, #182 ) ) ;
#238 = DIRECTION ( 'NONE',  ( 0.0000000000000000000, 0.0000000000000000000, -1.000000000000000000 ) ) ;
#239 = CONICAL_SURFACE ( 'NONE', #129, 0.003999999999999999216, 0.2617993877991502960 ) ;
#240 = VERTEX_POINT ( 'NONE', #91 ) ;
#241 = DIRECTION ( 'NONE',  ( -1.000000000000000000, 0.0000000000000000000, 0.0000000000000000000 ) ) ;
#242 = VERTEX_POINT ( 'NONE', #110 ) ;
#243 = CARTESIAN_POINT ( 'NONE',  ( 0.0000000000000000000, 0.0000000000000000000, 2.484999999999999432 ) ) ;
#244 = EDGE_CURVE ( 'NONE', #242, #185, #150, .T. ) ;
#245 = CARTESIAN_POINT ( 'NONE',  ( -0.1724999999999995981, 0.0000000000000000000, 2.500000000000000000 ) ) ;
#246 = VECTOR ( 'NONE', #199, 39.37007874015748143 ) ;
#247 = STYLED_ITEM ( 'NONE', ( #211 ), #149 ) ;
#248 = ORIENTED_EDGE ( 'NONE', *, *, #172, .T. ) ;
#249 = DIRECTION ( 'NONE',  ( -0.0000000000000000000, -0.0000000000000000000, -1.000000000000000000 ) ) ;
ENDSEC;
END-ISO-10303-21;
