ISO-10303-21;
HEADER;
/* Generated by software containing ST-Developer
 * from STEP Tools, Inc. (www.steptools.com) 
 */

FILE_DESCRIPTION(
/* description */ (''),
/* implementation_level */ '2;1');

FILE_NAME(
/* name */ 'Helical_86371.step',
/* time_stamp */ '2023-07-10T16:56:43-04:00',
/* author */ (''),
/* organization */ (''),
/* preprocessor_version */ 'ST-DEVELOPER v19.2',
/* originating_system */ 'Autodesk Translation Framework v12.6.0.85',
/* authorisation */ '');

FILE_SCHEMA (('AUTOMOTIVE_DESIGN { 1 0 10303 214 3 1 1 }'));
ENDSEC;

DATA;
#10=MECHANICAL_DESIGN_GEOMETRIC_PRESENTATION_REPRESENTATION('',(#13),#122);
#11=SHAPE_REPRESENTATION_RELATIONSHIP('SRR','None',#132,#12);
#12=ADVANCED_BREP_SHAPE_REPRESENTATION('',(#14),#121);
#13=STYLED_ITEM('',(#141),#14);
#14=MANIFOLD_SOLID_BREP('Body1',#60);
#15=TOROIDAL_SURFACE('',#81,0.329999999999999,0.045);
#16=LINE('',#115,#17);
#17=VECTOR('',#97,0.375);
#18=CYLINDRICAL_SURFACE('',#78,0.375);
#19=PLANE('',#76);
#20=FACE_OUTER_BOUND('',#24,.T.);
#21=FACE_OUTER_BOUND('',#25,.T.);
#22=FACE_OUTER_BOUND('',#26,.T.);
#23=FACE_OUTER_BOUND('',#27,.T.);
#24=EDGE_LOOP('',(#43));
#25=EDGE_LOOP('',(#44));
#26=EDGE_LOOP('',(#45,#46,#47,#48,#49));
#27=EDGE_LOOP('',(#50,#51,#52,#53,#54));
#28=CIRCLE('',#75,0.34020618556701);
#29=CIRCLE('',#77,0.375);
#30=CIRCLE('',#79,0.374999999999999);
#31=CIRCLE('',#80,0.374999999999999);
#32=CIRCLE('',#82,0.045);
#33=VERTEX_POINT('',#106);
#34=VERTEX_POINT('',#109);
#35=VERTEX_POINT('',#112);
#36=VERTEX_POINT('',#113);
#37=EDGE_CURVE('',#33,#33,#28,.T.);
#38=EDGE_CURVE('',#34,#34,#29,.T.);
#39=EDGE_CURVE('',#35,#36,#30,.T.);
#40=EDGE_CURVE('',#35,#34,#16,.T.);
#41=EDGE_CURVE('',#36,#35,#31,.T.);
#42=EDGE_CURVE('',#33,#36,#32,.T.);
#43=ORIENTED_EDGE('',*,*,#37,.T.);
#44=ORIENTED_EDGE('',*,*,#38,.F.);
#45=ORIENTED_EDGE('',*,*,#39,.F.);
#46=ORIENTED_EDGE('',*,*,#40,.T.);
#47=ORIENTED_EDGE('',*,*,#38,.T.);
#48=ORIENTED_EDGE('',*,*,#40,.F.);
#49=ORIENTED_EDGE('',*,*,#41,.F.);
#50=ORIENTED_EDGE('',*,*,#37,.F.);
#51=ORIENTED_EDGE('',*,*,#42,.T.);
#52=ORIENTED_EDGE('',*,*,#41,.T.);
#53=ORIENTED_EDGE('',*,*,#39,.T.);
#54=ORIENTED_EDGE('',*,*,#42,.F.);
#55=SPHERICAL_SURFACE('',#74,1.5);
#56=ADVANCED_FACE('',(#20),#55,.T.);
#57=ADVANCED_FACE('',(#21),#19,.T.);
#58=ADVANCED_FACE('',(#22),#18,.T.);
#59=ADVANCED_FACE('',(#23),#15,.T.);
#60=CLOSED_SHELL('',(#56,#57,#58,#59));
#61=DERIVED_UNIT_ELEMENT(#63,1.);
#62=DERIVED_UNIT_ELEMENT(#126,-3.);
#63=(
MASS_UNIT()
NAMED_UNIT(*)
SI_UNIT(.KILO.,.GRAM.)
);
#64=DERIVED_UNIT((#61,#62));
#65=MEASURE_REPRESENTATION_ITEM('density measure',
POSITIVE_RATIO_MEASURE(7850.),#64);
#66=PROPERTY_DEFINITION_REPRESENTATION(#71,#68);
#67=PROPERTY_DEFINITION_REPRESENTATION(#72,#69);
#68=REPRESENTATION('material name',(#70),#121);
#69=REPRESENTATION('density',(#65),#121);
#70=DESCRIPTIVE_REPRESENTATION_ITEM('Steel','Steel');
#71=PROPERTY_DEFINITION('material property','material name',#134);
#72=PROPERTY_DEFINITION('material property','density of part',#134);
#73=AXIS2_PLACEMENT_3D('',#104,#83,#84);
#74=AXIS2_PLACEMENT_3D('',#105,#85,#86);
#75=AXIS2_PLACEMENT_3D('',#107,#87,#88);
#76=AXIS2_PLACEMENT_3D('',#108,#89,#90);
#77=AXIS2_PLACEMENT_3D('',#110,#91,#92);
#78=AXIS2_PLACEMENT_3D('',#111,#93,#94);
#79=AXIS2_PLACEMENT_3D('',#114,#95,#96);
#80=AXIS2_PLACEMENT_3D('',#116,#98,#99);
#81=AXIS2_PLACEMENT_3D('',#117,#100,#101);
#82=AXIS2_PLACEMENT_3D('',#118,#102,#103);
#83=DIRECTION('axis',(0.,0.,1.));
#84=DIRECTION('refdir',(1.,0.,0.));
#85=DIRECTION('center_axis',(6.12323399573677E-17,0.,1.));
#86=DIRECTION('ref_axis',(1.,0.,0.));
#87=DIRECTION('center_axis',(1.96693055543827E-16,-1.,0.));
#88=DIRECTION('ref_axis',(1.,1.96693055543827E-16,0.));
#89=DIRECTION('center_axis',(-1.96693055543827E-16,1.,0.));
#90=DIRECTION('ref_axis',(0.,0.,1.));
#91=DIRECTION('center_axis',(1.96693055543827E-16,-1.,0.));
#92=DIRECTION('ref_axis',(1.,1.96693055543827E-16,0.));
#93=DIRECTION('center_axis',(1.96693055543827E-16,-1.,0.));
#94=DIRECTION('ref_axis',(1.,0.,0.));
#95=DIRECTION('center_axis',(1.96693055543827E-16,-1.,0.));
#96=DIRECTION('ref_axis',(1.,1.96693055543827E-16,0.));
#97=DIRECTION('',(-1.96693055543827E-16,1.,0.));
#98=DIRECTION('center_axis',(1.96693055543827E-16,-1.,0.));
#99=DIRECTION('ref_axis',(1.,1.96693055543827E-16,0.));
#100=DIRECTION('center_axis',(1.96693055543827E-16,-1.,0.));
#101=DIRECTION('ref_axis',(0.,0.,-1.));
#102=DIRECTION('center_axis',(-1.,-1.96693055543827E-16,-1.22464679914735E-16));
#103=DIRECTION('ref_axis',(-1.22464679914735E-16,0.,1.));
#104=CARTESIAN_POINT('',(0.,0.,0.));
#105=CARTESIAN_POINT('Origin',(-8.E-16,1.5,0.));
#106=CARTESIAN_POINT('',(-4.93518571580337E-17,0.039089410230061,0.34020618556701));
#107=CARTESIAN_POINT('Origin',(-7.68861553755679E-18,0.039089410230061,
0.));
#108=CARTESIAN_POINT('Origin',(0.374999999999999,4.,0.));
#109=CARTESIAN_POINT('',(-0.375,4.,-4.59242549680257E-17));
#110=CARTESIAN_POINT('Origin',(-7.86772222175308E-16,4.,0.));
#111=CARTESIAN_POINT('Origin',(-4.01540683373105E-16,2.04145836396158,0.));
#112=CARTESIAN_POINT('',(-0.375,0.082916727923159,-4.59242549680257E-17));
#113=CARTESIAN_POINT('',(-6.22333995389279E-17,0.082916727923159,0.374999999999999));
#114=CARTESIAN_POINT('Origin',(-1.63091445709023E-17,0.082916727923159,
0.));
#115=CARTESIAN_POINT('',(-0.375,2.04145836396158,-4.59242549680257E-17));
#116=CARTESIAN_POINT('Origin',(-1.63091445709023E-17,0.082916727923159,
0.));
#117=CARTESIAN_POINT('Origin',(-1.63091445709023E-17,0.082916727923159,
0.));
#118=CARTESIAN_POINT('Origin',(-5.67224889427648E-17,0.082916727923159,
0.329999999999999));
#119=UNCERTAINTY_MEASURE_WITH_UNIT(LENGTH_MEASURE(0.000393700787401575),
#124,'DISTANCE_ACCURACY_VALUE',
'Maximum model space distance between geometric entities at asserted c
onnectivities');
#120=UNCERTAINTY_MEASURE_WITH_UNIT(LENGTH_MEASURE(0.000393700787401575),
#124,'DISTANCE_ACCURACY_VALUE',
'Maximum model space distance between geometric entities at asserted c
onnectivities');
#121=(
GEOMETRIC_REPRESENTATION_CONTEXT(3)
GLOBAL_UNCERTAINTY_ASSIGNED_CONTEXT((#119))
GLOBAL_UNIT_ASSIGNED_CONTEXT((#124,#128,#129))
REPRESENTATION_CONTEXT('','3D')
);
#122=(
GEOMETRIC_REPRESENTATION_CONTEXT(3)
GLOBAL_UNCERTAINTY_ASSIGNED_CONTEXT((#120))
GLOBAL_UNIT_ASSIGNED_CONTEXT((#124,#128,#129))
REPRESENTATION_CONTEXT('','3D')
);
#123=DIMENSIONAL_EXPONENTS(1.,0.,0.,0.,0.,0.,0.);
#124=(
CONVERSION_BASED_UNIT('inch',#127)
LENGTH_UNIT()
NAMED_UNIT(#123)
);
#125=(
LENGTH_UNIT()
NAMED_UNIT(*)
SI_UNIT(.MILLI.,.METRE.)
);
#126=(
LENGTH_UNIT()
NAMED_UNIT(*)
SI_UNIT($,.METRE.)
);
#127=LENGTH_MEASURE_WITH_UNIT(LENGTH_MEASURE(25.4),#125);
#128=(
NAMED_UNIT(*)
PLANE_ANGLE_UNIT()
SI_UNIT($,.RADIAN.)
);
#129=(
NAMED_UNIT(*)
SI_UNIT($,.STERADIAN.)
SOLID_ANGLE_UNIT()
);
#130=SHAPE_DEFINITION_REPRESENTATION(#131,#132);
#131=PRODUCT_DEFINITION_SHAPE('',$,#134);
#132=SHAPE_REPRESENTATION('',(#73),#121);
#133=PRODUCT_DEFINITION_CONTEXT('part definition',#138,'design');
#134=PRODUCT_DEFINITION('(Unsaved)','(Unsaved)',#135,#133);
#135=PRODUCT_DEFINITION_FORMATION('',$,#140);
#136=PRODUCT_RELATED_PRODUCT_CATEGORY('(Unsaved)','(Unsaved)',(#140));
#137=APPLICATION_PROTOCOL_DEFINITION('international standard',
'automotive_design',2009,#138);
#138=APPLICATION_CONTEXT(
'Core Data for Automotive Mechanical Design Process');
#139=PRODUCT_CONTEXT('part definition',#138,'mechanical');
#140=PRODUCT('(Unsaved)','(Unsaved)',$,(#139));
#141=PRESENTATION_STYLE_ASSIGNMENT((#142));
#142=SURFACE_STYLE_USAGE(.BOTH.,#143);
#143=SURFACE_SIDE_STYLE('',(#144));
#144=SURFACE_STYLE_FILL_AREA(#145);
#145=FILL_AREA_STYLE('Steel - Satin',(#146));
#146=FILL_AREA_STYLE_COLOUR('Steel - Satin',#147);
#147=COLOUR_RGB('Steel - Satin',0.627450980392157,0.627450980392157,0.627450980392157);
ENDSEC;
END-ISO-10303-21;
