ISO-10303-21;
HEADER;
FILE_DESCRIPTION (( 'STEP AP214' ),
    '1' );
FILE_NAME ('Micro_AEMM-180-3X.STEP',
    '2022-03-15T14:33:46',
    ( '' ),
    ( '' ),
    'SwSTEP 2.0',
    'SolidWorks 2022',
    '' );
FILE_SCHEMA (( 'AUTOMOTIVE_DESIGN' ));
ENDSEC;

DATA;
#1 = CARTESIAN_POINT ( 'NONE',  ( -0.3539761694999999930, 0.000000000000000000, 8.669915659052318686E-17 ) ) ;
#2 = AXIS2_PLACEMENT_3D ( 'NONE', #118, #44, #45 ) ;
#3 = DIRECTION ( 'NONE',  ( 0.7071067811865346942, 8.659560562354773853E-17, -0.7071067811865603403 ) ) ;
#4 = CARTESIAN_POINT ( 'NONE',  ( 2.169650400296604887E-16, 0.000000000000000000, 1.771654000000000062 ) ) ;
#5 = VERTEX_POINT ( 'NONE', #99 ) ;
#6 = EDGE_LOOP ( 'NONE', ( #240, #151, #258, #190 ) ) ;
#7 = FILL_AREA_STYLE_COLOUR ( '', #13 ) ;
#8 = MECHANICAL_DESIGN_GEOMETRIC_PRESENTATION_REPRESENTATION (  '', ( #242 ), #86 ) ;
#9 = MANIFOLD_SOLID_BREP ( 'Cut-Revolve1', #196 ) ;
#10 = CONICAL_SURFACE ( 'NONE', #128, 0.3539761694999999375, 0.1745329251994338915 ) ;
#11 = CARTESIAN_POINT ( 'NONE',  ( 0.3393305000000003124, 4.247448616716761677E-17, 3.622047000000000239 ) ) ;
#12 = CARTESIAN_POINT ( 'NONE',  ( 0.000000000000000000, 0.000000000000000000, 3.622047000000000239 ) ) ;
#13 = COLOUR_RGB ( '',0.7921568627450980005, 0.8196078431372548767, 0.9333333333333333481 ) ;
#14 = CONICAL_SURFACE ( 'NONE', #271, 0.3393305000000003124, 0.7853981633974300713 ) ;
#15 = CYLINDRICAL_SURFACE ( 'NONE', #176, 0.3543304999999999927 ) ;
#16 = CYLINDRICAL_SURFACE ( 'NONE', #2, 0.3539761694999999375 ) ;
#17 = CARTESIAN_POINT ( 'NONE',  ( 0.3539761695000001041, 0.000000000000000000, 1.771654000000000062 ) ) ;
#18 = PLANE ( 'NONE',  #223 ) ;
#19 = CARTESIAN_POINT ( 'NONE',  ( 2.169650400296604887E-16, 0.000000000000000000, 1.771654000000000062 ) ) ;
#20 = CIRCLE ( 'NONE', #63, 0.3539761694999999375 ) ;
#21 = PRODUCT_DEFINITION_CONTEXT ( 'detailed design', #202, 'design' ) ;
#22 = CARTESIAN_POINT ( 'NONE',  ( -0.3543304999999997706, 0.000000000000000000, 1.773663508122786725 ) ) ;
#23 = EDGE_CURVE ( 'NONE', #76, #150, #252, .T. ) ;
#24 = CARTESIAN_POINT ( 'NONE',  ( 0.3539761694999999930, 4.334957829526159343E-17, -7.582401355855259480E-33 ) ) ;
#25 = EDGE_LOOP ( 'NONE', ( #97, #153 ) ) ;
#26 = CIRCLE ( 'NONE', #163, 0.3539761694999999930 ) ;
#27 = ORIENTED_EDGE ( 'NONE', *, *, #230, .F. ) ;
#28 = ORIENTED_EDGE ( 'NONE', *, *, #117, .F. ) ;
#29 = EDGE_CURVE ( 'NONE', #259, #194, #155, .T. ) ;
#30 = EDGE_LOOP ( 'NONE', ( #78, #188, #285, #264 ) ) ;
#31 = ORIENTED_EDGE ( 'NONE', *, *, #244, .T. ) ;
#32 = ORIENTED_EDGE ( 'NONE', *, *, #254, .T. ) ;
#33 = VECTOR ( 'NONE', #145, 39.37007874015748143 ) ;
#34 = EDGE_LOOP ( 'NONE', ( #109, #195, #280, #245 ) ) ;
#35 = PRESENTATION_STYLE_ASSIGNMENT (( #114 ) ) ;
#36 = EDGE_CURVE ( 'NONE', #299, #222, #98, .T. ) ;
#37 =( NAMED_UNIT ( * ) SI_UNIT ( $, .STERADIAN. ) SOLID_ANGLE_UNIT ( ) );
#38 = VECTOR ( 'NONE', #214, 39.37007874015748143 ) ;
#39 = CARTESIAN_POINT ( 'NONE',  ( 0.000000000000000000, 0.000000000000000000, 0.000000000000000000 ) ) ;
#40 = CARTESIAN_POINT ( 'NONE',  ( -0.3539761694999997155, 4.337127478089485229E-17, 1.771654000000000062 ) ) ;
#41 = VECTOR ( 'NONE', #48, 39.37007874015748143 ) ;
#42 = DIRECTION ( 'NONE',  ( 1.000000000000000000, 0.000000000000000000, 0.000000000000000000 ) ) ;
#43 = EDGE_CURVE ( 'NONE', #287, #105, #61, .T. ) ;
#44 = DIRECTION ( 'NONE',  ( -1.224646799147353207E-16, -0.000000000000000000, -1.000000000000000000 ) ) ;
#45 = DIRECTION ( 'NONE',  ( -1.000000000000000000, 0.000000000000000000, 1.224646799147352961E-16 ) ) ;
#46 = CARTESIAN_POINT ( 'NONE',  ( -0.3393305000000003124, 0.000000000000000000, 3.622047000000000239 ) ) ;
#47 = ADVANCED_FACE ( 'NONE', ( #141 ), #16, .T. ) ;
#48 = DIRECTION ( 'NONE',  ( -1.224646799147353207E-16, -0.000000000000000000, -1.000000000000000000 ) ) ;
#49 = LENGTH_MEASURE_WITH_UNIT ( LENGTH_MEASURE( 0.02539999999999999897 ), #102 );
#50 = ORIENTED_EDGE ( 'NONE', *, *, #23, .F. ) ;
#51 = DIRECTION ( 'NONE',  ( 0.000000000000000000, 0.000000000000000000, -1.000000000000000000 ) ) ;
#52 = ORIENTED_EDGE ( 'NONE', *, *, #170, .T. ) ;
#53 = EDGE_LOOP ( 'NONE', ( #81, #31, #221, #28 ) ) ;
#54 = CARTESIAN_POINT ( 'NONE',  ( 0.000000000000000000, 0.000000000000000000, 0.000000000000000000 ) ) ;
#55 = CIRCLE ( 'NONE', #197, 0.3539761694999999375 ) ;
#56 = APPLICATION_PROTOCOL_DEFINITION ( 'draft international standard', 'automotive_design', 1998, #95 ) ;
#57 = EDGE_LOOP ( 'NONE', ( #132, #154, #60, #32 ) ) ;
#58 = DIRECTION ( 'NONE',  ( 0.000000000000000000, 0.000000000000000000, 1.000000000000000000 ) ) ;
#59 = ORIENTED_EDGE ( 'NONE', *, *, #158, .F. ) ;
#60 = ORIENTED_EDGE ( 'NONE', *, *, #117, .T. ) ;
#61 = CIRCLE ( 'NONE', #180, 0.3543304999999999927 ) ;
#62 = STYLED_ITEM ( 'NONE', ( #173 ), #9 ) ;
#63 = AXIS2_PLACEMENT_3D ( 'NONE', #4, #256, #103 ) ;
#64 = CARTESIAN_POINT ( 'NONE',  ( 2.169650400296604887E-16, 0.000000000000000000, 1.771654000000000062 ) ) ;
#65 = CARTESIAN_POINT ( 'NONE',  ( -0.3543304999999999927, 0.000000000000000000, 3.607046999999999670 ) ) ;
#66 = DIRECTION ( 'NONE',  ( -0.000000000000000000, -0.000000000000000000, -1.000000000000000000 ) ) ;
#67 = DIRECTION ( 'NONE',  ( 0.1736481776669313859, 0.000000000000000000, 0.9848077530122077983 ) ) ;
#68 = ADVANCED_FACE ( 'NONE', ( #210 ), #161, .T. ) ;
#69 = DIRECTION ( 'NONE',  ( 1.000000000000000000, 0.000000000000000000, 0.000000000000000000 ) ) ;
#70 = DIRECTION ( 'NONE',  ( -0.000000000000000000, -0.000000000000000000, -1.000000000000000000 ) ) ;
#71 = AXIS2_PLACEMENT_3D ( 'NONE', #212, #293, #115 ) ;
#72 =( NAMED_UNIT ( * ) PLANE_ANGLE_UNIT ( ) SI_UNIT ( $, .RADIAN. ) );
#73 = ORIENTED_EDGE ( 'NONE', *, *, #29, .T. ) ;
#74 = FACE_OUTER_BOUND ( 'NONE', #262, .T. ) ;
#75 = DIMENSIONAL_EXPONENTS ( 1.000000000000000000, 0.000000000000000000, 0.000000000000000000, 0.000000000000000000, 0.000000000000000000, 0.000000000000000000, 0.000000000000000000 ) ;
#76 = VERTEX_POINT ( 'NONE', #160 ) ;
#77 = LINE ( 'NONE', #122, #38 ) ;
#78 = ORIENTED_EDGE ( 'NONE', *, *, #201, .T. ) ;
#79 = DIRECTION ( 'NONE',  ( 1.000000000000000000, 0.000000000000000000, 0.000000000000000000 ) ) ;
#80 = AXIS2_PLACEMENT_3D ( 'NONE', #125, #70, #185 ) ;
#81 = ORIENTED_EDGE ( 'NONE', *, *, #261, .F. ) ;
#82 = PRODUCT_CONTEXT ( 'NONE', #95, 'mechanical' ) ;
#83 = EDGE_CURVE ( 'NONE', #126, #194, #207, .T. ) ;
#84 =( CONVERSION_BASED_UNIT ( 'INCH', #226 ) LENGTH_UNIT ( ) NAMED_UNIT ( #217 ) );
#85 =( LENGTH_UNIT ( ) NAMED_UNIT ( * ) SI_UNIT ( $, .METRE. ) );
#86 =( GEOMETRIC_REPRESENTATION_CONTEXT ( 3 ) GLOBAL_UNCERTAINTY_ASSIGNED_CONTEXT ( ( #238 ) ) GLOBAL_UNIT_ASSIGNED_CONTEXT ( ( #84, #290, #112 ) ) REPRESENTATION_CONTEXT ( 'NONE', 'WORKASPACE' ) );
#87 = DIRECTION ( 'NONE',  ( 1.224646799147353207E-16, 0.000000000000000000, 1.000000000000000000 ) ) ;
#88 = ADVANCED_FACE ( 'NONE', ( #249 ), #15, .T. ) ;
#89 = DIRECTION ( 'NONE',  ( 0.000000000000000000, 0.000000000000000000, 1.000000000000000000 ) ) ;
#90 = VECTOR ( 'NONE', #178, 39.37007874015748143 ) ;
#91 = CARTESIAN_POINT ( 'NONE',  ( -0.3543304999999999927, 0.000000000000000000, 3.622047000000000239 ) ) ;
#92 = LINE ( 'NONE', #46, #33 ) ;
#93 = PRODUCT_DEFINITION_SHAPE ( 'NONE', 'NONE',  #281 ) ;
#94 = DIRECTION ( 'NONE',  ( -1.000000000000000000, 0.000000000000000000, 1.224646799147352961E-16 ) ) ;
#95 = APPLICATION_CONTEXT ( 'automotive_design' ) ;
#96 = LINE ( 'NONE', #241, #41 ) ;
#97 = ORIENTED_EDGE ( 'NONE', *, *, #158, .T. ) ;
#98 = CIRCLE ( 'NONE', #236, 0.3393305000000003124 ) ;
#99 = CARTESIAN_POINT ( 'NONE',  ( 0.3539761695000001041, 0.000000000000000000, 1.771654000000000062 ) ) ;
#100 = DIRECTION ( 'NONE',  ( 1.000000000000000000, 0.000000000000000000, 0.000000000000000000 ) ) ;
#101 = DIRECTION ( 'NONE',  ( -1.224646799147353207E-16, -0.000000000000000000, -1.000000000000000000 ) ) ;
#102 =( LENGTH_UNIT ( ) NAMED_UNIT ( * ) SI_UNIT ( $, .METRE. ) );
#103 = DIRECTION ( 'NONE',  ( -1.000000000000000000, 0.000000000000000000, 0.000000000000000000 ) ) ;
#104 = SURFACE_SIDE_STYLE ('',( #167 ) ) ;
#105 = VERTEX_POINT ( 'NONE', #232 ) ;
#106 = PRESENTATION_LAYER_ASSIGNMENT (  '', '', ( #62 ) ) ;
#107 =( GEOMETRIC_REPRESENTATION_CONTEXT ( 3 ) GLOBAL_UNCERTAINTY_ASSIGNED_CONTEXT ( ( #147 ) ) GLOBAL_UNIT_ASSIGNED_CONTEXT ( ( #205, #156, #37 ) ) REPRESENTATION_CONTEXT ( 'NONE', 'WORKASPACE' ) );
#108 = AXIS2_PLACEMENT_3D ( 'NONE', #127, #263, #69 ) ;
#109 = ORIENTED_EDGE ( 'NONE', *, *, #170, .F. ) ;
#110 = EDGE_CURVE ( 'NONE', #150, #287, #278, .T. ) ;
#111 = FILL_AREA_STYLE_COLOUR ( '', #273 ) ;
#112 =( NAMED_UNIT ( * ) SI_UNIT ( $, .STERADIAN. ) SOLID_ANGLE_UNIT ( ) );
#113 =( LENGTH_UNIT ( ) NAMED_UNIT ( * ) SI_UNIT ( $, .METRE. ) );
#114 = SURFACE_STYLE_USAGE ( .BOTH. , #206 ) ;
#115 = DIRECTION ( 'NONE',  ( 1.000000000000000000, 0.000000000000000000, -0.000000000000000000 ) ) ;
#116 = AXIS2_PLACEMENT_3D ( 'NONE', #19, #292, #275 ) ;
#117 = EDGE_CURVE ( 'NONE', #5, #105, #227, .T. ) ;
#118 = CARTESIAN_POINT ( 'NONE',  ( 0.000000000000000000, 0.000000000000000000, 0.000000000000000000 ) ) ;
#119 = ADVANCED_FACE ( 'NONE', ( #142 ), #120, .T. ) ;
#120 = CYLINDRICAL_SURFACE ( 'NONE', #203, 0.3539761694999999375 ) ;
#121 = AXIS2_PLACEMENT_3D ( 'NONE', #228, #140, #251 ) ;
#122 = CARTESIAN_POINT ( 'NONE',  ( 0.3543304999999999927, 4.339297126652812347E-17, 3.622047000000000239 ) ) ;
#123 = DIRECTION ( 'NONE',  ( -0.000000000000000000, -0.000000000000000000, -1.000000000000000000 ) ) ;
#124 = CARTESIAN_POINT ( 'NONE',  ( 2.169650400296604887E-16, 0.000000000000000000, 1.771654000000000062 ) ) ;
#125 = CARTESIAN_POINT ( 'NONE',  ( 0.000000000000000000, 0.000000000000000000, 3.622047000000000239 ) ) ;
#126 = VERTEX_POINT ( 'NONE', #40 ) ;
#127 = CARTESIAN_POINT ( 'NONE',  ( 0.000000000000000000, 0.000000000000000000, 3.622047000000000239 ) ) ;
#128 = AXIS2_PLACEMENT_3D ( 'NONE', #64, #87, #177 ) ;
#129 = EDGE_LOOP ( 'NONE', ( #169, #52, #27, #175 ) ) ;
#130 = SHAPE_DEFINITION_REPRESENTATION ( #93, #204 ) ;
#131 = DIRECTION ( 'NONE',  ( -0.1736481776669311916, 2.126576849575783316E-17, 0.9848077530122080203 ) ) ;
#132 = ORIENTED_EDGE ( 'NONE', *, *, #244, .F. ) ;
#133 = EDGE_LOOP ( 'NONE', ( #268, #59, #267, #50 ) ) ;
#134 = ADVANCED_FACE ( 'NONE', ( #234 ), #277, .T. ) ;
#135 = AXIS2_PLACEMENT_3D ( 'NONE', #39, #282, #100 ) ;
#136 = CIRCLE ( 'NONE', #108, 0.3393305000000003124 ) ;
#137 = CARTESIAN_POINT ( 'NONE',  ( 2.172111337987036080E-16, 0.000000000000000000, 1.773663508122786725 ) ) ;
#138 = ADVANCED_FACE ( 'NONE', ( #215 ), #10, .T. ) ;
#139 = VECTOR ( 'NONE', #3, 39.37007874015748143 ) ;
#140 = DIRECTION ( 'NONE',  ( -1.224646799147353207E-16, -0.000000000000000000, -1.000000000000000000 ) ) ;
#141 = FACE_OUTER_BOUND ( 'NONE', #129, .T. ) ;
#142 = FACE_OUTER_BOUND ( 'NONE', #34, .T. ) ;
#143 = MECHANICAL_DESIGN_GEOMETRIC_PRESENTATION_REPRESENTATION (  '', ( #62 ), #172 ) ;
#144 = PRESENTATION_LAYER_ASSIGNMENT (  '', '', ( #242 ) ) ;
#145 = DIRECTION ( 'NONE',  ( -0.7071067811865346942, 0.000000000000000000, -0.7071067811865603403 ) ) ;
#146 = FACE_OUTER_BOUND ( 'NONE', #30, .T. ) ;
#147 = UNCERTAINTY_MEASURE_WITH_UNIT (LENGTH_MEASURE( 1.000000000000000082E-05 ), #205, 'distance_accuracy_value', 'NONE');
#148 = ORIENTED_EDGE ( 'NONE', *, *, #269, .F. ) ;
#149 = DIRECTION ( 'NONE',  ( -1.000000000000000000, 0.000000000000000000, 0.000000000000000000 ) ) ;
#150 = VERTEX_POINT ( 'NONE', #65 ) ;
#151 = ORIENTED_EDGE ( 'NONE', *, *, #23, .T. ) ;
#152 = AXIS2_PLACEMENT_3D ( 'NONE', #243, #296, #79 ) ;
#153 = ORIENTED_EDGE ( 'NONE', *, *, #36, .T. ) ;
#154 = ORIENTED_EDGE ( 'NONE', *, *, #291, .F. ) ;
#155 = CIRCLE ( 'NONE', #121, 0.3539761694999999930 ) ;
#156 =( NAMED_UNIT ( * ) PLANE_ANGLE_UNIT ( ) SI_UNIT ( $, .RADIAN. ) );
#157 = ADVANCED_FACE ( 'NONE', ( #74 ), #18, .F. ) ;
#158 = EDGE_CURVE ( 'NONE', #222, #299, #136, .T. ) ;
#159 = CIRCLE ( 'NONE', #229, 0.3543304999999999927 ) ;
#160 = CARTESIAN_POINT ( 'NONE',  ( 0.3543304999999999927, 4.339297126652812347E-17, 3.607046999999999670 ) ) ;
#161 = PLANE ( 'NONE',  #71 ) ;
#162 = CARTESIAN_POINT ( 'NONE',  ( 5.308792230367967873E-33, 0.000000000000000000, 4.334957829526159343E-17 ) ) ;
#163 = AXIS2_PLACEMENT_3D ( 'NONE', #162, #101, #237 ) ;
#164 = DIRECTION ( 'NONE',  ( 0.000000000000000000, 0.000000000000000000, -1.000000000000000000 ) ) ;
#165 = ORIENTED_EDGE ( 'NONE', *, *, #36, .F. ) ;
#166 = DIRECTION ( 'NONE',  ( 1.000000000000000000, 0.000000000000000000, 0.000000000000000000 ) ) ;
#167 = SURFACE_STYLE_FILL_AREA ( #198 ) ;
#168 = ORIENTED_EDGE ( 'NONE', *, *, #201, .F. ) ;
#169 = ORIENTED_EDGE ( 'NONE', *, *, #261, .T. ) ;
#170 = EDGE_CURVE ( 'NONE', #5, #259, #96, .T. ) ;
#171 = DIRECTION ( 'NONE',  ( -1.000000000000000000, 0.000000000000000000, 0.000000000000000000 ) ) ;
#172 =( GEOMETRIC_REPRESENTATION_CONTEXT ( 3 ) GLOBAL_UNCERTAINTY_ASSIGNED_CONTEXT ( ( #211 ) ) GLOBAL_UNIT_ASSIGNED_CONTEXT ( ( #283, #72, #186 ) ) REPRESENTATION_CONTEXT ( 'NONE', 'WORKASPACE' ) );
#173 = PRESENTATION_STYLE_ASSIGNMENT (( #224 ) ) ;
#174 = EDGE_LOOP ( 'NONE', ( #165, #246, #168, #148 ) ) ;
#175 = ORIENTED_EDGE ( 'NONE', *, *, #83, .F. ) ;
#176 = AXIS2_PLACEMENT_3D ( 'NONE', #276, #66, #253 ) ;
#177 = DIRECTION ( 'NONE',  ( 1.000000000000000000, 0.000000000000000000, 0.000000000000000000 ) ) ;
#178 = DIRECTION ( 'NONE',  ( -1.224646799147353207E-16, -0.000000000000000000, -1.000000000000000000 ) ) ;
#179 = ADVANCED_FACE ( 'NONE', ( #146 ), #193, .T. ) ;
#180 = AXIS2_PLACEMENT_3D ( 'NONE', #137, #231, #42 ) ;
#181 = DIRECTION ( 'NONE',  ( -1.224646799147353207E-16, -0.000000000000000000, -1.000000000000000000 ) ) ;
#182 = PRODUCT ( 'Micro_AEMM-180-3X', 'Micro_AEMM-180-3X', '', ( #82 ) ) ;
#183 = CARTESIAN_POINT ( 'NONE',  ( 0.000000000000000000, 0.000000000000000000, 3.622047000000000239 ) ) ;
#184 = ADVANCED_FACE ( 'NONE', ( #260 ), #265, .T. ) ;
#185 = DIRECTION ( 'NONE',  ( -1.000000000000000000, 0.000000000000000000, 0.000000000000000000 ) ) ;
#186 =( NAMED_UNIT ( * ) SI_UNIT ( $, .STERADIAN. ) SOLID_ANGLE_UNIT ( ) );
#187 = APPLICATION_PROTOCOL_DEFINITION ( 'draft international standard', 'automotive_design', 1998, #202 ) ;
#188 = ORIENTED_EDGE ( 'NONE', *, *, #250, .T. ) ;
#189 = AXIS2_PLACEMENT_3D ( 'NONE', #192, #288, #270 ) ;
#190 = ORIENTED_EDGE ( 'NONE', *, *, #254, .F. ) ;
#191 = CARTESIAN_POINT ( 'NONE',  ( 0.000000000000000000, 0.000000000000000000, 3.607046999999999670 ) ) ;
#192 = CARTESIAN_POINT ( 'NONE',  ( 0.000000000000000000, 0.000000000000000000, 3.607046999999999670 ) ) ;
#193 = CYLINDRICAL_SURFACE ( 'NONE', #80, 0.3543304999999999927 ) ;
#194 = VERTEX_POINT ( 'NONE', #1 ) ;
#195 = ORIENTED_EDGE ( 'NONE', *, *, #291, .T. ) ;
#196 = CLOSED_SHELL ( 'NONE', ( #47, #134, #209, #179, #88, #68, #184, #138, #119, #157 ) ) ;
#197 = AXIS2_PLACEMENT_3D ( 'NONE', #124, #216, #298 ) ;
#198 = FILL_AREA_STYLE ('',( #7 ) ) ;
#199 = ORIENTED_EDGE ( 'NONE', *, *, #230, .T. ) ;
#200 = FILL_AREA_STYLE ('',( #111 ) ) ;
#201 = EDGE_CURVE ( 'NONE', #150, #76, #159, .T. ) ;
#202 = APPLICATION_CONTEXT ( 'automotive_design' ) ;
#203 = AXIS2_PLACEMENT_3D ( 'NONE', #294, #181, #94 ) ;
#204 = ADVANCED_BREP_SHAPE_REPRESENTATION ( 'Micro_AEMM-180-3X', ( #9, #135 ), #107 ) ;
#205 =( CONVERSION_BASED_UNIT ( 'INCH', #272 ) LENGTH_UNIT ( ) NAMED_UNIT ( #295 ) );
#206 = SURFACE_SIDE_STYLE ('',( #247 ) ) ;
#207 = LINE ( 'NONE', #297, #90 ) ;
#208 = VECTOR ( 'NONE', #123, 39.37007874015748143 ) ;
#209 = ADVANCED_FACE ( 'NONE', ( #266 ), #14, .T. ) ;
#210 = FACE_OUTER_BOUND ( 'NONE', #25, .T. ) ;
#211 = UNCERTAINTY_MEASURE_WITH_UNIT (LENGTH_MEASURE( 1.000000000000000082E-05 ), #283, 'distance_accuracy_value', 'NONE');
#212 = CARTESIAN_POINT ( 'NONE',  ( 0.000000000000000000, 0.000000000000000000, 3.622047000000000239 ) ) ;
#213 = CIRCLE ( 'NONE', #152, 0.3543304999999999927 ) ;
#214 = DIRECTION ( 'NONE',  ( -0.000000000000000000, -0.000000000000000000, -1.000000000000000000 ) ) ;
#215 = FACE_OUTER_BOUND ( 'NONE', #57, .T. ) ;
#216 = DIRECTION ( 'NONE',  ( -1.224646799147353207E-16, -0.000000000000000000, -1.000000000000000000 ) ) ;
#217 = DIMENSIONAL_EXPONENTS ( 1.000000000000000000, 0.000000000000000000, 0.000000000000000000, 0.000000000000000000, 0.000000000000000000, 0.000000000000000000, 0.000000000000000000 ) ;
#218 = CARTESIAN_POINT ( 'NONE',  ( 0.000000000000000000, 0.000000000000000000, 3.622047000000000239 ) ) ;
#219 = CARTESIAN_POINT ( 'NONE',  ( -0.3393305000000003124, 0.000000000000000000, 3.622047000000000239 ) ) ;
#220 = CARTESIAN_POINT ( 'NONE',  ( 0.3393305000000003124, 4.155600106780712238E-17, 3.622047000000000239 ) ) ;
#221 = ORIENTED_EDGE ( 'NONE', *, *, #43, .T. ) ;
#222 = VERTEX_POINT ( 'NONE', #219 ) ;
#223 = AXIS2_PLACEMENT_3D ( 'NONE', #54, #58, #284 ) ;
#224 = SURFACE_STYLE_USAGE ( .BOTH. , #104 ) ;
#225 = EDGE_CURVE ( 'NONE', #299, #76, #239, .T. ) ;
#226 = LENGTH_MEASURE_WITH_UNIT ( LENGTH_MEASURE( 0.02539999999999999897 ), #113 );
#227 = LINE ( 'NONE', #17, #286 ) ;
#228 = CARTESIAN_POINT ( 'NONE',  ( 5.308792230367967873E-33, 0.000000000000000000, 4.334957829526159343E-17 ) ) ;
#229 = AXIS2_PLACEMENT_3D ( 'NONE', #191, #257, #166 ) ;
#230 = EDGE_CURVE ( 'NONE', #194, #259, #26, .T. ) ;
#231 = DIRECTION ( 'NONE',  ( -1.224646799147353207E-16, -0.000000000000000000, -1.000000000000000000 ) ) ;
#232 = CARTESIAN_POINT ( 'NONE',  ( 0.3543305000000002147, 4.339297126652815429E-17, 1.773663508122786725 ) ) ;
#233 = CARTESIAN_POINT ( 'NONE',  ( -0.3539761694999997155, 4.334957829526158110E-17, 1.771654000000000062 ) ) ;
#234 = FACE_OUTER_BOUND ( 'NONE', #53, .T. ) ;
#235 = VECTOR ( 'NONE', #131, 39.37007874015747433 ) ;
#236 = AXIS2_PLACEMENT_3D ( 'NONE', #12, #89, #255 ) ;
#237 = DIRECTION ( 'NONE',  ( -1.000000000000000000, 0.000000000000000000, 1.224646799147353207E-16 ) ) ;
#238 = UNCERTAINTY_MEASURE_WITH_UNIT (LENGTH_MEASURE( 1.000000000000000082E-05 ), #84, 'distance_accuracy_value', 'NONE');
#239 = LINE ( 'NONE', #220, #139 ) ;
#240 = ORIENTED_EDGE ( 'NONE', *, *, #250, .F. ) ;
#241 = CARTESIAN_POINT ( 'NONE',  ( 0.3539761694999999375, 4.334957829526158110E-17, -4.334957829526158110E-17 ) ) ;
#242 = STYLED_ITEM ( 'NONE', ( #35 ), #204 ) ;
#243 = CARTESIAN_POINT ( 'NONE',  ( 2.172111337987036080E-16, 0.000000000000000000, 1.773663508122786725 ) ) ;
#244 = EDGE_CURVE ( 'NONE', #126, #287, #279, .T. ) ;
#245 = ORIENTED_EDGE ( 'NONE', *, *, #29, .F. ) ;
#246 = ORIENTED_EDGE ( 'NONE', *, *, #225, .T. ) ;
#247 = SURFACE_STYLE_FILL_AREA ( #200 ) ;
#248 = PRODUCT_DEFINITION_FORMATION_WITH_SPECIFIED_SOURCE ( 'ANY', '', #182, .NOT_KNOWN. ) ;
#249 = FACE_OUTER_BOUND ( 'NONE', #6, .T. ) ;
#250 = EDGE_CURVE ( 'NONE', #76, #105, #77, .T. ) ;
#251 = DIRECTION ( 'NONE',  ( -1.000000000000000000, 0.000000000000000000, 1.224646799147353207E-16 ) ) ;
#252 = CIRCLE ( 'NONE', #189, 0.3543304999999999927 ) ;
#253 = DIRECTION ( 'NONE',  ( -1.000000000000000000, 0.000000000000000000, 0.000000000000000000 ) ) ;
#254 = EDGE_CURVE ( 'NONE', #105, #287, #213, .T. ) ;
#255 = DIRECTION ( 'NONE',  ( 1.000000000000000000, 0.000000000000000000, 0.000000000000000000 ) ) ;
#256 = DIRECTION ( 'NONE',  ( -1.224646799147353207E-16, -0.000000000000000000, -1.000000000000000000 ) ) ;
#257 = DIRECTION ( 'NONE',  ( 0.000000000000000000, 0.000000000000000000, -1.000000000000000000 ) ) ;
#258 = ORIENTED_EDGE ( 'NONE', *, *, #110, .T. ) ;
#259 = VERTEX_POINT ( 'NONE', #24 ) ;
#260 = FACE_OUTER_BOUND ( 'NONE', #133, .T. ) ;
#261 = EDGE_CURVE ( 'NONE', #126, #5, #20, .T. ) ;
#262 = EDGE_LOOP ( 'NONE', ( #199, #73 ) ) ;
#263 = DIRECTION ( 'NONE',  ( 0.000000000000000000, 0.000000000000000000, 1.000000000000000000 ) ) ;
#264 = ORIENTED_EDGE ( 'NONE', *, *, #110, .F. ) ;
#265 = CONICAL_SURFACE ( 'NONE', #289, 0.3393305000000003124, 0.7853981633974300713 ) ;
#266 = FACE_OUTER_BOUND ( 'NONE', #174, .T. ) ;
#267 = ORIENTED_EDGE ( 'NONE', *, *, #269, .T. ) ;
#268 = ORIENTED_EDGE ( 'NONE', *, *, #225, .F. ) ;
#269 = EDGE_CURVE ( 'NONE', #222, #150, #92, .T. ) ;
#270 = DIRECTION ( 'NONE',  ( 1.000000000000000000, 0.000000000000000000, 0.000000000000000000 ) ) ;
#271 = AXIS2_PLACEMENT_3D ( 'NONE', #183, #51, #149 ) ;
#272 = LENGTH_MEASURE_WITH_UNIT ( LENGTH_MEASURE( 0.02539999999999999897 ), #85 );
#273 = COLOUR_RGB ( '',0.7921568627450980005, 0.8196078431372548767, 0.9333333333333333481 ) ;
#274 = PRODUCT_RELATED_PRODUCT_CATEGORY ( 'part', '', ( #182 ) ) ;
#275 = DIRECTION ( 'NONE',  ( 1.000000000000000000, 0.000000000000000000, 0.000000000000000000 ) ) ;
#276 = CARTESIAN_POINT ( 'NONE',  ( 0.000000000000000000, 0.000000000000000000, 3.622047000000000239 ) ) ;
#277 = CONICAL_SURFACE ( 'NONE', #116, 0.3539761694999999375, 0.1745329251994338915 ) ;
#278 = LINE ( 'NONE', #91, #208 ) ;
#279 = LINE ( 'NONE', #233, #235 ) ;
#280 = ORIENTED_EDGE ( 'NONE', *, *, #83, .T. ) ;
#281 = PRODUCT_DEFINITION ( 'UNKNOWN', '', #248, #21 ) ;
#282 = DIRECTION ( 'NONE',  ( 0.000000000000000000, 0.000000000000000000, 1.000000000000000000 ) ) ;
#283 =( CONVERSION_BASED_UNIT ( 'INCH', #49 ) LENGTH_UNIT ( ) NAMED_UNIT ( #75 ) );
#284 = DIRECTION ( 'NONE',  ( 1.000000000000000000, 0.000000000000000000, -0.000000000000000000 ) ) ;
#285 = ORIENTED_EDGE ( 'NONE', *, *, #43, .F. ) ;
#286 = VECTOR ( 'NONE', #67, 39.37007874015748143 ) ;
#287 = VERTEX_POINT ( 'NONE', #22 ) ;
#288 = DIRECTION ( 'NONE',  ( 0.000000000000000000, 0.000000000000000000, -1.000000000000000000 ) ) ;
#289 = AXIS2_PLACEMENT_3D ( 'NONE', #218, #164, #171 ) ;
#290 =( NAMED_UNIT ( * ) PLANE_ANGLE_UNIT ( ) SI_UNIT ( $, .RADIAN. ) );
#291 = EDGE_CURVE ( 'NONE', #5, #126, #55, .T. ) ;
#292 = DIRECTION ( 'NONE',  ( 1.224646799147353207E-16, 0.000000000000000000, 1.000000000000000000 ) ) ;
#293 = DIRECTION ( 'NONE',  ( 0.000000000000000000, 0.000000000000000000, 1.000000000000000000 ) ) ;
#294 = CARTESIAN_POINT ( 'NONE',  ( 0.000000000000000000, 0.000000000000000000, 0.000000000000000000 ) ) ;
#295 = DIMENSIONAL_EXPONENTS ( 1.000000000000000000, 0.000000000000000000, 0.000000000000000000, 0.000000000000000000, 0.000000000000000000, 0.000000000000000000, 0.000000000000000000 ) ;
#296 = DIRECTION ( 'NONE',  ( -1.224646799147353207E-16, -0.000000000000000000, -1.000000000000000000 ) ) ;
#297 = CARTESIAN_POINT ( 'NONE',  ( -0.3539761694999999375, 0.000000000000000000, 4.334957829526158110E-17 ) ) ;
#298 = DIRECTION ( 'NONE',  ( -1.000000000000000000, 0.000000000000000000, 0.000000000000000000 ) ) ;
#299 = VERTEX_POINT ( 'NONE', #11 ) ;
ENDSEC;
END-ISO-10303-21;
