ISO-10303-21;
HEADER;
FILE_DESCRIPTION (( 'STEP AP214' ),
    '1' );
FILE_NAME ('12212.STEP',
    '2023-06-30T21:51:05',
    ( '' ),
    ( '' ),
    'SwSTEP 2.0',
    'SolidWorks 2023',
    '' );
FILE_SCHEMA (( 'AUTOMOTIVE_DESIGN' ));
ENDSEC;

DATA;
#1 = PRODUCT_RELATED_PRODUCT_CATEGORY ( 'part', '', ( #181 ) ) ;
#2 = CARTESIAN_POINT ( 'NONE',  ( -2.296212748401287726E-17, 0.1875000000000000278, 0.000000000000000000 ) ) ;
#3 = CARTESIAN_POINT ( 'NONE',  ( 0.000000000000000000, 0.5000000000000000000, 0.000000000000000000 ) ) ;
#4 = CARTESIAN_POINT ( 'NONE',  ( 0.000000000000000000, 0.000000000000000000, 0.000000000000000000 ) ) ;
#5 = PRESENTATION_STYLE_ASSIGNMENT (( #235 ) ) ;
#6 = DIRECTION ( 'NONE',  ( 1.000000000000000000, 0.000000000000000000, 0.000000000000000000 ) ) ;
#7 = VERTEX_POINT ( 'NONE', #133 ) ;
#8 = MECHANICAL_DESIGN_GEOMETRIC_PRESENTATION_REPRESENTATION (  '', ( #325 ), #149 ) ;
#9 = SURFACE_STYLE_USAGE ( .BOTH. , #104 ) ;
#10 = EDGE_CURVE ( 'NONE', #119, #20, #32, .T. ) ;
#11 = CARTESIAN_POINT ( 'NONE',  ( 2.436025946710576543E-16, 0.5000000000000000000, 0.000000000000000000 ) ) ;
#12 = FILL_AREA_STYLE_COLOUR ( '', #233 ) ;
#13 = FILL_AREA_STYLE ('',( #157 ) ) ;
#14 = AXIS2_PLACEMENT_3D ( 'NONE', #25, #90, #321 ) ;
#15 = CARTESIAN_POINT ( 'NONE',  ( -0.1874999999999996947, 2.000000000000000000, 0.000000000000000000 ) ) ;
#16 = ORIENTED_EDGE ( 'NONE', *, *, #346, .F. ) ;
#17 = PRESENTATION_LAYER_ASSIGNMENT (  '', '', ( #325 ) ) ;
#18 = VECTOR ( 'NONE', #255, 39.37007874015748143 ) ;
#19 = DIMENSIONAL_EXPONENTS ( 1.000000000000000000, 0.000000000000000000, 0.000000000000000000, 0.000000000000000000, 0.000000000000000000, 0.000000000000000000, 0.000000000000000000 ) ;
#20 = VERTEX_POINT ( 'NONE', #272 ) ;
#21 = DIRECTION ( 'NONE',  ( -0.000000000000000000, -1.000000000000000000, -0.000000000000000000 ) ) ;
#22 = UNCERTAINTY_MEASURE_WITH_UNIT (LENGTH_MEASURE( 1.000000000000000082E-05 ), #309, 'distance_accuracy_value', 'NONE');
#23 = ORIENTED_EDGE ( 'NONE', *, *, #106, .T. ) ;
#24 = COLOUR_RGB ( '',1.000000000000000000, 0.000000000000000000, 0.000000000000000000 ) ;
#25 = CARTESIAN_POINT ( 'NONE',  ( 0.000000000000000000, 0.1875000000000000555, 0.000000000000000000 ) ) ;
#26 = FACE_OUTER_BOUND ( 'NONE', #363, .T. ) ;
#27 = CARTESIAN_POINT ( 'NONE',  ( 0.1874999999999999167, 2.000000000000000000, 0.000000000000000000 ) ) ;
#28 = DIRECTION ( 'NONE',  ( 0.000000000000000000, 0.000000000000000000, -1.000000000000000000 ) ) ;
#29 = DIRECTION ( 'NONE',  ( -1.000000000000000000, 0.000000000000000000, 0.000000000000000000 ) ) ;
#30 = CARTESIAN_POINT ( 'NONE',  ( 2.296212748401286801E-17, 0.000000000000000000, 0.1874999999999999722 ) ) ;
#31 = DIRECTION ( 'NONE',  ( 0.000000000000000000, 0.000000000000000000, -1.000000000000000000 ) ) ;
#32 = CIRCLE ( 'NONE', #244, 0.1874999999999999722 ) ;
#33 = FILL_AREA_STYLE_COLOUR ( '', #151 ) ;
#34 = CARTESIAN_POINT ( 'NONE',  ( 0.000000000000000000, 0.1875000000000000555, 0.000000000000000000 ) ) ;
#35 = ORIENTED_EDGE ( 'NONE', *, *, #106, .F. ) ;
#36 = CARTESIAN_POINT ( 'NONE',  ( 0.000000000000000000, 0.5000000000000000000, 0.000000000000000000 ) ) ;
#37 = CARTESIAN_POINT ( 'NONE',  ( -0.1875000000000000278, 0.1875000000000000555, 2.296212748401287109E-17 ) ) ;
#38 = EDGE_LOOP ( 'NONE', ( #170, #166, #35, #241, #16 ) ) ;
#39 = AXIS2_PLACEMENT_3D ( 'NONE', #145, #147, #177 ) ;
#40 = CARTESIAN_POINT ( 'NONE',  ( 6.123233995736766036E-17, 2.000000000000000000, 0.000000000000000000 ) ) ;
#41 = ADVANCED_FACE ( 'NONE', ( #26 ), #77, .T. ) ;
#42 = PRESENTATION_STYLE_ASSIGNMENT (( #9 ) ) ;
#43 = PRESENTATION_STYLE_ASSIGNMENT (( #355 ) ) ;
#44 = FILL_AREA_STYLE ('',( #12 ) ) ;
#45 = CARTESIAN_POINT ( 'NONE',  ( 0.000000000000000000, 0.000000000000000000, 0.000000000000000000 ) ) ;
#46 = FACE_OUTER_BOUND ( 'NONE', #125, .T. ) ;
#47 = MECHANICAL_DESIGN_GEOMETRIC_PRESENTATION_REPRESENTATION (  '', ( #226 ), #312 ) ;
#48 = STYLED_ITEM ( 'NONE', ( #139 ), #103 ) ;
#49 = DIMENSIONAL_EXPONENTS ( 1.000000000000000000, 0.000000000000000000, 0.000000000000000000, 0.000000000000000000, 0.000000000000000000, 0.000000000000000000, 0.000000000000000000 ) ;
#50 = ORIENTED_EDGE ( 'NONE', *, *, #260, .F. ) ;
#51 =( NAMED_UNIT ( * ) PLANE_ANGLE_UNIT ( ) SI_UNIT ( $, .RADIAN. ) );
#52 = SURFACE_STYLE_FILL_AREA ( #277 ) ;
#53 = ORIENTED_EDGE ( 'NONE', *, *, #221, .F. ) ;
#54 = FACE_OUTER_BOUND ( 'NONE', #210, .T. ) ;
#55 = ORIENTED_EDGE ( 'NONE', *, *, #57, .T. ) ;
#56 =( GEOMETRIC_REPRESENTATION_CONTEXT ( 3 ) GLOBAL_UNCERTAINTY_ASSIGNED_CONTEXT ( ( #337 ) ) GLOBAL_UNIT_ASSIGNED_CONTEXT ( ( #80, #51, #199 ) ) REPRESENTATION_CONTEXT ( 'NONE', 'WORKASPACE' ) );
#57 = EDGE_CURVE ( 'NONE', #250, #335, #290, .T. ) ;
#58 = DIRECTION ( 'NONE',  ( -1.215801698091266626E-16, 1.000000000000000000, -0.000000000000000000 ) ) ;
#59 = ORIENTED_EDGE ( 'NONE', *, *, #84, .F. ) ;
#60 = DIRECTION ( 'NONE',  ( 1.000000000000000000, 0.000000000000000000, 0.000000000000000000 ) ) ;
#61 = DIRECTION ( 'NONE',  ( 0.000000000000000000, 0.000000000000000000, -1.000000000000000000 ) ) ;
#62 = PRESENTATION_STYLE_ASSIGNMENT (( #257 ) ) ;
#63 =( LENGTH_UNIT ( ) NAMED_UNIT ( * ) SI_UNIT ( $, .METRE. ) );
#64 = APPLICATION_PROTOCOL_DEFINITION ( 'draft international standard', 'automotive_design', 1998, #118 ) ;
#65 = EDGE_CURVE ( 'NONE', #230, #119, #339, .T. ) ;
#66 = SHAPE_DEFINITION_REPRESENTATION ( #370, #220 ) ;
#67 = VERTEX_POINT ( 'NONE', #262 ) ;
#68 =( NAMED_UNIT ( * ) PLANE_ANGLE_UNIT ( ) SI_UNIT ( $, .RADIAN. ) );
#69 = DIRECTION ( 'NONE',  ( -1.215801698091266626E-16, 1.000000000000000000, -0.000000000000000000 ) ) ;
#70 = VERTEX_POINT ( 'NONE', #295 ) ;
#71 = ORIENTED_EDGE ( 'NONE', *, *, #215, .F. ) ;
#72 = FILL_AREA_STYLE ('',( #291 ) ) ;
#73 = LINE ( 'NONE', #344, #304 ) ;
#74 = CARTESIAN_POINT ( 'NONE',  ( -2.296212748401287726E-17, 0.1875000000000000278, 0.000000000000000000 ) ) ;
#75 = ADVANCED_FACE ( 'NONE', ( #46 ), #326, .T. ) ;
#76 = LENGTH_MEASURE_WITH_UNIT ( LENGTH_MEASURE( 0.02539999999999999897 ), #214 );
#77 = CYLINDRICAL_SURFACE ( 'NONE', #278, 0.1874999999999997780 ) ;
#78 = FILL_AREA_STYLE_COLOUR ( '', #154 ) ;
#79 = ADVANCED_FACE ( 'NONE', ( #182 ), #324, .F. ) ;
#80 =( CONVERSION_BASED_UNIT ( 'INCH', #162 ) LENGTH_UNIT ( ) NAMED_UNIT ( #249 ) );
#81 =( LENGTH_UNIT ( ) NAMED_UNIT ( * ) SI_UNIT ( $, .METRE. ) );
#82 = CARTESIAN_POINT ( 'NONE',  ( 2.296212748401286493E-17, 0.5000000000000000000, 0.1874999999999999445 ) ) ;
#83 = ORIENTED_EDGE ( 'NONE', *, *, #267, .T. ) ;
#84 = EDGE_CURVE ( 'NONE', #7, #250, #356, .T. ) ;
#85 = CARTESIAN_POINT ( 'NONE',  ( -0.1874999999999997780, 2.000000000000000000, 0.000000000000000000 ) ) ;
#86 = UNCERTAINTY_MEASURE_WITH_UNIT (LENGTH_MEASURE( 1.000000000000000082E-05 ), #116, 'distance_accuracy_value', 'NONE');
#87 = COLOUR_RGB ( '',0.7921568627450980005, 0.8196078431372548767, 0.9333333333333333481 ) ;
#88 = SURFACE_SIDE_STYLE ('',( #203 ) ) ;
#89 = AXIS2_PLACEMENT_3D ( 'NONE', #4, #349, #6 ) ;
#90 = DIRECTION ( 'NONE',  ( -0.000000000000000000, -1.000000000000000000, -0.000000000000000000 ) ) ;
#91 = DIRECTION ( 'NONE',  ( -1.000000000000000000, 0.000000000000000000, 0.000000000000000000 ) ) ;
#92 = FACE_OUTER_BOUND ( 'NONE', #148, .T. ) ;
#93 = DIRECTION ( 'NONE',  ( -1.215801698091266626E-16, 1.000000000000000000, -0.000000000000000000 ) ) ;
#94 =( NAMED_UNIT ( * ) SI_UNIT ( $, .STERADIAN. ) SOLID_ANGLE_UNIT ( ) );
#95 = LENGTH_MEASURE_WITH_UNIT ( LENGTH_MEASURE( 0.02539999999999999897 ), #243 );
#96 =( GEOMETRIC_REPRESENTATION_CONTEXT ( 3 ) GLOBAL_UNCERTAINTY_ASSIGNED_CONTEXT ( ( #22 ) ) GLOBAL_UNIT_ASSIGNED_CONTEXT ( ( #309, #288, #271 ) ) REPRESENTATION_CONTEXT ( 'NONE', 'WORKASPACE' ) );
#97 = DIRECTION ( 'NONE',  ( -1.000000000000000000, 0.000000000000000000, 0.000000000000000000 ) ) ;
#98 = SURFACE_STYLE_FILL_AREA ( #13 ) ;
#99 = CIRCLE ( 'NONE', #299, 0.1874999999999996947 ) ;
#100 = FACE_OUTER_BOUND ( 'NONE', #38, .T. ) ;
#101 = DIRECTION ( 'NONE',  ( -1.000000000000000000, -1.215801698091266626E-16, 0.000000000000000000 ) ) ;
#102 = ADVANCED_FACE ( 'NONE', ( #100 ), #185, .T. ) ;
#103 = MANIFOLD_SOLID_BREP ( 'Revolve - Cutting Edge', #128 ) ;
#104 = SURFACE_SIDE_STYLE ('',( #123 ) ) ;
#105 = VECTOR ( 'NONE', #316, 39.37007874015748143 ) ;
#106 = EDGE_CURVE ( 'NONE', #132, #230, #320, .T. ) ;
#107 = DIRECTION ( 'NONE',  ( 0.000000000000000000, -0.000000000000000000, 1.000000000000000000 ) ) ;
#108 = SURFACE_STYLE_USAGE ( .BOTH. , #361 ) ;
#109 = FILL_AREA_STYLE_COLOUR ( '', #87 ) ;
#110 = ORIENTED_EDGE ( 'NONE', *, *, #126, .T. ) ;
#111 = CARTESIAN_POINT ( 'NONE',  ( 2.296212748401286801E-17, 0.1875000000000000555, 0.1874999999999999722 ) ) ;
#112 = UNCERTAINTY_MEASURE_WITH_UNIT (LENGTH_MEASURE( 1.000000000000000082E-05 ), #354, 'distance_accuracy_value', 'NONE');
#113 = DIRECTION ( 'NONE',  ( -1.000000000000000000, 0.000000000000000000, 0.000000000000000000 ) ) ;
#114 = CARTESIAN_POINT ( 'NONE',  ( -2.296212748401287726E-17, 0.1875000000000000278, 0.000000000000000000 ) ) ;
#115 = CARTESIAN_POINT ( 'NONE',  ( -1.148106374200643863E-17, 0.000000000000000000, 0.000000000000000000 ) ) ;
#116 =( CONVERSION_BASED_UNIT ( 'INCH', #143 ) LENGTH_UNIT ( ) NAMED_UNIT ( #223 ) );
#117 =( NAMED_UNIT ( * ) SI_UNIT ( $, .STERADIAN. ) SOLID_ANGLE_UNIT ( ) );
#118 = APPLICATION_CONTEXT ( 'automotive_design' ) ;
#119 = VERTEX_POINT ( 'NONE', #37 ) ;
#120 = CIRCLE ( 'NONE', #234, 0.1875000000000000278 ) ;
#121 = CARTESIAN_POINT ( 'NONE',  ( 0.1874999999999999167, 2.000000000000000000, 2.296212748401284952E-17 ) ) ;
#122 = AXIS2_PLACEMENT_3D ( 'NONE', #208, #93, #140 ) ;
#123 = SURFACE_STYLE_FILL_AREA ( #72 ) ;
#124 =( LENGTH_UNIT ( ) NAMED_UNIT ( * ) SI_UNIT ( $, .METRE. ) );
#125 = EDGE_LOOP ( 'NONE', ( #265, #317, #110, #83 ) ) ;
#126 = EDGE_CURVE ( 'NONE', #20, #132, #212, .T. ) ;
#127 = DIRECTION ( 'NONE',  ( -1.215801698091266626E-16, 1.000000000000000000, -0.000000000000000000 ) ) ;
#128 = CLOSED_SHELL ( 'NONE', ( #213, #102, #184, #364, #75 ) ) ;
#129 = ORIENTED_EDGE ( 'NONE', *, *, #65, .F. ) ;
#130 = CARTESIAN_POINT ( 'NONE',  ( 0.000000000000000000, 0.1875000000000000555, 0.000000000000000000 ) ) ;
#131 = PRESENTATION_LAYER_ASSIGNMENT (  '', '', ( #192 ) ) ;
#132 = VERTEX_POINT ( 'NONE', #207 ) ;
#133 = CARTESIAN_POINT ( 'NONE',  ( -0.1874999999999994726, 0.5000000000000001110, 0.000000000000000000 ) ) ;
#134 =( LENGTH_UNIT ( ) NAMED_UNIT ( * ) SI_UNIT ( $, .METRE. ) );
#135 = DIMENSIONAL_EXPONENTS ( 1.000000000000000000, 0.000000000000000000, 0.000000000000000000, 0.000000000000000000, 0.000000000000000000, 0.000000000000000000, 0.000000000000000000 ) ;
#136 = DIRECTION ( 'NONE',  ( -0.000000000000000000, -1.000000000000000000, -0.000000000000000000 ) ) ;
#137 = SURFACE_STYLE_FILL_AREA ( #359 ) ;
#138 = UNCERTAINTY_MEASURE_WITH_UNIT (LENGTH_MEASURE( 1.000000000000000082E-05 ), #188, 'distance_accuracy_value', 'NONE');
#139 = PRESENTATION_STYLE_ASSIGNMENT (( #108 ) ) ;
#140 = DIRECTION ( 'NONE',  ( -1.000000000000000000, 0.000000000000000000, 0.000000000000000000 ) ) ;
#141 = FILL_AREA_STYLE_COLOUR ( '', #24 ) ;
#142 = FACE_OUTER_BOUND ( 'NONE', #161, .T. ) ;
#143 = LENGTH_MEASURE_WITH_UNIT ( LENGTH_MEASURE( 0.02539999999999999897 ), #308 );
#144 = DIRECTION ( 'NONE',  ( -1.215801698091266626E-16, 1.000000000000000000, -0.000000000000000000 ) ) ;
#145 = CARTESIAN_POINT ( 'NONE',  ( 0.000000000000000000, 0.000000000000000000, 0.000000000000000000 ) ) ;
#146 = DIRECTION ( 'NONE',  ( 1.000000000000000000, 0.000000000000000000, -1.224646799147353207E-16 ) ) ;
#147 = DIRECTION ( 'NONE',  ( -0.000000000000000000, -1.000000000000000000, -0.000000000000000000 ) ) ;
#148 = EDGE_LOOP ( 'NONE', ( #53, #284 ) ) ;
#149 =( GEOMETRIC_REPRESENTATION_CONTEXT ( 3 ) GLOBAL_UNCERTAINTY_ASSIGNED_CONTEXT ( ( #86 ) ) GLOBAL_UNIT_ASSIGNED_CONTEXT ( ( #116, #68, #94 ) ) REPRESENTATION_CONTEXT ( 'NONE', 'WORKASPACE' ) );
#150 =( CONVERSION_BASED_UNIT ( 'INCH', #95 ) LENGTH_UNIT ( ) NAMED_UNIT ( #302 ) );
#151 = COLOUR_RGB ( '',1.000000000000000000, 0.000000000000000000, 0.000000000000000000 ) ;
#152 = ORIENTED_EDGE ( 'NONE', *, *, #57, .F. ) ;
#153 =( CONVERSION_BASED_UNIT ( 'INCH', #174 ) LENGTH_UNIT ( ) NAMED_UNIT ( #276 ) );
#154 = COLOUR_RGB ( '',0.7921568627450980005, 0.8196078431372548767, 0.9333333333333333481 ) ;
#155 = LENGTH_MEASURE_WITH_UNIT ( LENGTH_MEASURE( 0.02539999999999999897 ), #124 );
#156 = SURFACE_STYLE_FILL_AREA ( #44 ) ;
#157 = FILL_AREA_STYLE_COLOUR ( '', #330 ) ;
#158 = VECTOR ( 'NONE', #127, 39.37007874015748143 ) ;
#159 = AXIS2_PLACEMENT_3D ( 'NONE', #34, #373, #61 ) ;
#160 = PRESENTATION_LAYER_ASSIGNMENT (  '', '', ( #285 ) ) ;
#161 = EDGE_LOOP ( 'NONE', ( #71, #365, #338, #293 ) ) ;
#162 = LENGTH_MEASURE_WITH_UNIT ( LENGTH_MEASURE( 0.02539999999999999897 ), #246 );
#163 =( NAMED_UNIT ( * ) PLANE_ANGLE_UNIT ( ) SI_UNIT ( $, .RADIAN. ) );
#164 = ORIENTED_EDGE ( 'NONE', *, *, #231, .F. ) ;
#165 = MECHANICAL_DESIGN_GEOMETRIC_PRESENTATION_REPRESENTATION (  '', ( #248 ), #56 ) ;
#166 = ORIENTED_EDGE ( 'NONE', *, *, #260, .T. ) ;
#167 = DIMENSIONAL_EXPONENTS ( 1.000000000000000000, 0.000000000000000000, 0.000000000000000000, 0.000000000000000000, 0.000000000000000000, 0.000000000000000000, 0.000000000000000000 ) ;
#168 = CIRCLE ( 'NONE', #274, 0.1874999999999999445 ) ;
#169 = DIRECTION ( 'NONE',  ( 0.000000000000000000, 0.000000000000000000, 1.000000000000000000 ) ) ;
#170 = ORIENTED_EDGE ( 'NONE', *, *, #221, .T. ) ;
#171 = DIRECTION ( 'NONE',  ( 1.000000000000000000, 1.215801698091266626E-16, 0.000000000000000000 ) ) ;
#172 = EDGE_CURVE ( 'NONE', #119, #334, #329, .T. ) ;
#173 = STYLED_ITEM ( 'NONE', ( #263 ), #75 ) ;
#174 = LENGTH_MEASURE_WITH_UNIT ( LENGTH_MEASURE( 0.02539999999999999897 ), #63 );
#175 = DIRECTION ( 'NONE',  ( -1.000000000000000000, 0.000000000000000000, 0.000000000000000000 ) ) ;
#176 = FILL_AREA_STYLE ('',( #141 ) ) ;
#177 = DIRECTION ( 'NONE',  ( 0.000000000000000000, 0.000000000000000000, -1.000000000000000000 ) ) ;
#178 = AXIS2_PLACEMENT_3D ( 'NONE', #11, #261, #101 ) ;
#179 = PRESENTATION_LAYER_ASSIGNMENT (  '', '', ( #173 ) ) ;
#180 = AXIS2_PLACEMENT_3D ( 'NONE', #27, #251, #171 ) ;
#181 = PRODUCT ( '12212', '12212', '', ( #281 ) ) ;
#182 = FACE_OUTER_BOUND ( 'NONE', #224, .T. ) ;
#183 = SURFACE_SIDE_STYLE ('',( #156 ) ) ;
#184 = ADVANCED_FACE ( 'NONE', ( #92 ), #256, .T. ) ;
#185 = CYLINDRICAL_SURFACE ( 'NONE', #228, 0.1874999999999999722 ) ;
#186 = SURFACE_STYLE_USAGE ( .BOTH. , #189 ) ;
#187 = AXIS2_PLACEMENT_3D ( 'NONE', #195, #58, #113 ) ;
#188 =( CONVERSION_BASED_UNIT ( 'INCH', #76 ) LENGTH_UNIT ( ) NAMED_UNIT ( #135 ) );
#189 = SURFACE_SIDE_STYLE ('',( #98 ) ) ;
#190 = CARTESIAN_POINT ( 'NONE',  ( 6.123233995736766036E-17, 2.000000000000000000, 0.000000000000000000 ) ) ;
#191 = ORIENTED_EDGE ( 'NONE', *, *, #357, .F. ) ;
#192 = STYLED_ITEM ( 'NONE', ( #62 ), #364 ) ;
#193 = DIRECTION ( 'NONE',  ( -1.215801698091266626E-16, 1.000000000000000000, -0.000000000000000000 ) ) ;
#194 = DIRECTION ( 'NONE',  ( 0.000000000000000000, 0.000000000000000000, -1.000000000000000000 ) ) ;
#195 = CARTESIAN_POINT ( 'NONE',  ( 6.123233995736766036E-17, 2.000000000000000000, 0.000000000000000000 ) ) ;
#196 = CLOSED_SHELL ( 'NONE', ( #41, #79, #245, #252 ) ) ;
#197 = UNCERTAINTY_MEASURE_WITH_UNIT (LENGTH_MEASURE( 1.000000000000000082E-05 ), #153, 'distance_accuracy_value', 'NONE');
#198 = ORIENTED_EDGE ( 'NONE', *, *, #346, .T. ) ;
#199 =( NAMED_UNIT ( * ) SI_UNIT ( $, .STERADIAN. ) SOLID_ANGLE_UNIT ( ) );
#200 = AXIS2_PLACEMENT_3D ( 'NONE', #305, #21, #331 ) ;
#201 = AXIS2_PLACEMENT_3D ( 'NONE', #3, #360, #107 ) ;
#202 = ORIENTED_EDGE ( 'NONE', *, *, #10, .F. ) ;
#203 = SURFACE_STYLE_FILL_AREA ( #176 ) ;
#204 =( NAMED_UNIT ( * ) PLANE_ANGLE_UNIT ( ) SI_UNIT ( $, .RADIAN. ) );
#205 = MECHANICAL_DESIGN_GEOMETRIC_PRESENTATION_REPRESENTATION (  '', ( #173 ), #269 ) ;
#206 = LINE ( 'NONE', #237, #105 ) ;
#207 = CARTESIAN_POINT ( 'NONE',  ( 0.1874999999999999722, 0.1875000000000000555, 0.000000000000000000 ) ) ;
#208 = CARTESIAN_POINT ( 'NONE',  ( 6.123233995736766036E-17, 2.000000000000000000, 0.000000000000000000 ) ) ;
#209 = FILL_AREA_STYLE ('',( #33 ) ) ;
#210 = EDGE_LOOP ( 'NONE', ( #55, #297 ) ) ;
#211 = AXIS2_PLACEMENT_3D ( 'NONE', #74, #323, #289 ) ;
#212 = CIRCLE ( 'NONE', #159, 0.1874999999999999722 ) ;
#213 = ADVANCED_FACE ( 'NONE', ( #322 ), #253, .T. ) ;
#214 =( LENGTH_UNIT ( ) NAMED_UNIT ( * ) SI_UNIT ( $, .METRE. ) );
#215 = EDGE_CURVE ( 'NONE', #70, #335, #73, .T. ) ;
#216 =( NAMED_UNIT ( * ) PLANE_ANGLE_UNIT ( ) SI_UNIT ( $, .RADIAN. ) );
#217 = DIRECTION ( 'NONE',  ( -0.000000000000000000, -1.000000000000000000, -0.000000000000000000 ) ) ;
#218 = COLOUR_RGB ( '',1.000000000000000000, 0.000000000000000000, 0.000000000000000000 ) ;
#219 = DIRECTION ( 'NONE',  ( 0.000000000000000000, 0.000000000000000000, -1.000000000000000000 ) ) ;
#220 = ADVANCED_BREP_SHAPE_REPRESENTATION ( '12212', ( #103, #229, #89 ), #222 ) ;
#221 = EDGE_CURVE ( 'NONE', #67, #225, #358, .T. ) ;
#222 =( GEOMETRIC_REPRESENTATION_CONTEXT ( 3 ) GLOBAL_UNCERTAINTY_ASSIGNED_CONTEXT ( ( #197 ) ) GLOBAL_UNIT_ASSIGNED_CONTEXT ( ( #153, #204, #117 ) ) REPRESENTATION_CONTEXT ( 'NONE', 'WORKASPACE' ) );
#223 = DIMENSIONAL_EXPONENTS ( 1.000000000000000000, 0.000000000000000000, 0.000000000000000000, 0.000000000000000000, 0.000000000000000000, 0.000000000000000000, 0.000000000000000000 ) ;
#224 = EDGE_LOOP ( 'NONE', ( #191, #164 ) ) ;
#225 = VERTEX_POINT ( 'NONE', #82 ) ;
#226 = STYLED_ITEM ( 'NONE', ( #42 ), #102 ) ;
#227 = CARTESIAN_POINT ( 'NONE',  ( 2.436025946710576543E-16, 0.5000000000000001110, 0.000000000000000000 ) ) ;
#228 = AXIS2_PLACEMENT_3D ( 'NONE', #45, #136, #28 ) ;
#229 = MANIFOLD_SOLID_BREP ( 'Revolve - Tool Body (Straight Shanked)', #196 ) ;
#230 = VERTEX_POINT ( 'NONE', #111 ) ;
#231 = EDGE_CURVE ( 'NONE', #70, #7, #99, .T. ) ;
#232 = LINE ( 'NONE', #30, #18 ) ;
#233 = COLOUR_RGB ( '',1.000000000000000000, 0.000000000000000000, 0.000000000000000000 ) ;
#234 = AXIS2_PLACEMENT_3D ( 'NONE', #2, #219, #91 ) ;
#235 = SURFACE_STYLE_USAGE ( .BOTH. , #88 ) ;
#236 = DIRECTION ( 'NONE',  ( -1.000000000000000000, 0.000000000000000000, 0.000000000000000000 ) ) ;
#237 = CARTESIAN_POINT ( 'NONE',  ( 0.000000000000000000, 0.000000000000000000, -0.1874999999999999722 ) ) ;
#238 = SURFACE_STYLE_FILL_AREA ( #209 ) ;
#239 =( GEOMETRIC_REPRESENTATION_CONTEXT ( 3 ) GLOBAL_UNCERTAINTY_ASSIGNED_CONTEXT ( ( #275 ) ) GLOBAL_UNIT_ASSIGNED_CONTEXT ( ( #150, #347, #282 ) ) REPRESENTATION_CONTEXT ( 'NONE', 'WORKASPACE' ) );
#240 = CARTESIAN_POINT ( 'NONE',  ( 2.436025946710576543E-16, 0.5000000000000001110, 0.000000000000000000 ) ) ;
#241 = ORIENTED_EDGE ( 'NONE', *, *, #126, .F. ) ;
#242 = DIRECTION ( 'NONE',  ( -0.000000000000000000, -1.000000000000000000, -0.000000000000000000 ) ) ;
#243 =( LENGTH_UNIT ( ) NAMED_UNIT ( * ) SI_UNIT ( $, .METRE. ) );
#244 = AXIS2_PLACEMENT_3D ( 'NONE', #130, #217, #194 ) ;
#245 = ADVANCED_FACE ( 'NONE', ( #142 ), #310, .T. ) ;
#246 =( LENGTH_UNIT ( ) NAMED_UNIT ( * ) SI_UNIT ( $, .METRE. ) );
#247 =( NAMED_UNIT ( * ) SI_UNIT ( $, .STERADIAN. ) SOLID_ANGLE_UNIT ( ) );
#248 = STYLED_ITEM ( 'NONE', ( #43 ), #213 ) ;
#249 = DIMENSIONAL_EXPONENTS ( 1.000000000000000000, 0.000000000000000000, 0.000000000000000000, 0.000000000000000000, 0.000000000000000000, 0.000000000000000000, 0.000000000000000000 ) ;
#250 = VERTEX_POINT ( 'NONE', #85 ) ;
#251 = DIRECTION ( 'NONE',  ( 1.215801698091266626E-16, -1.000000000000000000, 0.000000000000000000 ) ) ;
#252 = ADVANCED_FACE ( 'NONE', ( #54 ), #273, .F. ) ;
#253 = SPHERICAL_SURFACE ( 'NONE', #259, 0.1875000000000000278 ) ;
#254 = MECHANICAL_DESIGN_GEOMETRIC_PRESENTATION_REPRESENTATION (  '', ( #48 ), #96 ) ;
#255 = DIRECTION ( 'NONE',  ( -0.000000000000000000, -1.000000000000000000, -0.000000000000000000 ) ) ;
#256 = PLANE ( 'NONE',  #201 ) ;
#257 = SURFACE_STYLE_USAGE ( .BOTH. , #348 ) ;
#258 = ORIENTED_EDGE ( 'NONE', *, *, #267, .F. ) ;
#259 = AXIS2_PLACEMENT_3D ( 'NONE', #298, #169, #60 ) ;
#260 = EDGE_CURVE ( 'NONE', #225, #230, #232, .T. ) ;
#261 = DIRECTION ( 'NONE',  ( -1.215801698091266626E-16, 1.000000000000000000, 0.000000000000000000 ) ) ;
#262 = CARTESIAN_POINT ( 'NONE',  ( 0.000000000000000000, 0.5000000000000000000, -0.1874999999999999445 ) ) ;
#263 = PRESENTATION_STYLE_ASSIGNMENT (( #186 ) ) ;
#264 = PRESENTATION_LAYER_ASSIGNMENT (  '', '', ( #48 ) ) ;
#265 = ORIENTED_EDGE ( 'NONE', *, *, #172, .F. ) ;
#266 = AXIS2_PLACEMENT_3D ( 'NONE', #40, #69, #175 ) ;
#267 = EDGE_CURVE ( 'NONE', #132, #334, #120, .T. ) ;
#268 = ORIENTED_EDGE ( 'NONE', *, *, #172, .T. ) ;
#269 =( GEOMETRIC_REPRESENTATION_CONTEXT ( 3 ) GLOBAL_UNCERTAINTY_ASSIGNED_CONTEXT ( ( #112 ) ) GLOBAL_UNIT_ASSIGNED_CONTEXT ( ( #354, #353, #247 ) ) REPRESENTATION_CONTEXT ( 'NONE', 'WORKASPACE' ) );
#270 = EDGE_LOOP ( 'NONE', ( #307, #268, #258, #23 ) ) ;
#271 =( NAMED_UNIT ( * ) SI_UNIT ( $, .STERADIAN. ) SOLID_ANGLE_UNIT ( ) );
#272 = CARTESIAN_POINT ( 'NONE',  ( 0.000000000000000000, 0.1875000000000000555, -0.1874999999999999722 ) ) ;
#273 = PLANE ( 'NONE',  #180 ) ;
#274 = AXIS2_PLACEMENT_3D ( 'NONE', #36, #314, #31 ) ;
#275 = UNCERTAINTY_MEASURE_WITH_UNIT (LENGTH_MEASURE( 1.000000000000000082E-05 ), #150, 'distance_accuracy_value', 'NONE');
#276 = DIMENSIONAL_EXPONENTS ( 1.000000000000000000, 0.000000000000000000, 0.000000000000000000, 0.000000000000000000, 0.000000000000000000, 0.000000000000000000, 0.000000000000000000 ) ;
#277 = FILL_AREA_STYLE ('',( #109 ) ) ;
#278 = AXIS2_PLACEMENT_3D ( 'NONE', #190, #144, #236 ) ;
#279 = DIRECTION ( 'NONE',  ( 1.224646799147353207E-16, -0.000000000000000000, 1.000000000000000000 ) ) ;
#280 = DIRECTION ( 'NONE',  ( -1.215801698091266626E-16, 1.000000000000000000, -0.000000000000000000 ) ) ;
#281 = PRODUCT_CONTEXT ( 'NONE', #118, 'mechanical' ) ;
#282 =( NAMED_UNIT ( * ) SI_UNIT ( $, .STERADIAN. ) SOLID_ANGLE_UNIT ( ) );
#283 = EDGE_CURVE ( 'NONE', #335, #250, #327, .T. ) ;
#284 = ORIENTED_EDGE ( 'NONE', *, *, #296, .F. ) ;
#285 = STYLED_ITEM ( 'NONE', ( #340 ), #229 ) ;
#286 = MECHANICAL_DESIGN_GEOMETRIC_PRESENTATION_REPRESENTATION (  '', ( #285 ), #345 ) ;
#287 = APPLICATION_PROTOCOL_DEFINITION ( 'draft international standard', 'automotive_design', 1998, #369 ) ;
#288 =( NAMED_UNIT ( * ) PLANE_ANGLE_UNIT ( ) SI_UNIT ( $, .RADIAN. ) );
#289 = DIRECTION ( 'NONE',  ( 1.000000000000000000, 0.000000000000000000, 0.000000000000000000 ) ) ;
#290 = CIRCLE ( 'NONE', #122, 0.1874999999999998335 ) ;
#291 = FILL_AREA_STYLE_COLOUR ( '', #218 ) ;
#292 = PRODUCT_DEFINITION ( 'UNKNOWN', '', #332, #371 ) ;
#293 = ORIENTED_EDGE ( 'NONE', *, *, #283, .F. ) ;
#294 = DIRECTION ( 'NONE',  ( 0.000000000000000000, 0.000000000000000000, -1.000000000000000000 ) ) ;
#295 = CARTESIAN_POINT ( 'NONE',  ( 0.1874999999999999445, 0.5000000000000001110, 2.296212748401284952E-17 ) ) ;
#296 = EDGE_CURVE ( 'NONE', #225, #67, #168, .T. ) ;
#297 = ORIENTED_EDGE ( 'NONE', *, *, #283, .T. ) ;
#298 = CARTESIAN_POINT ( 'NONE',  ( -2.296212748401287726E-17, 0.1875000000000000278, 0.000000000000000000 ) ) ;
#299 = AXIS2_PLACEMENT_3D ( 'NONE', #227, #336, #29 ) ;
#300 =( CONVERSION_BASED_UNIT ( 'INCH', #362 ) LENGTH_UNIT ( ) NAMED_UNIT ( #49 ) );
#301 = ORIENTED_EDGE ( 'NONE', *, *, #215, .T. ) ;
#302 = DIMENSIONAL_EXPONENTS ( 1.000000000000000000, 0.000000000000000000, 0.000000000000000000, 0.000000000000000000, 0.000000000000000000, 0.000000000000000000, 0.000000000000000000 ) ;
#303 = EDGE_LOOP ( 'NONE', ( #50, #319, #198, #202, #129 ) ) ;
#304 = VECTOR ( 'NONE', #193, 39.37007874015748143 ) ;
#305 = CARTESIAN_POINT ( 'NONE',  ( 0.000000000000000000, 0.5000000000000000000, 0.000000000000000000 ) ) ;
#306 = UNCERTAINTY_MEASURE_WITH_UNIT (LENGTH_MEASURE( 1.000000000000000082E-05 ), #300, 'distance_accuracy_value', 'NONE');
#307 = ORIENTED_EDGE ( 'NONE', *, *, #65, .T. ) ;
#308 =( LENGTH_UNIT ( ) NAMED_UNIT ( * ) SI_UNIT ( $, .METRE. ) );
#309 =( CONVERSION_BASED_UNIT ( 'INCH', #341 ) LENGTH_UNIT ( ) NAMED_UNIT ( #167 ) );
#310 = CYLINDRICAL_SURFACE ( 'NONE', #187, 0.1874999999999997780 ) ;
#311 = CIRCLE ( 'NONE', #351, 0.1874999999999996947 ) ;
#312 =( GEOMETRIC_REPRESENTATION_CONTEXT ( 3 ) GLOBAL_UNCERTAINTY_ASSIGNED_CONTEXT ( ( #138 ) ) GLOBAL_UNIT_ASSIGNED_CONTEXT ( ( #188, #216, #328 ) ) REPRESENTATION_CONTEXT ( 'NONE', 'WORKASPACE' ) );
#313 = FACE_OUTER_BOUND ( 'NONE', #303, .T. ) ;
#314 = DIRECTION ( 'NONE',  ( -0.000000000000000000, -1.000000000000000000, -0.000000000000000000 ) ) ;
#315 = MECHANICAL_DESIGN_GEOMETRIC_PRESENTATION_REPRESENTATION (  '', ( #192 ), #239 ) ;
#316 = DIRECTION ( 'NONE',  ( -0.000000000000000000, -1.000000000000000000, -0.000000000000000000 ) ) ;
#317 = ORIENTED_EDGE ( 'NONE', *, *, #10, .T. ) ;
#318 = AXIS2_PLACEMENT_3D ( 'NONE', #342, #242, #294 ) ;
#319 = ORIENTED_EDGE ( 'NONE', *, *, #296, .T. ) ;
#320 = CIRCLE ( 'NONE', #14, 0.1874999999999999722 ) ;
#321 = DIRECTION ( 'NONE',  ( 0.000000000000000000, 0.000000000000000000, -1.000000000000000000 ) ) ;
#322 = FACE_OUTER_BOUND ( 'NONE', #270, .T. ) ;
#323 = DIRECTION ( 'NONE',  ( 0.000000000000000000, 0.000000000000000000, 1.000000000000000000 ) ) ;
#324 = PLANE ( 'NONE',  #178 ) ;
#325 = STYLED_ITEM ( 'NONE', ( #5 ), #184 ) ;
#326 = SPHERICAL_SURFACE ( 'NONE', #211, 0.1875000000000000278 ) ;
#327 = CIRCLE ( 'NONE', #266, 0.1874999999999998335 ) ;
#328 =( NAMED_UNIT ( * ) SI_UNIT ( $, .STERADIAN. ) SOLID_ANGLE_UNIT ( ) );
#329 = CIRCLE ( 'NONE', #350, 0.1875000000000000278 ) ;
#330 = COLOUR_RGB ( '',1.000000000000000000, 0.000000000000000000, 0.000000000000000000 ) ;
#331 = DIRECTION ( 'NONE',  ( 0.000000000000000000, 0.000000000000000000, -1.000000000000000000 ) ) ;
#332 = PRODUCT_DEFINITION_FORMATION_WITH_SPECIFIED_SOURCE ( 'ANY', '', #181, .NOT_KNOWN. ) ;
#333 = SURFACE_STYLE_USAGE ( .BOTH. , #368 ) ;
#334 = VERTEX_POINT ( 'NONE', #115 ) ;
#335 = VERTEX_POINT ( 'NONE', #121 ) ;
#336 = DIRECTION ( 'NONE',  ( -1.215801698091266626E-16, 1.000000000000000000, -0.000000000000000000 ) ) ;
#337 = UNCERTAINTY_MEASURE_WITH_UNIT (LENGTH_MEASURE( 1.000000000000000082E-05 ), #80, 'distance_accuracy_value', 'NONE');
#338 = ORIENTED_EDGE ( 'NONE', *, *, #84, .T. ) ;
#339 = CIRCLE ( 'NONE', #318, 0.1874999999999999722 ) ;
#340 = PRESENTATION_STYLE_ASSIGNMENT (( #333 ) ) ;
#341 = LENGTH_MEASURE_WITH_UNIT ( LENGTH_MEASURE( 0.02539999999999999897 ), #81 );
#342 = CARTESIAN_POINT ( 'NONE',  ( 0.000000000000000000, 0.1875000000000000555, 0.000000000000000000 ) ) ;
#343 = PRESENTATION_LAYER_ASSIGNMENT (  '', '', ( #248 ) ) ;
#344 = CARTESIAN_POINT ( 'NONE',  ( 0.1874999999999998335, 2.000000000000000000, 2.296212748401284644E-17 ) ) ;
#345 =( GEOMETRIC_REPRESENTATION_CONTEXT ( 3 ) GLOBAL_UNCERTAINTY_ASSIGNED_CONTEXT ( ( #306 ) ) GLOBAL_UNIT_ASSIGNED_CONTEXT ( ( #300, #163, #366 ) ) REPRESENTATION_CONTEXT ( 'NONE', 'WORKASPACE' ) );
#346 = EDGE_CURVE ( 'NONE', #67, #20, #206, .T. ) ;
#347 =( NAMED_UNIT ( * ) PLANE_ANGLE_UNIT ( ) SI_UNIT ( $, .RADIAN. ) );
#348 = SURFACE_SIDE_STYLE ('',( #238 ) ) ;
#349 = DIRECTION ( 'NONE',  ( 0.000000000000000000, 0.000000000000000000, 1.000000000000000000 ) ) ;
#350 = AXIS2_PLACEMENT_3D ( 'NONE', #114, #279, #146 ) ;
#351 = AXIS2_PLACEMENT_3D ( 'NONE', #240, #280, #97 ) ;
#352 = CYLINDRICAL_SURFACE ( 'NONE', #39, 0.1874999999999999722 ) ;
#353 =( NAMED_UNIT ( * ) PLANE_ANGLE_UNIT ( ) SI_UNIT ( $, .RADIAN. ) );
#354 =( CONVERSION_BASED_UNIT ( 'INCH', #155 ) LENGTH_UNIT ( ) NAMED_UNIT ( #19 ) );
#355 = SURFACE_STYLE_USAGE ( .BOTH. , #183 ) ;
#356 = LINE ( 'NONE', #15, #158 ) ;
#357 = EDGE_CURVE ( 'NONE', #7, #70, #311, .T. ) ;
#358 = CIRCLE ( 'NONE', #200, 0.1874999999999999445 ) ;
#359 = FILL_AREA_STYLE ('',( #78 ) ) ;
#360 = DIRECTION ( 'NONE',  ( 0.000000000000000000, 1.000000000000000000, 0.000000000000000000 ) ) ;
#361 = SURFACE_SIDE_STYLE ('',( #137 ) ) ;
#362 = LENGTH_MEASURE_WITH_UNIT ( LENGTH_MEASURE( 0.02539999999999999897 ), #134 );
#363 = EDGE_LOOP ( 'NONE', ( #367, #301, #152, #59 ) ) ;
#364 = ADVANCED_FACE ( 'NONE', ( #313 ), #352, .T. ) ;
#365 = ORIENTED_EDGE ( 'NONE', *, *, #231, .T. ) ;
#366 =( NAMED_UNIT ( * ) SI_UNIT ( $, .STERADIAN. ) SOLID_ANGLE_UNIT ( ) );
#367 = ORIENTED_EDGE ( 'NONE', *, *, #357, .T. ) ;
#368 = SURFACE_SIDE_STYLE ('',( #52 ) ) ;
#369 = APPLICATION_CONTEXT ( 'automotive_design' ) ;
#370 = PRODUCT_DEFINITION_SHAPE ( 'NONE', 'NONE',  #292 ) ;
#371 = PRODUCT_DEFINITION_CONTEXT ( 'detailed design', #369, 'design' ) ;
#372 = PRESENTATION_LAYER_ASSIGNMENT (  '', '', ( #226 ) ) ;
#373 = DIRECTION ( 'NONE',  ( -0.000000000000000000, -1.000000000000000000, -0.000000000000000000 ) ) ;
ENDSEC;
END-ISO-10303-21;
