ISO-10303-21;
HEADER;
FILE_DESCRIPTION (( 'STEP AP214' ),
    '1' );
FILE_NAME ('Micro_GEM-218-2X.STEP',
    '2021-09-01T20:11:31',
    ( '' ),
    ( '' ),
    'SwSTEP 2.0',
    'SolidWorks 2020',
    '' );
FILE_SCHEMA (( 'AUTOMOTIVE_DESIGN' ));
ENDSEC;

DATA;
#1 = FACE_OUTER_BOUND ( 'NONE', #266, .T. ) ;
#2 = CARTESIAN_POINT ( 'NONE',  ( -0.1249999999999999167, 0.0000000000000000000, 0.7143757151439918962 ) ) ;
#3 = PRESENTATION_STYLE_ASSIGNMENT (( #191 ) ) ;
#4 = AXIS2_PLACEMENT_3D ( 'NONE', #255, #109, #24 ) ;
#5 = COLOUR_RGB ( '',0.7921568627450980005, 0.8196078431372548767, 0.9333333333333333481 ) ;
#6 = EDGE_CURVE ( 'NONE', #60, #86, #14, .T. ) ;
#7 =( NAMED_UNIT ( * ) PLANE_ANGLE_UNIT ( ) SI_UNIT ( $, .RADIAN. ) );
#8 =( LENGTH_UNIT ( ) NAMED_UNIT ( * ) SI_UNIT ( $, .METRE. ) );
#9 = CONICAL_SURFACE ( 'NONE', #12, 0.1092406499999999947, 0.1745329251994338637 ) ;
#10 = EDGE_CURVE ( 'NONE', #88, #263, #292, .T. ) ;
#11 = EDGE_LOOP ( 'NONE', ( #216, #36, #107, #268 ) ) ;
#12 = AXIS2_PLACEMENT_3D ( 'NONE', #166, #259, #30 ) ;
#13 = EDGE_CURVE ( 'NONE', #60, #88, #280, .T. ) ;
#14 = LINE ( 'NONE', #226, #127 ) ;
#15 = VECTOR ( 'NONE', #98, 39.37007874015748143 ) ;
#16 = DIRECTION ( 'NONE',  ( 0.0000000000000000000, 0.0000000000000000000, 1.000000000000000000 ) ) ;
#17 =( CONVERSION_BASED_UNIT ( 'INCH', #96 ) LENGTH_UNIT ( ) NAMED_UNIT ( #241 ) );
#18 = DIRECTION ( 'NONE',  ( 1.000000000000000000, 0.0000000000000000000, 0.0000000000000000000 ) ) ;
#19 = EDGE_CURVE ( 'NONE', #86, #263, #40, .T. ) ;
#20 = DIRECTION ( 'NONE',  ( -0.0000000000000000000, -0.0000000000000000000, -1.000000000000000000 ) ) ;
#21 = CARTESIAN_POINT ( 'NONE',  ( -0.1100000000000001948, 0.0000000000000000000, 2.500000000000000000 ) ) ;
#22 = CIRCLE ( 'NONE', #176, 0.1092406499999999947 ) ;
#23 =( LENGTH_UNIT ( ) NAMED_UNIT ( * ) SI_UNIT ( $, .METRE. ) );
#24 = DIRECTION ( 'NONE',  ( -1.000000000000000000, 0.0000000000000000000, 0.0000000000000000000 ) ) ;
#25 = FACE_OUTER_BOUND ( 'NONE', #199, .T. ) ;
#26 =( NAMED_UNIT ( * ) SI_UNIT ( $, .STERADIAN. ) SOLID_ANGLE_UNIT ( ) );
#27 = FACE_OUTER_BOUND ( 'NONE', #11, .T. ) ;
#28 = AXIS2_PLACEMENT_3D ( 'NONE', #47, #275, #297 ) ;
#29 = CYLINDRICAL_SURFACE ( 'NONE', #49, 0.1250000000000000000 ) ;
#30 = DIRECTION ( 'NONE',  ( 1.000000000000000000, 0.0000000000000000000, 0.0000000000000000000 ) ) ;
#31 =( GEOMETRIC_REPRESENTATION_CONTEXT ( 3 ) GLOBAL_UNCERTAINTY_ASSIGNED_CONTEXT ( ( #187 ) ) GLOBAL_UNIT_ASSIGNED_CONTEXT ( ( #105, #7, #26 ) ) REPRESENTATION_CONTEXT ( 'NONE', 'WORKASPACE' ) );
#32 = ORIENTED_EDGE ( 'NONE', *, *, #160, .F. ) ;
#33 = ORIENTED_EDGE ( 'NONE', *, *, #45, .T. ) ;
#34 = ORIENTED_EDGE ( 'NONE', *, *, #110, .F. ) ;
#35 = CONICAL_SURFACE ( 'NONE', #212, 0.1100000000000001948, 0.7853981633974517207 ) ;
#36 = ORIENTED_EDGE ( 'NONE', *, *, #217, .T. ) ;
#37 = CARTESIAN_POINT ( 'NONE',  ( 0.1100000000000001948, 1.438959988998141146E-17, 2.500000000000000000 ) ) ;
#38 =( NAMED_UNIT ( * ) SI_UNIT ( $, .STERADIAN. ) SOLID_ANGLE_UNIT ( ) );
#39 = ORIENTED_EDGE ( 'NONE', *, *, #287, .T. ) ;
#40 = CIRCLE ( 'NONE', #247, 0.1250000000000000000 ) ;
#41 = PRODUCT_DEFINITION_CONTEXT ( 'detailed design', #267, 'design' ) ;
#42 = APPLICATION_PROTOCOL_DEFINITION ( 'draft international standard', 'automotive_design', 1998, #237 ) ;
#43 = ORIENTED_EDGE ( 'NONE', *, *, #6, .T. ) ;
#44 = PLANE ( 'NONE',  #28 ) ;
#45 = EDGE_CURVE ( 'NONE', #64, #130, #164, .T. ) ;
#46 = ORIENTED_EDGE ( 'NONE', *, *, #52, .F. ) ;
#47 = CARTESIAN_POINT ( 'NONE',  ( 0.0000000000000000000, 0.0000000000000000000, 2.500000000000000000 ) ) ;
#48 = EDGE_LOOP ( 'NONE', ( #34, #131, #148, #58 ) ) ;
#49 = AXIS2_PLACEMENT_3D ( 'NONE', #285, #192, #236 ) ;
#50 = FACE_OUTER_BOUND ( 'NONE', #108, .T. ) ;
#51 = DIRECTION ( 'NONE',  ( 1.000000000000000000, 0.0000000000000000000, 0.0000000000000000000 ) ) ;
#52 = EDGE_CURVE ( 'NONE', #88, #221, #91, .T. ) ;
#53 = APPLICATION_PROTOCOL_DEFINITION ( 'draft international standard', 'automotive_design', 1998, #267 ) ;
#54 = FACE_OUTER_BOUND ( 'NONE', #73, .T. ) ;
#55 = CARTESIAN_POINT ( 'NONE',  ( 0.0000000000000000000, 0.0000000000000000000, 2.500000000000000000 ) ) ;
#56 = CLOSED_SHELL ( 'NONE', ( #190, #104, #173, #220, #213, #223, #120, #153, #276, #215 ) ) ;
#57 = CARTESIAN_POINT ( 'NONE',  ( 0.0000000000000000000, 0.0000000000000000000, 0.0000000000000000000 ) ) ;
#58 = ORIENTED_EDGE ( 'NONE', *, *, #6, .F. ) ;
#59 = VECTOR ( 'NONE', #162, 39.37007874015748143 ) ;
#60 = VERTEX_POINT ( 'NONE', #230 ) ;
#61 = EDGE_CURVE ( 'NONE', #130, #64, #286, .T. ) ;
#62 = PRODUCT_DEFINITION_SHAPE ( 'NONE', 'NONE',  #126 ) ;
#63 = ADVANCED_BREP_SHAPE_REPRESENTATION ( 'Micro_GEM-218-2X', ( #157, #128 ), #134 ) ;
#64 = VERTEX_POINT ( 'NONE', #21 ) ;
#65 = ORIENTED_EDGE ( 'NONE', *, *, #82, .T. ) ;
#66 = STYLED_ITEM ( 'NONE', ( #3 ), #157 ) ;
#67 = ORIENTED_EDGE ( 'NONE', *, *, #10, .F. ) ;
#68 = LINE ( 'NONE', #227, #149 ) ;
#69 = DIRECTION ( 'NONE',  ( -1.224646799147353207E-16, -0.0000000000000000000, -1.000000000000000000 ) ) ;
#70 = CARTESIAN_POINT ( 'NONE',  ( -0.1250000000000000000, 0.0000000000000000000, 2.485000000000000320 ) ) ;
#71 = ORIENTED_EDGE ( 'NONE', *, *, #291, .F. ) ;
#72 = MECHANICAL_DESIGN_GEOMETRIC_PRESENTATION_REPRESENTATION (  '', ( #66 ), #31 ) ;
#73 = EDGE_LOOP ( 'NONE', ( #289, #250, #32, #46 ) ) ;
#74 = CARTESIAN_POINT ( 'NONE',  ( 0.1092406499999999947, 1.337812123592763100E-17, -1.337812123592763100E-17 ) ) ;
#75 = EDGE_LOOP ( 'NONE', ( #155, #39, #113, #150 ) ) ;
#76 = SURFACE_STYLE_FILL_AREA ( #258 ) ;
#77 = DIMENSIONAL_EXPONENTS ( 1.000000000000000000, 0.0000000000000000000, 0.0000000000000000000, 0.0000000000000000000, 0.0000000000000000000, 0.0000000000000000000, 0.0000000000000000000 ) ;
#78 = AXIS2_PLACEMENT_3D ( 'NONE', #152, #92, #228 ) ;
#79 = AXIS2_PLACEMENT_3D ( 'NONE', #103, #83, #167 ) ;
#80 = DIRECTION ( 'NONE',  ( -1.224646799147353207E-16, -0.0000000000000000000, -1.000000000000000000 ) ) ;
#81 = PRODUCT_CONTEXT ( 'NONE', #237, 'mechanical' ) ;
#82 = EDGE_CURVE ( 'NONE', #242, #221, #22, .T. ) ;
#83 = DIRECTION ( 'NONE',  ( 0.0000000000000000000, 0.0000000000000000000, 1.000000000000000000 ) ) ;
#84 = DIRECTION ( 'NONE',  ( 0.0000000000000000000, 0.0000000000000000000, 1.000000000000000000 ) ) ;
#85 = AXIS2_PLACEMENT_3D ( 'NONE', #284, #80, #51 ) ;
#86 = VERTEX_POINT ( 'NONE', #295 ) ;
#87 = PRESENTATION_LAYER_ASSIGNMENT (  '', '', ( #174 ) ) ;
#88 = VERTEX_POINT ( 'NONE', #95 ) ;
#89 = AXIS2_PLACEMENT_3D ( 'NONE', #274, #244, #205 ) ;
#90 = DIRECTION ( 'NONE',  ( -1.000000000000000000, 0.0000000000000000000, 0.0000000000000000000 ) ) ;
#91 = LINE ( 'NONE', #137, #168 ) ;
#92 = DIRECTION ( 'NONE',  ( 0.0000000000000000000, 0.0000000000000000000, 1.000000000000000000 ) ) ;
#93 = CARTESIAN_POINT ( 'NONE',  ( 7.654042494670957853E-17, 0.0000000000000000000, 0.6250000000000000000 ) ) ;
#94 = CYLINDRICAL_SURFACE ( 'NONE', #165, 0.1092406499999999947 ) ;
#95 = CARTESIAN_POINT ( 'NONE',  ( -0.1092406499999999253, 1.434310311263477304E-17, 0.6250000000000000000 ) ) ;
#96 = LENGTH_MEASURE_WITH_UNIT ( LENGTH_MEASURE( 0.02539999999999999897 ), #23 );
#97 = CYLINDRICAL_SURFACE ( 'NONE', #243, 0.1092406499999999947 ) ;
#98 = DIRECTION ( 'NONE',  ( -0.0000000000000000000, -0.0000000000000000000, -1.000000000000000000 ) ) ;
#99 = CIRCLE ( 'NONE', #89, 0.1092406499999999947 ) ;
#100 =( CONVERSION_BASED_UNIT ( 'INCH', #232 ) LENGTH_UNIT ( ) NAMED_UNIT ( #118 ) );
#101 = FACE_OUTER_BOUND ( 'NONE', #177, .T. ) ;
#102 =( NAMED_UNIT ( * ) SI_UNIT ( $, .STERADIAN. ) SOLID_ANGLE_UNIT ( ) );
#103 = CARTESIAN_POINT ( 'NONE',  ( 0.0000000000000000000, 0.0000000000000000000, 0.0000000000000000000 ) ) ;
#104 = ADVANCED_FACE ( 'NONE', ( #180 ), #290, .T. ) ;
#105 =( CONVERSION_BASED_UNIT ( 'INCH', #211 ) LENGTH_UNIT ( ) NAMED_UNIT ( #77 ) );
#106 = EDGE_CURVE ( 'NONE', #64, #240, #272, .T. ) ;
#107 = ORIENTED_EDGE ( 'NONE', *, *, #209, .T. ) ;
#108 = EDGE_LOOP ( 'NONE', ( #33, #270 ) ) ;
#109 = DIRECTION ( 'NONE',  ( -1.224646799147353207E-16, -0.0000000000000000000, -1.000000000000000000 ) ) ;
#110 = EDGE_CURVE ( 'NONE', #88, #60, #99, .T. ) ;
#111 = CARTESIAN_POINT ( 'NONE',  ( 8.748579329396911086E-17, 0.0000000000000000000, 0.7143757151439918962 ) ) ;
#112 = CARTESIAN_POINT ( 'NONE',  ( 0.0000000000000000000, 0.0000000000000000000, 0.0000000000000000000 ) ) ;
#113 = ORIENTED_EDGE ( 'NONE', *, *, #132, .F. ) ;
#114 = CARTESIAN_POINT ( 'NONE',  ( 0.1092406499999999947, 1.337812123592763100E-17, 0.0000000000000000000 ) ) ;
#115 = ORIENTED_EDGE ( 'NONE', *, *, #217, .F. ) ;
#116 = PRODUCT_DEFINITION_FORMATION_WITH_SPECIFIED_SOURCE ( 'ANY', '', #218, .NOT_KNOWN. ) ;
#117 = CARTESIAN_POINT ( 'NONE',  ( -0.1100000000000001948, 0.0000000000000000000, 2.500000000000000000 ) ) ;
#118 = DIMENSIONAL_EXPONENTS ( 1.000000000000000000, 0.0000000000000000000, 0.0000000000000000000, 0.0000000000000000000, 0.0000000000000000000, 0.0000000000000000000, 0.0000000000000000000 ) ;
#119 = CARTESIAN_POINT ( 'NONE',  ( 0.0000000000000000000, 0.0000000000000000000, 0.0000000000000000000 ) ) ;
#120 = ADVANCED_FACE ( 'NONE', ( #298 ), #35, .T. ) ;
#121 = DIRECTION ( 'NONE',  ( -1.000000000000000000, 0.0000000000000000000, 1.224646799147353207E-16 ) ) ;
#122 = PLANE ( 'NONE',  #79 ) ;
#123 = DIRECTION ( 'NONE',  ( -1.000000000000000000, 0.0000000000000000000, 0.0000000000000000000 ) ) ;
#124 = AXIS2_PLACEMENT_3D ( 'NONE', #93, #142, #253 ) ;
#125 = ORIENTED_EDGE ( 'NONE', *, *, #82, .F. ) ;
#126 = PRODUCT_DEFINITION ( 'UNKNOWN', '', #116, #41 ) ;
#127 = VECTOR ( 'NONE', #161, 39.37007874015748143 ) ;
#128 = AXIS2_PLACEMENT_3D ( 'NONE', #57, #84, #170 ) ;
#129 = ORIENTED_EDGE ( 'NONE', *, *, #160, .T. ) ;
#130 = VERTEX_POINT ( 'NONE', #37 ) ;
#131 = ORIENTED_EDGE ( 'NONE', *, *, #10, .T. ) ;
#132 = EDGE_CURVE ( 'NONE', #263, #86, #143, .T. ) ;
#133 = CARTESIAN_POINT ( 'NONE',  ( 0.0000000000000000000, 0.0000000000000000000, 2.500000000000000000 ) ) ;
#134 =( GEOMETRIC_REPRESENTATION_CONTEXT ( 3 ) GLOBAL_UNCERTAINTY_ASSIGNED_CONTEXT ( ( #251 ) ) GLOBAL_UNIT_ASSIGNED_CONTEXT ( ( #17, #231, #38 ) ) REPRESENTATION_CONTEXT ( 'NONE', 'WORKASPACE' ) );
#135 = DIRECTION ( 'NONE',  ( 1.000000000000000000, 0.0000000000000000000, 0.0000000000000000000 ) ) ;
#136 = SURFACE_STYLE_FILL_AREA ( #271 ) ;
#137 = CARTESIAN_POINT ( 'NONE',  ( -0.1092406499999999947, 0.0000000000000000000, 1.337812123592763100E-17 ) ) ;
#138 = UNCERTAINTY_MEASURE_WITH_UNIT (LENGTH_MEASURE( 1.000000000000000082E-05 ), #100, 'distance_accuracy_value', 'NONE');
#139 = LINE ( 'NONE', #74, #59 ) ;
#140 = ORIENTED_EDGE ( 'NONE', *, *, #19, .T. ) ;
#141 = CARTESIAN_POINT ( 'NONE',  ( 0.0000000000000000000, 0.0000000000000000000, 2.485000000000000320 ) ) ;
#142 = DIRECTION ( 'NONE',  ( 1.224646799147353207E-16, 0.0000000000000000000, 1.000000000000000000 ) ) ;
#143 = CIRCLE ( 'NONE', #85, 0.1250000000000000000 ) ;
#144 = LINE ( 'NONE', #234, #257 ) ;
#145 = DIRECTION ( 'NONE',  ( 0.0000000000000000000, 0.0000000000000000000, -1.000000000000000000 ) ) ;
#146 = AXIS2_PLACEMENT_3D ( 'NONE', #186, #208, #294 ) ;
#147 = SHAPE_DEFINITION_REPRESENTATION ( #62, #63 ) ;
#148 = ORIENTED_EDGE ( 'NONE', *, *, #132, .T. ) ;
#149 = VECTOR ( 'NONE', #203, 39.37007874015748143 ) ;
#150 = ORIENTED_EDGE ( 'NONE', *, *, #209, .F. ) ;
#151 = AXIS2_PLACEMENT_3D ( 'NONE', #293, #16, #18 ) ;
#152 = CARTESIAN_POINT ( 'NONE',  ( 0.0000000000000000000, 0.0000000000000000000, 2.500000000000000000 ) ) ;
#153 = ADVANCED_FACE ( 'NONE', ( #261 ), #9, .T. ) ;
#154 = CYLINDRICAL_SURFACE ( 'NONE', #239, 0.1250000000000000000 ) ;
#155 = ORIENTED_EDGE ( 'NONE', *, *, #291, .T. ) ;
#156 = CARTESIAN_POINT ( 'NONE',  ( 0.1250000000000000000, 1.530808498934191509E-17, 2.500000000000000000 ) ) ;
#157 = MANIFOLD_SOLID_BREP ( 'Cut-Revolve1', #56 ) ;
#158 = DIRECTION ( 'NONE',  ( -0.1736481776669311639, 2.126576849575783008E-17, 0.9848077530122080203 ) ) ;
#159 = CARTESIAN_POINT ( 'NONE',  ( -0.1092406499999999947, 0.0000000000000000000, 2.675624247185526200E-17 ) ) ;
#160 = EDGE_CURVE ( 'NONE', #221, #242, #214, .T. ) ;
#161 = DIRECTION ( 'NONE',  ( 0.1736481776669313581, 0.0000000000000000000, 0.9848077530122077983 ) ) ;
#162 = DIRECTION ( 'NONE',  ( -1.224646799147353207E-16, -0.0000000000000000000, -1.000000000000000000 ) ) ;
#163 = ORIENTED_EDGE ( 'NONE', *, *, #248, .T. ) ;
#164 = CIRCLE ( 'NONE', #78, 0.1100000000000001948 ) ;
#165 = AXIS2_PLACEMENT_3D ( 'NONE', #112, #206, #184 ) ;
#166 = CARTESIAN_POINT ( 'NONE',  ( 7.654042494670957853E-17, 0.0000000000000000000, 0.6250000000000000000 ) ) ;
#167 = DIRECTION ( 'NONE',  ( 1.000000000000000000, 0.0000000000000000000, -0.0000000000000000000 ) ) ;
#168 = VECTOR ( 'NONE', #224, 39.37007874015748143 ) ;
#169 = COLOUR_RGB ( '',0.7921568627450980005, 0.8196078431372548767, 0.9333333333333333481 ) ;
#170 = DIRECTION ( 'NONE',  ( 1.000000000000000000, 0.0000000000000000000, 0.0000000000000000000 ) ) ;
#171 = EDGE_LOOP ( 'NONE', ( #67, #175, #43, #140 ) ) ;
#172 = ORIENTED_EDGE ( 'NONE', *, *, #248, .F. ) ;
#173 = ADVANCED_FACE ( 'NONE', ( #1 ), #197, .T. ) ;
#174 = STYLED_ITEM ( 'NONE', ( #181 ), #63 ) ;
#175 = ORIENTED_EDGE ( 'NONE', *, *, #13, .F. ) ;
#176 = AXIS2_PLACEMENT_3D ( 'NONE', #178, #207, #200 ) ;
#177 = EDGE_LOOP ( 'NONE', ( #129, #65 ) ) ;
#178 = CARTESIAN_POINT ( 'NONE',  ( 1.638347335018400726E-33, 0.0000000000000000000, 1.337812123592763100E-17 ) ) ;
#179 = FILL_AREA_STYLE_COLOUR ( '', #5 ) ;
#180 = FACE_OUTER_BOUND ( 'NONE', #48, .T. ) ;
#181 = PRESENTATION_STYLE_ASSIGNMENT (( #201 ) ) ;
#182 = CIRCLE ( 'NONE', #194, 0.1250000000000000000 ) ;
#183 = DIRECTION ( 'NONE',  ( -0.7071067811865499042, 0.0000000000000000000, -0.7071067811865451302 ) ) ;
#184 = DIRECTION ( 'NONE',  ( -1.000000000000000000, 0.0000000000000000000, 1.224646799147353207E-16 ) ) ;
#185 = CARTESIAN_POINT ( 'NONE',  ( 0.0000000000000000000, 0.0000000000000000000, 2.500000000000000000 ) ) ;
#186 = CARTESIAN_POINT ( 'NONE',  ( 0.0000000000000000000, 0.0000000000000000000, 2.485000000000000320 ) ) ;
#187 = UNCERTAINTY_MEASURE_WITH_UNIT (LENGTH_MEASURE( 1.000000000000000082E-05 ), #105, 'distance_accuracy_value', 'NONE');
#188 = FILL_AREA_STYLE_COLOUR ( '', #169 ) ;
#189 = DIRECTION ( 'NONE',  ( -0.0000000000000000000, -0.0000000000000000000, -1.000000000000000000 ) ) ;
#190 = ADVANCED_FACE ( 'NONE', ( #54 ), #97, .T. ) ;
#191 = SURFACE_STYLE_USAGE ( .BOTH. , #279 ) ;
#192 = DIRECTION ( 'NONE',  ( -0.0000000000000000000, -0.0000000000000000000, -1.000000000000000000 ) ) ;
#193 = ORIENTED_EDGE ( 'NONE', *, *, #264, .F. ) ;
#194 = AXIS2_PLACEMENT_3D ( 'NONE', #141, #299, #245 ) ;
#195 = ORIENTED_EDGE ( 'NONE', *, *, #106, .F. ) ;
#196 = ORIENTED_EDGE ( 'NONE', *, *, #61, .F. ) ;
#197 = CONICAL_SURFACE ( 'NONE', #273, 0.1100000000000001948, 0.7853981633974517207 ) ;
#198 = PRODUCT_RELATED_PRODUCT_CATEGORY ( 'part', '', ( #218 ) ) ;
#199 = EDGE_LOOP ( 'NONE', ( #193, #269, #219, #125 ) ) ;
#200 = DIRECTION ( 'NONE',  ( -1.000000000000000000, 0.0000000000000000000, 1.224646799147353207E-16 ) ) ;
#201 = SURFACE_STYLE_USAGE ( .BOTH. , #225 ) ;
#202 = CARTESIAN_POINT ( 'NONE',  ( -0.1092406499999999253, 1.337812123592763100E-17, 0.6250000000000000000 ) ) ;
#203 = DIRECTION ( 'NONE',  ( 0.7071067811865499042, 8.659560562354961208E-17, -0.7071067811865451302 ) ) ;
#204 = CIRCLE ( 'NONE', #146, 0.1250000000000000000 ) ;
#205 = DIRECTION ( 'NONE',  ( -1.000000000000000000, 0.0000000000000000000, 0.0000000000000000000 ) ) ;
#206 = DIRECTION ( 'NONE',  ( -1.224646799147353207E-16, -0.0000000000000000000, -1.000000000000000000 ) ) ;
#207 = DIRECTION ( 'NONE',  ( -1.224646799147353207E-16, -0.0000000000000000000, -1.000000000000000000 ) ) ;
#208 = DIRECTION ( 'NONE',  ( 0.0000000000000000000, 0.0000000000000000000, -1.000000000000000000 ) ) ;
#209 = EDGE_CURVE ( 'NONE', #240, #263, #144, .T. ) ;
#210 = DIRECTION ( 'NONE',  ( -1.224646799147353207E-16, -0.0000000000000000000, -1.000000000000000000 ) ) ;
#211 = LENGTH_MEASURE_WITH_UNIT ( LENGTH_MEASURE( 0.02539999999999999897 ), #8 );
#212 = AXIS2_PLACEMENT_3D ( 'NONE', #185, #277, #90 ) ;
#213 = ADVANCED_FACE ( 'NONE', ( #27 ), #29, .T. ) ;
#214 = CIRCLE ( 'NONE', #235, 0.1092406499999999947 ) ;
#215 = ADVANCED_FACE ( 'NONE', ( #101 ), #122, .F. ) ;
#216 = ORIENTED_EDGE ( 'NONE', *, *, #287, .F. ) ;
#217 = EDGE_CURVE ( 'NONE', #222, #240, #204, .T. ) ;
#218 = PRODUCT ( 'Micro_GEM-218-2X', 'Micro_GEM-218-2X', '', ( #81 ) ) ;
#219 = ORIENTED_EDGE ( 'NONE', *, *, #52, .T. ) ;
#220 = ADVANCED_FACE ( 'NONE', ( #278 ), #154, .T. ) ;
#221 = VERTEX_POINT ( 'NONE', #159 ) ;
#222 = VERTEX_POINT ( 'NONE', #252 ) ;
#223 = ADVANCED_FACE ( 'NONE', ( #50 ), #44, .T. ) ;
#224 = DIRECTION ( 'NONE',  ( -1.224646799147353207E-16, -0.0000000000000000000, -1.000000000000000000 ) ) ;
#225 = SURFACE_SIDE_STYLE ('',( #136 ) ) ;
#226 = CARTESIAN_POINT ( 'NONE',  ( 0.1092406500000000502, 0.0000000000000000000, 0.6250000000000000000 ) ) ;
#227 = CARTESIAN_POINT ( 'NONE',  ( 0.1100000000000001948, 1.347111479062090784E-17, 2.500000000000000000 ) ) ;
#228 = DIRECTION ( 'NONE',  ( 1.000000000000000000, 0.0000000000000000000, 0.0000000000000000000 ) ) ;
#229 = PRESENTATION_LAYER_ASSIGNMENT (  '', '', ( #66 ) ) ;
#230 = CARTESIAN_POINT ( 'NONE',  ( 0.1092406500000000502, 0.0000000000000000000, 0.6250000000000000000 ) ) ;
#231 =( NAMED_UNIT ( * ) PLANE_ANGLE_UNIT ( ) SI_UNIT ( $, .RADIAN. ) );
#232 = LENGTH_MEASURE_WITH_UNIT ( LENGTH_MEASURE( 0.02539999999999999897 ), #262 );
#233 = DIRECTION ( 'NONE',  ( -1.000000000000000000, 0.0000000000000000000, 1.224646799147353207E-16 ) ) ;
#234 = CARTESIAN_POINT ( 'NONE',  ( -0.1250000000000000000, 0.0000000000000000000, 2.500000000000000000 ) ) ;
#235 = AXIS2_PLACEMENT_3D ( 'NONE', #282, #260, #121 ) ;
#236 = DIRECTION ( 'NONE',  ( -1.000000000000000000, 0.0000000000000000000, 0.0000000000000000000 ) ) ;
#237 = APPLICATION_CONTEXT ( 'automotive_design' ) ;
#238 = ORIENTED_EDGE ( 'NONE', *, *, #45, .F. ) ;
#239 = AXIS2_PLACEMENT_3D ( 'NONE', #133, #20, #256 ) ;
#240 = VERTEX_POINT ( 'NONE', #70 ) ;
#241 = DIMENSIONAL_EXPONENTS ( 1.000000000000000000, 0.0000000000000000000, 0.0000000000000000000, 0.0000000000000000000, 0.0000000000000000000, 0.0000000000000000000, 0.0000000000000000000 ) ;
#242 = VERTEX_POINT ( 'NONE', #114 ) ;
#243 = AXIS2_PLACEMENT_3D ( 'NONE', #119, #210, #233 ) ;
#244 = DIRECTION ( 'NONE',  ( -1.224646799147353207E-16, -0.0000000000000000000, -1.000000000000000000 ) ) ;
#245 = DIRECTION ( 'NONE',  ( 1.000000000000000000, 0.0000000000000000000, 0.0000000000000000000 ) ) ;
#246 = EDGE_LOOP ( 'NONE', ( #172, #238, #265, #115 ) ) ;
#247 = AXIS2_PLACEMENT_3D ( 'NONE', #111, #69, #135 ) ;
#248 = EDGE_CURVE ( 'NONE', #130, #222, #68, .T. ) ;
#249 = MECHANICAL_DESIGN_GEOMETRIC_PRESENTATION_REPRESENTATION (  '', ( #174 ), #288 ) ;
#250 = ORIENTED_EDGE ( 'NONE', *, *, #264, .T. ) ;
#251 = UNCERTAINTY_MEASURE_WITH_UNIT (LENGTH_MEASURE( 1.000000000000000082E-05 ), #17, 'distance_accuracy_value', 'NONE');
#252 = CARTESIAN_POINT ( 'NONE',  ( 0.1250000000000000000, 1.530808498934191509E-17, 2.485000000000000320 ) ) ;
#253 = DIRECTION ( 'NONE',  ( 1.000000000000000000, 0.0000000000000000000, 0.0000000000000000000 ) ) ;
#254 = LINE ( 'NONE', #156, #15 ) ;
#255 = CARTESIAN_POINT ( 'NONE',  ( 7.654042494670957853E-17, 0.0000000000000000000, 0.6250000000000000000 ) ) ;
#256 = DIRECTION ( 'NONE',  ( -1.000000000000000000, 0.0000000000000000000, 0.0000000000000000000 ) ) ;
#257 = VECTOR ( 'NONE', #189, 39.37007874015748143 ) ;
#258 = FILL_AREA_STYLE ('',( #188 ) ) ;
#259 = DIRECTION ( 'NONE',  ( 1.224646799147353207E-16, 0.0000000000000000000, 1.000000000000000000 ) ) ;
#260 = DIRECTION ( 'NONE',  ( -1.224646799147353207E-16, -0.0000000000000000000, -1.000000000000000000 ) ) ;
#261 = FACE_OUTER_BOUND ( 'NONE', #171, .T. ) ;
#262 =( LENGTH_UNIT ( ) NAMED_UNIT ( * ) SI_UNIT ( $, .METRE. ) );
#263 = VERTEX_POINT ( 'NONE', #2 ) ;
#264 = EDGE_CURVE ( 'NONE', #60, #242, #139, .T. ) ;
#265 = ORIENTED_EDGE ( 'NONE', *, *, #106, .T. ) ;
#266 = EDGE_LOOP ( 'NONE', ( #196, #163, #71, #195 ) ) ;
#267 = APPLICATION_CONTEXT ( 'automotive_design' ) ;
#268 = ORIENTED_EDGE ( 'NONE', *, *, #19, .F. ) ;
#269 = ORIENTED_EDGE ( 'NONE', *, *, #13, .T. ) ;
#270 = ORIENTED_EDGE ( 'NONE', *, *, #61, .T. ) ;
#271 = FILL_AREA_STYLE ('',( #179 ) ) ;
#272 = LINE ( 'NONE', #117, #281 ) ;
#273 = AXIS2_PLACEMENT_3D ( 'NONE', #55, #145, #123 ) ;
#274 = CARTESIAN_POINT ( 'NONE',  ( 7.654042494670957853E-17, 0.0000000000000000000, 0.6250000000000000000 ) ) ;
#275 = DIRECTION ( 'NONE',  ( 0.0000000000000000000, 0.0000000000000000000, 1.000000000000000000 ) ) ;
#276 = ADVANCED_FACE ( 'NONE', ( #25 ), #94, .T. ) ;
#277 = DIRECTION ( 'NONE',  ( 0.0000000000000000000, 0.0000000000000000000, -1.000000000000000000 ) ) ;
#278 = FACE_OUTER_BOUND ( 'NONE', #75, .T. ) ;
#279 = SURFACE_SIDE_STYLE ('',( #76 ) ) ;
#280 = CIRCLE ( 'NONE', #4, 0.1092406499999999947 ) ;
#281 = VECTOR ( 'NONE', #183, 39.37007874015748143 ) ;
#282 = CARTESIAN_POINT ( 'NONE',  ( 1.638347335018400726E-33, 0.0000000000000000000, 1.337812123592763100E-17 ) ) ;
#283 =( NAMED_UNIT ( * ) PLANE_ANGLE_UNIT ( ) SI_UNIT ( $, .RADIAN. ) );
#284 = CARTESIAN_POINT ( 'NONE',  ( 8.748579329396911086E-17, 0.0000000000000000000, 0.7143757151439918962 ) ) ;
#285 = CARTESIAN_POINT ( 'NONE',  ( 0.0000000000000000000, 0.0000000000000000000, 2.500000000000000000 ) ) ;
#286 = CIRCLE ( 'NONE', #151, 0.1100000000000001948 ) ;
#287 = EDGE_CURVE ( 'NONE', #222, #86, #254, .T. ) ;
#288 =( GEOMETRIC_REPRESENTATION_CONTEXT ( 3 ) GLOBAL_UNCERTAINTY_ASSIGNED_CONTEXT ( ( #138 ) ) GLOBAL_UNIT_ASSIGNED_CONTEXT ( ( #100, #283, #102 ) ) REPRESENTATION_CONTEXT ( 'NONE', 'WORKASPACE' ) );
#289 = ORIENTED_EDGE ( 'NONE', *, *, #110, .T. ) ;
#290 = CONICAL_SURFACE ( 'NONE', #124, 0.1092406499999999947, 0.1745329251994338637 ) ;
#291 = EDGE_CURVE ( 'NONE', #240, #222, #182, .T. ) ;
#292 = LINE ( 'NONE', #202, #296 ) ;
#293 = CARTESIAN_POINT ( 'NONE',  ( 0.0000000000000000000, 0.0000000000000000000, 2.500000000000000000 ) ) ;
#294 = DIRECTION ( 'NONE',  ( 1.000000000000000000, 0.0000000000000000000, 0.0000000000000000000 ) ) ;
#295 = CARTESIAN_POINT ( 'NONE',  ( 0.1250000000000000833, 1.530808498934192433E-17, 0.7143757151439918962 ) ) ;
#296 = VECTOR ( 'NONE', #158, 39.37007874015747433 ) ;
#297 = DIRECTION ( 'NONE',  ( 1.000000000000000000, 0.0000000000000000000, -0.0000000000000000000 ) ) ;
#298 = FACE_OUTER_BOUND ( 'NONE', #246, .T. ) ;
#299 = DIRECTION ( 'NONE',  ( 0.0000000000000000000, 0.0000000000000000000, -1.000000000000000000 ) ) ;
ENDSEC;
END-ISO-10303-21;
