ISO-10303-21;
HEADER;
FILE_DESCRIPTION (( 'STEP AP214' ),
    '1' );
FILE_NAME ('Micro_SFPM-120-20.STEP',
    '2021-09-02T07:49:04',
    ( '' ),
    ( '' ),
    'SwSTEP 2.0',
    'SolidWorks 2020',
    '' );
FILE_SCHEMA (( 'AUTOMOTIVE_DESIGN' ));
ENDSEC;

DATA;
#1 = DIRECTION ( 'NONE',  ( -1.000000000000000000, 0.0000000000000000000, 1.224646799147353454E-16 ) ) ;
#2 = DIRECTION ( 'NONE',  ( -1.000000000000000000, 0.0000000000000000000, 0.0000000000000000000 ) ) ;
#3 = CARTESIAN_POINT ( 'NONE',  ( -0.2359842794999997828, 2.889973925387693713E-17, 1.574802999999999953 ) ) ;
#4 = CIRCLE ( 'NONE', #40, 0.2362204999999999999 ) ;
#5 =( LENGTH_UNIT ( ) NAMED_UNIT ( * ) SI_UNIT ( $, .METRE. ) );
#6 = EDGE_CURVE ( 'NONE', #53, #77, #122, .T. ) ;
#7 = VERTEX_POINT ( 'NONE', #100 ) ;
#8 = PRESENTATION_STYLE_ASSIGNMENT (( #198 ) ) ;
#9 = ORIENTED_EDGE ( 'NONE', *, *, #124, .T. ) ;
#10 = UNCERTAINTY_MEASURE_WITH_UNIT (LENGTH_MEASURE( 1.000000000000000082E-05 ), #182, 'distance_accuracy_value', 'NONE');
#11 = PRESENTATION_LAYER_ASSIGNMENT (  '', '', ( #145 ) ) ;
#12 = SURFACE_STYLE_FILL_AREA ( #104 ) ;
#13 = ORIENTED_EDGE ( 'NONE', *, *, #269, .F. ) ;
#14 = ORIENTED_EDGE ( 'NONE', *, *, #6, .F. ) ;
#15 = EDGE_LOOP ( 'NONE', ( #194, #125, #37, #99 ) ) ;
#16 = AXIS2_PLACEMENT_3D ( 'NONE', #159, #84, #38 ) ;
#17 = CIRCLE ( 'NONE', #73, 0.2212204999999994870 ) ;
#18 = DIRECTION ( 'NONE',  ( 0.0000000000000000000, 0.0000000000000000000, 1.000000000000000000 ) ) ;
#19 = EDGE_CURVE ( 'NONE', #53, #31, #264, .T. ) ;
#20 = DIRECTION ( 'NONE',  ( -1.000000000000000000, 0.0000000000000000000, 1.224646799147353207E-16 ) ) ;
#21 = CARTESIAN_POINT ( 'NONE',  ( 0.2359842795000001714, 0.0000000000000000000, 1.574802999999999953 ) ) ;
#22 = STYLED_ITEM ( 'NONE', ( #250 ), #135 ) ;
#23 = DIRECTION ( 'NONE',  ( -1.000000000000000000, 0.0000000000000000000, 0.0000000000000000000 ) ) ;
#24 = EDGE_CURVE ( 'NONE', #7, #36, #253, .T. ) ;
#25 = CARTESIAN_POINT ( 'NONE',  ( 0.2362204999999999999, 2.892866792179873879E-17, 5.905511999999999873 ) ) ;
#26 = CARTESIAN_POINT ( 'NONE',  ( 1.928577453237649374E-16, 0.0000000000000000000, 1.574802999999999953 ) ) ;
#27 = CIRCLE ( 'NONE', #63, 0.2212204999999994870 ) ;
#28 = LINE ( 'NONE', #117, #156 ) ;
#29 = CARTESIAN_POINT ( 'NONE',  ( 3.539197317345351204E-33, 0.0000000000000000000, 2.889973925387693713E-17 ) ) ;
#30 =( NAMED_UNIT ( * ) PLANE_ANGLE_UNIT ( ) SI_UNIT ( $, .RADIAN. ) );
#31 = VERTEX_POINT ( 'NONE', #136 ) ;
#32 = UNCERTAINTY_MEASURE_WITH_UNIT (LENGTH_MEASURE( 1.000000000000000082E-05 ), #79, 'distance_accuracy_value', 'NONE');
#33 = CARTESIAN_POINT ( 'NONE',  ( -0.2359842794999999771, 0.0000000000000000000, 2.889973925387693713E-17 ) ) ;
#34 = ORIENTED_EDGE ( 'NONE', *, *, #114, .T. ) ;
#35 = VECTOR ( 'NONE', #116, 39.37007874015748143 ) ;
#36 = VERTEX_POINT ( 'NONE', #296 ) ;
#37 = ORIENTED_EDGE ( 'NONE', *, *, #24, .T. ) ;
#38 = DIRECTION ( 'NONE',  ( -1.000000000000000000, 0.0000000000000000000, 0.0000000000000000000 ) ) ;
#39 = EDGE_CURVE ( 'NONE', #199, #123, #231, .T. ) ;
#40 = AXIS2_PLACEMENT_3D ( 'NONE', #191, #167, #279 ) ;
#41 =( NAMED_UNIT ( * ) SI_UNIT ( $, .STERADIAN. ) SOLID_ANGLE_UNIT ( ) );
#42 = DIRECTION ( 'NONE',  ( -1.224646799147353207E-16, -0.0000000000000000000, -1.000000000000000000 ) ) ;
#43 = ADVANCED_FACE ( 'NONE', ( #85 ), #204, .T. ) ;
#44 = DIRECTION ( 'NONE',  ( -1.224646799147353207E-16, -0.0000000000000000000, -1.000000000000000000 ) ) ;
#45 = APPLICATION_CONTEXT ( 'automotive_design' ) ;
#46 = DIRECTION ( 'NONE',  ( 0.7071067811865410224, 8.659560562354852739E-17, -0.7071067811865539010 ) ) ;
#47 = DIRECTION ( 'NONE',  ( 1.000000000000000000, 0.0000000000000000000, -0.0000000000000000000 ) ) ;
#48 = CARTESIAN_POINT ( 'NONE',  ( 0.0000000000000000000, 0.0000000000000000000, 5.905511999999999873 ) ) ;
#49 = ADVANCED_FACE ( 'NONE', ( #225 ), #163, .T. ) ;
#50 = CARTESIAN_POINT ( 'NONE',  ( 0.0000000000000000000, 0.0000000000000000000, 0.0000000000000000000 ) ) ;
#51 = CARTESIAN_POINT ( 'NONE',  ( 0.0000000000000000000, 0.0000000000000000000, 5.905511999999999873 ) ) ;
#52 = CARTESIAN_POINT ( 'NONE',  ( 0.0000000000000000000, 0.0000000000000000000, 0.0000000000000000000 ) ) ;
#53 = VERTEX_POINT ( 'NONE', #277 ) ;
#54 = CONICAL_SURFACE ( 'NONE', #226, 0.2212204999999994870, 0.7853981633974391752 ) ;
#55 =( NAMED_UNIT ( * ) SI_UNIT ( $, .STERADIAN. ) SOLID_ANGLE_UNIT ( ) );
#56 = EDGE_LOOP ( 'NONE', ( #158, #81, #106, #128 ) ) ;
#57 = ORIENTED_EDGE ( 'NONE', *, *, #141, .F. ) ;
#58 = EDGE_LOOP ( 'NONE', ( #34, #270 ) ) ;
#59 = APPLICATION_PROTOCOL_DEFINITION ( 'draft international standard', 'automotive_design', 1998, #127 ) ;
#60 = ORIENTED_EDGE ( 'NONE', *, *, #114, .F. ) ;
#61 = EDGE_CURVE ( 'NONE', #77, #287, #185, .T. ) ;
#62 = DIMENSIONAL_EXPONENTS ( 1.000000000000000000, 0.0000000000000000000, 0.0000000000000000000, 0.0000000000000000000, 0.0000000000000000000, 0.0000000000000000000, 0.0000000000000000000 ) ;
#63 = AXIS2_PLACEMENT_3D ( 'NONE', #228, #18, #65 ) ;
#64 = AXIS2_PLACEMENT_3D ( 'NONE', #52, #95, #298 ) ;
#65 = DIRECTION ( 'NONE',  ( 1.000000000000000000, 0.0000000000000000000, 0.0000000000000000000 ) ) ;
#66 = EDGE_CURVE ( 'NONE', #7, #199, #291, .T. ) ;
#67 = VECTOR ( 'NONE', #42, 39.37007874015748143 ) ;
#68 = FACE_OUTER_BOUND ( 'NONE', #58, .T. ) ;
#69 = DIRECTION ( 'NONE',  ( -0.0000000000000000000, -0.0000000000000000000, -1.000000000000000000 ) ) ;
#70 = DIRECTION ( 'NONE',  ( 0.0000000000000000000, 0.0000000000000000000, 1.000000000000000000 ) ) ;
#71 = FACE_OUTER_BOUND ( 'NONE', #56, .T. ) ;
#72 = CIRCLE ( 'NONE', #143, 0.2359842795000000049 ) ;
#73 = AXIS2_PLACEMENT_3D ( 'NONE', #115, #70, #75 ) ;
#74 = EDGE_CURVE ( 'NONE', #266, #247, #27, .T. ) ;
#75 = DIRECTION ( 'NONE',  ( 1.000000000000000000, 0.0000000000000000000, 0.0000000000000000000 ) ) ;
#76 = DIRECTION ( 'NONE',  ( -1.224646799147353207E-16, -0.0000000000000000000, -1.000000000000000000 ) ) ;
#77 = VERTEX_POINT ( 'NONE', #21 ) ;
#78 = EDGE_CURVE ( 'NONE', #36, #123, #107, .T. ) ;
#79 =( CONVERSION_BASED_UNIT ( 'INCH', #245 ) LENGTH_UNIT ( ) NAMED_UNIT ( #229 ) );
#80 = ORIENTED_EDGE ( 'NONE', *, *, #216, .T. ) ;
#81 = ORIENTED_EDGE ( 'NONE', *, *, #39, .T. ) ;
#82 = VECTOR ( 'NONE', #169, 39.37007874015748854 ) ;
#83 = FILL_AREA_STYLE ('',( #162 ) ) ;
#84 = DIRECTION ( 'NONE',  ( -0.0000000000000000000, -0.0000000000000000000, -1.000000000000000000 ) ) ;
#85 = FACE_OUTER_BOUND ( 'NONE', #15, .T. ) ;
#86 = VECTOR ( 'NONE', #46, 39.37007874015748854 ) ;
#87 = AXIS2_PLACEMENT_3D ( 'NONE', #176, #178, #171 ) ;
#88 = DIRECTION ( 'NONE',  ( 1.000000000000000000, 0.0000000000000000000, 0.0000000000000000000 ) ) ;
#89 = CLOSED_SHELL ( 'NONE', ( #251, #224, #248, #212, #43, #49, #183, #265, #203, #289 ) ) ;
#90 = CARTESIAN_POINT ( 'NONE',  ( 3.539197317345351204E-33, 0.0000000000000000000, 2.889973925387693713E-17 ) ) ;
#91 = FACE_OUTER_BOUND ( 'NONE', #244, .T. ) ;
#92 = CARTESIAN_POINT ( 'NONE',  ( -0.2212204999999994870, 0.0000000000000000000, 5.905511999999999873 ) ) ;
#93 = AXIS2_PLACEMENT_3D ( 'NONE', #50, #232, #1 ) ;
#94 = DIRECTION ( 'NONE',  ( -1.000000000000000000, 0.0000000000000000000, 0.0000000000000000000 ) ) ;
#95 = DIRECTION ( 'NONE',  ( -1.224646799147353207E-16, -0.0000000000000000000, -1.000000000000000000 ) ) ;
#96 = PRODUCT ( 'Micro_SFPM-120-20', 'Micro_SFPM-120-20', '', ( #267 ) ) ;
#97 = PRODUCT_RELATED_PRODUCT_CATEGORY ( 'part', '', ( #96 ) ) ;
#98 = DIRECTION ( 'NONE',  ( 0.0000000000000000000, 0.0000000000000000000, -1.000000000000000000 ) ) ;
#99 = ORIENTED_EDGE ( 'NONE', *, *, #257, .F. ) ;
#100 = CARTESIAN_POINT ( 'NONE',  ( -0.2362204999999999999, 0.0000000000000000000, 5.890511999999999304 ) ) ;
#101 = PRESENTATION_LAYER_ASSIGNMENT (  '', '', ( #22 ) ) ;
#102 = LENGTH_MEASURE_WITH_UNIT ( LENGTH_MEASURE( 0.02539999999999999897 ), #5 );
#103 = ORIENTED_EDGE ( 'NONE', *, *, #61, .F. ) ;
#104 = FILL_AREA_STYLE ('',( #239 ) ) ;
#105 = ORIENTED_EDGE ( 'NONE', *, *, #124, .F. ) ;
#106 = ORIENTED_EDGE ( 'NONE', *, *, #78, .F. ) ;
#107 = CIRCLE ( 'NONE', #274, 0.2362204999999999999 ) ;
#108 = DIMENSIONAL_EXPONENTS ( 1.000000000000000000, 0.0000000000000000000, 0.0000000000000000000, 0.0000000000000000000, 0.0000000000000000000, 0.0000000000000000000, 0.0000000000000000000 ) ;
#109 = AXIS2_PLACEMENT_3D ( 'NONE', #110, #98, #113 ) ;
#110 = CARTESIAN_POINT ( 'NONE',  ( 0.0000000000000000000, 0.0000000000000000000, 5.890511999999999304 ) ) ;
#111 = CARTESIAN_POINT ( 'NONE',  ( 0.0000000000000000000, 0.0000000000000000000, 5.890511999999999304 ) ) ;
#112 = CARTESIAN_POINT ( 'NONE',  ( 0.2212204999999994870, 2.709169772307764217E-17, 5.905511999999999873 ) ) ;
#113 = DIRECTION ( 'NONE',  ( 1.000000000000000000, 0.0000000000000000000, 0.0000000000000000000 ) ) ;
#114 = EDGE_CURVE ( 'NONE', #31, #287, #72, .T. ) ;
#115 = CARTESIAN_POINT ( 'NONE',  ( 0.0000000000000000000, 0.0000000000000000000, 5.905511999999999873 ) ) ;
#116 = DIRECTION ( 'NONE',  ( -0.1736481776669312194, 2.126576849575783625E-17, 0.9848077530122077983 ) ) ;
#117 = CARTESIAN_POINT ( 'NONE',  ( 0.2359842795000001714, 0.0000000000000000000, 1.574802999999999953 ) ) ;
#118 = CARTESIAN_POINT ( 'NONE',  ( -0.2212204999999994870, 0.0000000000000000000, 5.905511999999999873 ) ) ;
#119 = VECTOR ( 'NONE', #133, 39.37007874015748143 ) ;
#120 = CIRCLE ( 'NONE', #161, 0.2359842795000000049 ) ;
#121 = SHAPE_DEFINITION_REPRESENTATION ( #236, #137 ) ;
#122 = CIRCLE ( 'NONE', #201, 0.2359842794999999771 ) ;
#123 = VERTEX_POINT ( 'NONE', #254 ) ;
#124 = EDGE_CURVE ( 'NONE', #77, #53, #282, .T. ) ;
#125 = ORIENTED_EDGE ( 'NONE', *, *, #141, .T. ) ;
#126 =( NAMED_UNIT ( * ) SI_UNIT ( $, .STERADIAN. ) SOLID_ANGLE_UNIT ( ) );
#127 = APPLICATION_CONTEXT ( 'automotive_design' ) ;
#128 = ORIENTED_EDGE ( 'NONE', *, *, #24, .F. ) ;
#129 =( NAMED_UNIT ( * ) PLANE_ANGLE_UNIT ( ) SI_UNIT ( $, .RADIAN. ) );
#130 = EDGE_CURVE ( 'NONE', #247, #199, #271, .T. ) ;
#131 = EDGE_LOOP ( 'NONE', ( #172, #105, #80, #284 ) ) ;
#132 = ORIENTED_EDGE ( 'NONE', *, *, #74, .F. ) ;
#133 = DIRECTION ( 'NONE',  ( -1.224646799147353207E-16, -0.0000000000000000000, -1.000000000000000000 ) ) ;
#134 =( GEOMETRIC_REPRESENTATION_CONTEXT ( 3 ) GLOBAL_UNCERTAINTY_ASSIGNED_CONTEXT ( ( #10 ) ) GLOBAL_UNIT_ASSIGNED_CONTEXT ( ( #182, #160, #41 ) ) REPRESENTATION_CONTEXT ( 'NONE', 'WORKASPACE' ) );
#135 = MANIFOLD_SOLID_BREP ( 'Cut-Revolve1', #89 ) ;
#136 = CARTESIAN_POINT ( 'NONE',  ( -0.2359842795000000049, 0.0000000000000000000, 5.779947850775387426E-17 ) ) ;
#137 = ADVANCED_BREP_SHAPE_REPRESENTATION ( 'Micro_SFPM-120-20', ( #135, #87 ), #292 ) ;
#138 = CARTESIAN_POINT ( 'NONE',  ( 1.928577453237649374E-16, 0.0000000000000000000, 1.574802999999999953 ) ) ;
#139 = VECTOR ( 'NONE', #272, 39.37007874015748143 ) ;
#140 = DIRECTION ( 'NONE',  ( -1.224646799147353207E-16, -0.0000000000000000000, -1.000000000000000000 ) ) ;
#141 = EDGE_CURVE ( 'NONE', #199, #7, #189, .T. ) ;
#142 = DIRECTION ( 'NONE',  ( -1.000000000000000000, 0.0000000000000000000, 0.0000000000000000000 ) ) ;
#143 = AXIS2_PLACEMENT_3D ( 'NONE', #90, #44, #20 ) ;
#144 = FACE_OUTER_BOUND ( 'NONE', #220, .T. ) ;
#145 = STYLED_ITEM ( 'NONE', ( #8 ), #137 ) ;
#146 = LINE ( 'NONE', #3, #35 ) ;
#147 = DIRECTION ( 'NONE',  ( 1.224646799147353207E-16, 0.0000000000000000000, 1.000000000000000000 ) ) ;
#148 =( LENGTH_UNIT ( ) NAMED_UNIT ( * ) SI_UNIT ( $, .METRE. ) );
#149 = ORIENTED_EDGE ( 'NONE', *, *, #74, .T. ) ;
#150 = PRODUCT_DEFINITION ( 'UNKNOWN', '', #255, #193 ) ;
#151 = APPLICATION_PROTOCOL_DEFINITION ( 'draft international standard', 'automotive_design', 1998, #45 ) ;
#152 = ORIENTED_EDGE ( 'NONE', *, *, #130, .T. ) ;
#153 = ORIENTED_EDGE ( 'NONE', *, *, #19, .T. ) ;
#154 = EDGE_LOOP ( 'NONE', ( #268, #152, #242, #263 ) ) ;
#155 = COLOUR_RGB ( '',0.7921568627450980005, 0.8196078431372548767, 0.9333333333333333481 ) ;
#156 = VECTOR ( 'NONE', #262, 39.37007874015748143 ) ;
#157 = SURFACE_SIDE_STYLE ('',( #12 ) ) ;
#158 = ORIENTED_EDGE ( 'NONE', *, *, #66, .T. ) ;
#159 = CARTESIAN_POINT ( 'NONE',  ( 0.0000000000000000000, 0.0000000000000000000, 5.905511999999999873 ) ) ;
#160 =( NAMED_UNIT ( * ) PLANE_ANGLE_UNIT ( ) SI_UNIT ( $, .RADIAN. ) );
#161 = AXIS2_PLACEMENT_3D ( 'NONE', #29, #188, #168 ) ;
#162 = FILL_AREA_STYLE_COLOUR ( '', #155 ) ;
#163 = PLANE ( 'NONE',  #180 ) ;
#164 = EDGE_CURVE ( 'NONE', #266, #7, #192, .T. ) ;
#165 = LENGTH_MEASURE_WITH_UNIT ( LENGTH_MEASURE( 0.02539999999999999897 ), #252 );
#166 = PLANE ( 'NONE',  #202 ) ;
#167 = DIRECTION ( 'NONE',  ( -1.224646799147353207E-16, -0.0000000000000000000, -1.000000000000000000 ) ) ;
#168 = DIRECTION ( 'NONE',  ( -1.000000000000000000, 0.0000000000000000000, 1.224646799147353207E-16 ) ) ;
#169 = DIRECTION ( 'NONE',  ( -0.7071067811865410224, 0.0000000000000000000, -0.7071067811865539010 ) ) ;
#170 = CARTESIAN_POINT ( 'NONE',  ( 0.0000000000000000000, 0.0000000000000000000, 5.905511999999999873 ) ) ;
#171 = DIRECTION ( 'NONE',  ( 1.000000000000000000, 0.0000000000000000000, 0.0000000000000000000 ) ) ;
#172 = ORIENTED_EDGE ( 'NONE', *, *, #195, .F. ) ;
#173 = DIRECTION ( 'NONE',  ( -1.000000000000000000, 0.0000000000000000000, 0.0000000000000000000 ) ) ;
#174 = CONICAL_SURFACE ( 'NONE', #246, 0.2212204999999994870, 0.7853981633974391752 ) ;
#175 = UNCERTAINTY_MEASURE_WITH_UNIT (LENGTH_MEASURE( 1.000000000000000082E-05 ), #241, 'distance_accuracy_value', 'NONE');
#176 = CARTESIAN_POINT ( 'NONE',  ( 0.0000000000000000000, 0.0000000000000000000, 0.0000000000000000000 ) ) ;
#177 = EDGE_LOOP ( 'NONE', ( #14, #240, #223, #197 ) ) ;
#178 = DIRECTION ( 'NONE',  ( 0.0000000000000000000, 0.0000000000000000000, 1.000000000000000000 ) ) ;
#179 = ORIENTED_EDGE ( 'NONE', *, *, #243, .T. ) ;
#180 = AXIS2_PLACEMENT_3D ( 'NONE', #227, #295, #205 ) ;
#181 = CONICAL_SURFACE ( 'NONE', #286, 0.2359842794999999771, 0.1745329251994339470 ) ;
#182 =( CONVERSION_BASED_UNIT ( 'INCH', #165 ) LENGTH_UNIT ( ) NAMED_UNIT ( #62 ) );
#183 = ADVANCED_FACE ( 'NONE', ( #209 ), #54, .T. ) ;
#184 = DIRECTION ( 'NONE',  ( -1.224646799147353207E-16, -0.0000000000000000000, -1.000000000000000000 ) ) ;
#185 = LINE ( 'NONE', #273, #119 ) ;
#186 = DIRECTION ( 'NONE',  ( -0.0000000000000000000, -0.0000000000000000000, -1.000000000000000000 ) ) ;
#187 = SURFACE_STYLE_FILL_AREA ( #83 ) ;
#188 = DIRECTION ( 'NONE',  ( -1.224646799147353207E-16, -0.0000000000000000000, -1.000000000000000000 ) ) ;
#189 = CIRCLE ( 'NONE', #109, 0.2362204999999999999 ) ;
#190 = CYLINDRICAL_SURFACE ( 'NONE', #206, 0.2362204999999999999 ) ;
#191 = CARTESIAN_POINT ( 'NONE',  ( 1.930218079522155973E-16, 0.0000000000000000000, 1.576142673027071117 ) ) ;
#192 = LINE ( 'NONE', #118, #82 ) ;
#193 = PRODUCT_DEFINITION_CONTEXT ( 'detailed design', #127, 'design' ) ;
#194 = ORIENTED_EDGE ( 'NONE', *, *, #39, .F. ) ;
#195 = EDGE_CURVE ( 'NONE', #53, #36, #146, .T. ) ;
#196 = ORIENTED_EDGE ( 'NONE', *, *, #6, .T. ) ;
#197 = ORIENTED_EDGE ( 'NONE', *, *, #216, .F. ) ;
#198 = SURFACE_STYLE_USAGE ( .BOTH. , #157 ) ;
#199 = VERTEX_POINT ( 'NONE', #281 ) ;
#200 = DIRECTION ( 'NONE',  ( 0.0000000000000000000, 0.0000000000000000000, -1.000000000000000000 ) ) ;
#201 = AXIS2_PLACEMENT_3D ( 'NONE', #217, #76, #173 ) ;
#202 = AXIS2_PLACEMENT_3D ( 'NONE', #256, #213, #47 ) ;
#203 = ADVANCED_FACE ( 'NONE', ( #144 ), #215, .T. ) ;
#204 = CYLINDRICAL_SURFACE ( 'NONE', #16, 0.2362204999999999999 ) ;
#205 = DIRECTION ( 'NONE',  ( 1.000000000000000000, 0.0000000000000000000, -0.0000000000000000000 ) ) ;
#206 = AXIS2_PLACEMENT_3D ( 'NONE', #51, #69, #94 ) ;
#207 = CARTESIAN_POINT ( 'NONE',  ( -0.2362204999999999999, 0.0000000000000000000, 5.905511999999999873 ) ) ;
#208 = CARTESIAN_POINT ( 'NONE',  ( 1.928577453237649374E-16, 0.0000000000000000000, 1.574802999999999953 ) ) ;
#209 = FACE_OUTER_BOUND ( 'NONE', #285, .T. ) ;
#210 = VECTOR ( 'NONE', #186, 39.37007874015748143 ) ;
#211 = MECHANICAL_DESIGN_GEOMETRIC_PRESENTATION_REPRESENTATION (  '', ( #22 ), #134 ) ;
#212 = ADVANCED_FACE ( 'NONE', ( #71 ), #190, .T. ) ;
#213 = DIRECTION ( 'NONE',  ( 0.0000000000000000000, 0.0000000000000000000, 1.000000000000000000 ) ) ;
#214 = CARTESIAN_POINT ( 'NONE',  ( 0.2212204999999994870, 2.801018282243818894E-17, 5.905511999999999873 ) ) ;
#215 = CYLINDRICAL_SURFACE ( 'NONE', #93, 0.2359842794999999771 ) ;
#216 = EDGE_CURVE ( 'NONE', #77, #123, #28, .T. ) ;
#217 = CARTESIAN_POINT ( 'NONE',  ( 1.928577453237649374E-16, 0.0000000000000000000, 1.574802999999999953 ) ) ;
#218 = EDGE_LOOP ( 'NONE', ( #149, #179 ) ) ;
#219 = AXIS2_PLACEMENT_3D ( 'NONE', #138, #140, #23 ) ;
#220 = EDGE_LOOP ( 'NONE', ( #103, #9, #153, #13 ) ) ;
#221 = MECHANICAL_DESIGN_GEOMETRIC_PRESENTATION_REPRESENTATION (  '', ( #145 ), #260 ) ;
#222 = ORIENTED_EDGE ( 'NONE', *, *, #130, .F. ) ;
#223 = ORIENTED_EDGE ( 'NONE', *, *, #78, .T. ) ;
#224 = ADVANCED_FACE ( 'NONE', ( #261 ), #275, .T. ) ;
#225 = FACE_OUTER_BOUND ( 'NONE', #218, .T. ) ;
#226 = AXIS2_PLACEMENT_3D ( 'NONE', #48, #235, #142 ) ;
#227 = CARTESIAN_POINT ( 'NONE',  ( 0.0000000000000000000, 0.0000000000000000000, 5.905511999999999873 ) ) ;
#228 = CARTESIAN_POINT ( 'NONE',  ( 0.0000000000000000000, 0.0000000000000000000, 5.905511999999999873 ) ) ;
#229 = DIMENSIONAL_EXPONENTS ( 1.000000000000000000, 0.0000000000000000000, 0.0000000000000000000, 0.0000000000000000000, 0.0000000000000000000, 0.0000000000000000000, 0.0000000000000000000 ) ;
#230 = DIRECTION ( 'NONE',  ( 1.000000000000000000, 0.0000000000000000000, 0.0000000000000000000 ) ) ;
#231 = LINE ( 'NONE', #25, #210 ) ;
#232 = DIRECTION ( 'NONE',  ( -1.224646799147353207E-16, -0.0000000000000000000, -1.000000000000000000 ) ) ;
#233 = CYLINDRICAL_SURFACE ( 'NONE', #64, 0.2359842794999999771 ) ;
#234 = COLOUR_RGB ( '',0.7921568627450980005, 0.8196078431372548767, 0.9333333333333333481 ) ;
#235 = DIRECTION ( 'NONE',  ( 0.0000000000000000000, 0.0000000000000000000, -1.000000000000000000 ) ) ;
#236 = PRODUCT_DEFINITION_SHAPE ( 'NONE', 'NONE',  #150 ) ;
#237 = FACE_OUTER_BOUND ( 'NONE', #154, .T. ) ;
#238 = AXIS2_PLACEMENT_3D ( 'NONE', #111, #200, #88 ) ;
#239 = FILL_AREA_STYLE_COLOUR ( '', #234 ) ;
#240 = ORIENTED_EDGE ( 'NONE', *, *, #195, .T. ) ;
#241 =( CONVERSION_BASED_UNIT ( 'INCH', #102 ) LENGTH_UNIT ( ) NAMED_UNIT ( #108 ) );
#242 = ORIENTED_EDGE ( 'NONE', *, *, #66, .F. ) ;
#243 = EDGE_CURVE ( 'NONE', #247, #266, #17, .T. ) ;
#244 = EDGE_LOOP ( 'NONE', ( #196, #249, #60, #290 ) ) ;
#245 = LENGTH_MEASURE_WITH_UNIT ( LENGTH_MEASURE( 0.02539999999999999897 ), #148 );
#246 = AXIS2_PLACEMENT_3D ( 'NONE', #170, #259, #2 ) ;
#247 = VERTEX_POINT ( 'NONE', #214 ) ;
#248 = ADVANCED_FACE ( 'NONE', ( #237 ), #174, .T. ) ;
#249 = ORIENTED_EDGE ( 'NONE', *, *, #61, .T. ) ;
#250 = PRESENTATION_STYLE_ASSIGNMENT (( #294 ) ) ;
#251 = ADVANCED_FACE ( 'NONE', ( #91 ), #233, .T. ) ;
#252 =( LENGTH_UNIT ( ) NAMED_UNIT ( * ) SI_UNIT ( $, .METRE. ) );
#253 = LINE ( 'NONE', #207, #139 ) ;
#254 = CARTESIAN_POINT ( 'NONE',  ( 0.2362205000000002220, 2.892866792179876344E-17, 1.576142673027071117 ) ) ;
#255 = PRODUCT_DEFINITION_FORMATION_WITH_SPECIFIED_SOURCE ( 'ANY', '', #96, .NOT_KNOWN. ) ;
#256 = CARTESIAN_POINT ( 'NONE',  ( 0.0000000000000000000, 0.0000000000000000000, 0.0000000000000000000 ) ) ;
#257 = EDGE_CURVE ( 'NONE', #123, #36, #4, .T. ) ;
#258 = FACE_OUTER_BOUND ( 'NONE', #131, .T. ) ;
#259 = DIRECTION ( 'NONE',  ( 0.0000000000000000000, 0.0000000000000000000, -1.000000000000000000 ) ) ;
#260 =( GEOMETRIC_REPRESENTATION_CONTEXT ( 3 ) GLOBAL_UNCERTAINTY_ASSIGNED_CONTEXT ( ( #32 ) ) GLOBAL_UNIT_ASSIGNED_CONTEXT ( ( #79, #30, #55 ) ) REPRESENTATION_CONTEXT ( 'NONE', 'WORKASPACE' ) );
#261 = FACE_OUTER_BOUND ( 'NONE', #177, .T. ) ;
#262 = DIRECTION ( 'NONE',  ( 0.1736481776669314414, 0.0000000000000000000, 0.9848077530122077983 ) ) ;
#263 = ORIENTED_EDGE ( 'NONE', *, *, #164, .F. ) ;
#264 = LINE ( 'NONE', #33, #67 ) ;
#265 = ADVANCED_FACE ( 'NONE', ( #258 ), #181, .T. ) ;
#266 = VERTEX_POINT ( 'NONE', #92 ) ;
#267 = PRODUCT_CONTEXT ( 'NONE', #45, 'mechanical' ) ;
#268 = ORIENTED_EDGE ( 'NONE', *, *, #243, .F. ) ;
#269 = EDGE_CURVE ( 'NONE', #287, #31, #120, .T. ) ;
#270 = ORIENTED_EDGE ( 'NONE', *, *, #269, .T. ) ;
#271 = LINE ( 'NONE', #112, #86 ) ;
#272 = DIRECTION ( 'NONE',  ( -0.0000000000000000000, -0.0000000000000000000, -1.000000000000000000 ) ) ;
#273 = CARTESIAN_POINT ( 'NONE',  ( 0.2359842794999999771, 2.889973925387693713E-17, -2.889973925387693713E-17 ) ) ;
#274 = AXIS2_PLACEMENT_3D ( 'NONE', #293, #184, #230 ) ;
#275 = CONICAL_SURFACE ( 'NONE', #299, 0.2359842794999999771, 0.1745329251994339470 ) ;
#276 = SURFACE_SIDE_STYLE ('',( #187 ) ) ;
#277 = CARTESIAN_POINT ( 'NONE',  ( -0.2359842794999997828, 2.891420358783783796E-17, 1.574802999999999953 ) ) ;
#278 = CARTESIAN_POINT ( 'NONE',  ( 0.2359842795000000326, 2.889973925387694330E-17, -7.582401355855259480E-33 ) ) ;
#279 = DIRECTION ( 'NONE',  ( 1.000000000000000000, 0.0000000000000000000, 0.0000000000000000000 ) ) ;
#280 = DIRECTION ( 'NONE',  ( 1.224646799147353207E-16, 0.0000000000000000000, 1.000000000000000000 ) ) ;
#281 = CARTESIAN_POINT ( 'NONE',  ( 0.2362204999999999999, 2.892866792179873879E-17, 5.890511999999999304 ) ) ;
#282 = CIRCLE ( 'NONE', #219, 0.2359842794999999771 ) ;
#283 = DIRECTION ( 'NONE',  ( 1.000000000000000000, 0.0000000000000000000, 0.0000000000000000000 ) ) ;
#284 = ORIENTED_EDGE ( 'NONE', *, *, #257, .T. ) ;
#285 = EDGE_LOOP ( 'NONE', ( #222, #132, #288, #57 ) ) ;
#286 = AXIS2_PLACEMENT_3D ( 'NONE', #26, #147, #297 ) ;
#287 = VERTEX_POINT ( 'NONE', #278 ) ;
#288 = ORIENTED_EDGE ( 'NONE', *, *, #164, .T. ) ;
#289 = ADVANCED_FACE ( 'NONE', ( #68 ), #166, .F. ) ;
#290 = ORIENTED_EDGE ( 'NONE', *, *, #19, .F. ) ;
#291 = CIRCLE ( 'NONE', #238, 0.2362204999999999999 ) ;
#292 =( GEOMETRIC_REPRESENTATION_CONTEXT ( 3 ) GLOBAL_UNCERTAINTY_ASSIGNED_CONTEXT ( ( #175 ) ) GLOBAL_UNIT_ASSIGNED_CONTEXT ( ( #241, #129, #126 ) ) REPRESENTATION_CONTEXT ( 'NONE', 'WORKASPACE' ) );
#293 = CARTESIAN_POINT ( 'NONE',  ( 1.930218079522155973E-16, 0.0000000000000000000, 1.576142673027071117 ) ) ;
#294 = SURFACE_STYLE_USAGE ( .BOTH. , #276 ) ;
#295 = DIRECTION ( 'NONE',  ( 0.0000000000000000000, 0.0000000000000000000, 1.000000000000000000 ) ) ;
#296 = CARTESIAN_POINT ( 'NONE',  ( -0.2362204999999998056, 0.0000000000000000000, 1.576142673027071117 ) ) ;
#297 = DIRECTION ( 'NONE',  ( 1.000000000000000000, 0.0000000000000000000, 0.0000000000000000000 ) ) ;
#298 = DIRECTION ( 'NONE',  ( -1.000000000000000000, 0.0000000000000000000, 1.224646799147353454E-16 ) ) ;
#299 = AXIS2_PLACEMENT_3D ( 'NONE', #208, #280, #283 ) ;
ENDSEC;
END-ISO-10303-21;
