ISO-10303-21;
HEADER;
FILE_DESCRIPTION (( 'STEP AP214' ),
    '1' );
FILE_NAME ('44152W.STEP',
    '2023-06-22T19:27:57',
    ( '' ),
    ( '' ),
    'SwSTEP 2.0',
    'SolidWorks 2023',
    '' );
FILE_SCHEMA (( 'AUTOMOTIVE_DESIGN' ));
ENDSEC;

DATA;
#1 = DIMENSIONAL_EXPONENTS ( 1.000000000000000000, 0.000000000000000000, 0.000000000000000000, 0.000000000000000000, 0.000000000000000000, 0.000000000000000000, 0.000000000000000000 ) ;
#2 = FACE_OUTER_BOUND ( 'NONE', #200, .T. ) ;
#3 = AXIS2_PLACEMENT_3D ( 'NONE', #157, #99, #173 ) ;
#4 = DIRECTION ( 'NONE',  ( -3.061616997868386099E-17, 1.000000000000000000, -0.000000000000000000 ) ) ;
#5 =( LENGTH_UNIT ( ) NAMED_UNIT ( * ) SI_UNIT ( $, .METRE. ) );
#6 = VECTOR ( 'NONE', #38, 39.37007874015748143 ) ;
#7 = CIRCLE ( 'NONE', #292, 0.1250000000000000000 ) ;
#8 = APPLICATION_PROTOCOL_DEFINITION ( 'draft international standard', 'automotive_design', 1998, #156 ) ;
#9 = EDGE_CURVE ( 'NONE', #215, #273, #20, .T. ) ;
#10 = LENGTH_MEASURE_WITH_UNIT ( LENGTH_MEASURE( 0.02539999999999999897 ), #251 );
#11 =( NAMED_UNIT ( * ) SI_UNIT ( $, .STERADIAN. ) SOLID_ANGLE_UNIT ( ) );
#12 = PRESENTATION_LAYER_ASSIGNMENT (  '', '', ( #242 ) ) ;
#13 = ORIENTED_EDGE ( 'NONE', *, *, #30, .F. ) ;
#14 =( NAMED_UNIT ( * ) PLANE_ANGLE_UNIT ( ) SI_UNIT ( $, .RADIAN. ) );
#15 = DIRECTION ( 'NONE',  ( -3.061616997868386099E-17, 1.000000000000000000, -0.000000000000000000 ) ) ;
#16 = ORIENTED_EDGE ( 'NONE', *, *, #279, .T. ) ;
#17 =( NAMED_UNIT ( * ) PLANE_ANGLE_UNIT ( ) SI_UNIT ( $, .RADIAN. ) );
#18 = PRESENTATION_LAYER_ASSIGNMENT (  '', '', ( #197 ) ) ;
#19 = SURFACE_SIDE_STYLE ('',( #265 ) ) ;
#20 = CIRCLE ( 'NONE', #86, 0.1250000000000000000 ) ;
#21 = COLOUR_RGB ( '',1.000000000000000000, 0.000000000000000000, 0.000000000000000000 ) ;
#22 = EDGE_LOOP ( 'NONE', ( #250, #107 ) ) ;
#23 =( NAMED_UNIT ( * ) PLANE_ANGLE_UNIT ( ) SI_UNIT ( $, .RADIAN. ) );
#24 = EDGE_CURVE ( 'NONE', #309, #29, #220, .T. ) ;
#25 = VECTOR ( 'NONE', #150, 39.37007874015748143 ) ;
#26 = CARTESIAN_POINT ( 'NONE',  ( 0.000000000000000000, 0.000000000000000000, 0.000000000000000000 ) ) ;
#27 = PLANE ( 'NONE',  #161 ) ;
#28 = FILL_AREA_STYLE ('',( #208 ) ) ;
#29 = VERTEX_POINT ( 'NONE', #44 ) ;
#30 = EDGE_CURVE ( 'NONE', #114, #239, #196, .T. ) ;
#31 = ORIENTED_EDGE ( 'NONE', *, *, #199, .T. ) ;
#32 = SURFACE_STYLE_FILL_AREA ( #28 ) ;
#33 = PRESENTATION_LAYER_ASSIGNMENT (  '', '', ( #286 ) ) ;
#34 = SURFACE_STYLE_USAGE ( .BOTH. , #119 ) ;
#35 = VERTEX_POINT ( 'NONE', #260 ) ;
#36 =( LENGTH_UNIT ( ) NAMED_UNIT ( * ) SI_UNIT ( $, .METRE. ) );
#37 = SURFACE_STYLE_FILL_AREA ( #179 ) ;
#38 = DIRECTION ( 'NONE',  ( -0.000000000000000000, -1.000000000000000000, -0.000000000000000000 ) ) ;
#39 = AXIS2_PLACEMENT_3D ( 'NONE', #228, #136, #110 ) ;
#40 =( LENGTH_UNIT ( ) NAMED_UNIT ( * ) SI_UNIT ( $, .METRE. ) );
#41 = FILL_AREA_STYLE_COLOUR ( '', #225 ) ;
#42 = ORIENTED_EDGE ( 'NONE', *, *, #113, .F. ) ;
#43 = FILL_AREA_STYLE ('',( #97 ) ) ;
#44 = CARTESIAN_POINT ( 'NONE',  ( -0.1250000000000001388, 3.000000000000000444, 0.000000000000000000 ) ) ;
#45 = LENGTH_MEASURE_WITH_UNIT ( LENGTH_MEASURE( 0.02539999999999999897 ), #258 );
#46 = PRODUCT_DEFINITION ( 'UNKNOWN', '', #237, #163 ) ;
#47 = PRESENTATION_LAYER_ASSIGNMENT (  '', '', ( #266 ) ) ;
#48 =( LENGTH_UNIT ( ) NAMED_UNIT ( * ) SI_UNIT ( $, .METRE. ) );
#49 = MECHANICAL_DESIGN_GEOMETRIC_PRESENTATION_REPRESENTATION (  '', ( #266 ), #291 ) ;
#50 = LENGTH_MEASURE_WITH_UNIT ( LENGTH_MEASURE( 0.02539999999999999897 ), #48 );
#51 = CARTESIAN_POINT ( 'NONE',  ( 0.000000000000000000, 0.000000000000000000, 0.000000000000000000 ) ) ;
#52 = EDGE_CURVE ( 'NONE', #215, #309, #191, .T. ) ;
#53 = ORIENTED_EDGE ( 'NONE', *, *, #96, .T. ) ;
#54 =( NAMED_UNIT ( * ) PLANE_ANGLE_UNIT ( ) SI_UNIT ( $, .RADIAN. ) );
#55 = EDGE_CURVE ( 'NONE', #192, #239, #223, .T. ) ;
#56 =( NAMED_UNIT ( * ) PLANE_ANGLE_UNIT ( ) SI_UNIT ( $, .RADIAN. ) );
#57 = ORIENTED_EDGE ( 'NONE', *, *, #52, .T. ) ;
#58 = SURFACE_STYLE_USAGE ( .BOTH. , #301 ) ;
#59 = COLOUR_RGB ( '',0.7921568627450980005, 0.8196078431372548767, 0.9333333333333333481 ) ;
#60 = PRESENTATION_STYLE_ASSIGNMENT (( #58 ) ) ;
#61 = SURFACE_STYLE_FILL_AREA ( #233 ) ;
#62 = EDGE_LOOP ( 'NONE', ( #296, #143 ) ) ;
#63 =( NAMED_UNIT ( * ) SI_UNIT ( $, .STERADIAN. ) SOLID_ANGLE_UNIT ( ) );
#64 = ADVANCED_FACE ( 'NONE', ( #71 ), #267, .T. ) ;
#65 = EDGE_LOOP ( 'NONE', ( #141, #131, #294, #13 ) ) ;
#66 =( LENGTH_UNIT ( ) NAMED_UNIT ( * ) SI_UNIT ( $, .METRE. ) );
#67 = DIRECTION ( 'NONE',  ( -0.000000000000000000, -1.000000000000000000, -0.000000000000000000 ) ) ;
#68 = FACE_OUTER_BOUND ( 'NONE', #62, .T. ) ;
#69 = DIRECTION ( 'NONE',  ( -3.061616997868386099E-17, 1.000000000000000000, -0.000000000000000000 ) ) ;
#70 = SURFACE_STYLE_FILL_AREA ( #216 ) ;
#71 = FACE_OUTER_BOUND ( 'NONE', #212, .T. ) ;
#72 = DIMENSIONAL_EXPONENTS ( 1.000000000000000000, 0.000000000000000000, 0.000000000000000000, 0.000000000000000000, 0.000000000000000000, 0.000000000000000000, 0.000000000000000000 ) ;
#73 = CARTESIAN_POINT ( 'NONE',  ( -0.1250000000000001110, 3.000000000000000444, 0.000000000000000000 ) ) ;
#74 = UNCERTAINTY_MEASURE_WITH_UNIT (LENGTH_MEASURE( 1.000000000000000082E-05 ), #154, 'distance_accuracy_value', 'NONE');
#75 = ADVANCED_BREP_SHAPE_REPRESENTATION ( '44152W', ( #98, #303, #100 ), #102 ) ;
#76 = DIRECTION ( 'NONE',  ( -0.000000000000000000, -1.000000000000000000, -0.000000000000000000 ) ) ;
#77 = CIRCLE ( 'NONE', #175, 0.1250000000000000278 ) ;
#78 = AXIS2_PLACEMENT_3D ( 'NONE', #198, #155, #129 ) ;
#79 = CARTESIAN_POINT ( 'NONE',  ( 0.000000000000000000, 1.000000000000000000, 0.000000000000000000 ) ) ;
#80 = PLANE ( 'NONE',  #3 ) ;
#81 = CARTESIAN_POINT ( 'NONE',  ( 7.582401355855259480E-33, 1.000000000000000000, 0.000000000000000000 ) ) ;
#82 = SURFACE_STYLE_USAGE ( .BOTH. , #272 ) ;
#83 = DIRECTION ( 'NONE',  ( 0.000000000000000000, -1.000000000000000000, -0.000000000000000000 ) ) ;
#84 = CARTESIAN_POINT ( 'NONE',  ( 0.000000000000000000, 0.000000000000000000, -0.1250000000000000278 ) ) ;
#85 = DIRECTION ( 'NONE',  ( 0.000000000000000000, 0.000000000000000000, -1.000000000000000000 ) ) ;
#86 = AXIS2_PLACEMENT_3D ( 'NONE', #170, #93, #118 ) ;
#87 =( CONVERSION_BASED_UNIT ( 'INCH', #138 ) LENGTH_UNIT ( ) NAMED_UNIT ( #1 ) );
#88 = ADVANCED_FACE ( 'NONE', ( #249 ), #222, .F. ) ;
#89 =( CONVERSION_BASED_UNIT ( 'INCH', #45 ) LENGTH_UNIT ( ) NAMED_UNIT ( #176 ) );
#90 = DIRECTION ( 'NONE',  ( 1.000000000000000000, 3.061616997868386099E-17, 0.000000000000000000 ) ) ;
#91 = SURFACE_SIDE_STYLE ('',( #187 ) ) ;
#92 = DIRECTION ( 'NONE',  ( -3.061616997868386099E-17, 1.000000000000000000, -0.000000000000000000 ) ) ;
#93 = DIRECTION ( 'NONE',  ( -3.061616997868386099E-17, 1.000000000000000000, -0.000000000000000000 ) ) ;
#94 = AXIS2_PLACEMENT_3D ( 'NONE', #106, #295, #90 ) ;
#95 = DIMENSIONAL_EXPONENTS ( 1.000000000000000000, 0.000000000000000000, 0.000000000000000000, 0.000000000000000000, 0.000000000000000000, 0.000000000000000000, 0.000000000000000000 ) ;
#96 = EDGE_CURVE ( 'NONE', #35, #114, #183, .T. ) ;
#97 = FILL_AREA_STYLE_COLOUR ( '', #278 ) ;
#98 = MANIFOLD_SOLID_BREP ( 'Revolve - Cutting Edge', #226 ) ;
#99 = DIRECTION ( 'NONE',  ( -3.061616997868386099E-17, 1.000000000000000000, 0.000000000000000000 ) ) ;
#100 = AXIS2_PLACEMENT_3D ( 'NONE', #134, #232, #211 ) ;
#101 = CLOSED_SHELL ( 'NONE', ( #195, #153, #64, #88 ) ) ;
#102 =( GEOMETRIC_REPRESENTATION_CONTEXT ( 3 ) GLOBAL_UNCERTAINTY_ASSIGNED_CONTEXT ( ( #104 ) ) GLOBAL_UNIT_ASSIGNED_CONTEXT ( ( #89, #23, #304 ) ) REPRESENTATION_CONTEXT ( 'NONE', 'WORKASPACE' ) );
#103 = FACE_OUTER_BOUND ( 'NONE', #240, .T. ) ;
#104 = UNCERTAINTY_MEASURE_WITH_UNIT (LENGTH_MEASURE( 1.000000000000000082E-05 ), #89, 'distance_accuracy_value', 'NONE');
#105 =( NAMED_UNIT ( * ) PLANE_ANGLE_UNIT ( ) SI_UNIT ( $, .RADIAN. ) );
#106 = CARTESIAN_POINT ( 'NONE',  ( 0.1250000000000000000, 3.000000000000000444, 0.000000000000000000 ) ) ;
#107 = ORIENTED_EDGE ( 'NONE', *, *, #284, .F. ) ;
#108 = DIRECTION ( 'NONE',  ( -0.000000000000000000, -1.000000000000000000, -0.000000000000000000 ) ) ;
#109 = UNCERTAINTY_MEASURE_WITH_UNIT (LENGTH_MEASURE( 1.000000000000000082E-05 ), #210, 'distance_accuracy_value', 'NONE');
#110 = DIRECTION ( 'NONE',  ( 0.000000000000000000, 0.000000000000000000, -1.000000000000000000 ) ) ;
#111 = PRESENTATION_STYLE_ASSIGNMENT (( #34 ) ) ;
#112 = LENGTH_MEASURE_WITH_UNIT ( LENGTH_MEASURE( 0.02539999999999999897 ), #66 );
#113 = EDGE_CURVE ( 'NONE', #29, #309, #245, .T. ) ;
#114 = VERTEX_POINT ( 'NONE', #188 ) ;
#115 = DIRECTION ( 'NONE',  ( 0.000000000000000000, 0.000000000000000000, -1.000000000000000000 ) ) ;
#116 = SURFACE_STYLE_USAGE ( .BOTH. , #91 ) ;
#117 = ORIENTED_EDGE ( 'NONE', *, *, #207, .T. ) ;
#118 = DIRECTION ( 'NONE',  ( -1.000000000000000000, 0.000000000000000000, 0.000000000000000000 ) ) ;
#119 = SURFACE_SIDE_STYLE ('',( #61 ) ) ;
#120 =( GEOMETRIC_REPRESENTATION_CONTEXT ( 3 ) GLOBAL_UNCERTAINTY_ASSIGNED_CONTEXT ( ( #74 ) ) GLOBAL_UNIT_ASSIGNED_CONTEXT ( ( #154, #54, #11 ) ) REPRESENTATION_CONTEXT ( 'NONE', 'WORKASPACE' ) );
#121 = ORIENTED_EDGE ( 'NONE', *, *, #199, .F. ) ;
#122 = CARTESIAN_POINT ( 'NONE',  ( 0.000000000000000000, 1.000000000000000000, 0.000000000000000000 ) ) ;
#123 = MECHANICAL_DESIGN_GEOMETRIC_PRESENTATION_REPRESENTATION (  '', ( #286 ), #120 ) ;
#124 = CARTESIAN_POINT ( 'NONE',  ( -6.123233995736772199E-17, 3.000000000000000444, 0.000000000000000000 ) ) ;
#125 = DIMENSIONAL_EXPONENTS ( 1.000000000000000000, 0.000000000000000000, 0.000000000000000000, 0.000000000000000000, 0.000000000000000000, 0.000000000000000000, 0.000000000000000000 ) ;
#126 = STYLED_ITEM ( 'NONE', ( #60 ), #229 ) ;
#127 = CARTESIAN_POINT ( 'NONE',  ( 0.000000000000000000, 1.000000000000000000, -0.1250000000000000000 ) ) ;
#128 = DIMENSIONAL_EXPONENTS ( 1.000000000000000000, 0.000000000000000000, 0.000000000000000000, 0.000000000000000000, 0.000000000000000000, 0.000000000000000000, 0.000000000000000000 ) ;
#129 = DIRECTION ( 'NONE',  ( -1.000000000000000000, 0.000000000000000000, 0.000000000000000000 ) ) ;
#130 = STYLED_ITEM ( 'NONE', ( #166 ), #98 ) ;
#131 = ORIENTED_EDGE ( 'NONE', *, *, #284, .T. ) ;
#132 = CARTESIAN_POINT ( 'NONE',  ( -0.1250000000000000000, 1.000000000000000000, 0.000000000000000000 ) ) ;
#133 = AXIS2_PLACEMENT_3D ( 'NONE', #122, #144, #142 ) ;
#134 = CARTESIAN_POINT ( 'NONE',  ( 0.000000000000000000, 0.000000000000000000, 0.000000000000000000 ) ) ;
#135 =( GEOMETRIC_REPRESENTATION_CONTEXT ( 3 ) GLOBAL_UNCERTAINTY_ASSIGNED_CONTEXT ( ( #269 ) ) GLOBAL_UNIT_ASSIGNED_CONTEXT ( ( #213, #14, #186 ) ) REPRESENTATION_CONTEXT ( 'NONE', 'WORKASPACE' ) );
#136 = DIRECTION ( 'NONE',  ( -0.000000000000000000, -1.000000000000000000, -0.000000000000000000 ) ) ;
#137 = LENGTH_MEASURE_WITH_UNIT ( LENGTH_MEASURE( 0.02539999999999999897 ), #5 );
#138 = LENGTH_MEASURE_WITH_UNIT ( LENGTH_MEASURE( 0.02539999999999999897 ), #36 );
#139 =( CONVERSION_BASED_UNIT ( 'INCH', #10 ) LENGTH_UNIT ( ) NAMED_UNIT ( #125 ) );
#140 =( NAMED_UNIT ( * ) SI_UNIT ( $, .STERADIAN. ) SOLID_ANGLE_UNIT ( ) );
#141 = ORIENTED_EDGE ( 'NONE', *, *, #96, .F. ) ;
#142 = DIRECTION ( 'NONE',  ( 0.000000000000000000, -0.000000000000000000, 1.000000000000000000 ) ) ;
#143 = ORIENTED_EDGE ( 'NONE', *, *, #9, .F. ) ;
#144 = DIRECTION ( 'NONE',  ( 0.000000000000000000, 1.000000000000000000, 0.000000000000000000 ) ) ;
#145 = PRESENTATION_STYLE_ASSIGNMENT (( #308 ) ) ;
#146 = ORIENTED_EDGE ( 'NONE', *, *, #30, .T. ) ;
#147 = SURFACE_SIDE_STYLE ('',( #70 ) ) ;
#148 = CARTESIAN_POINT ( 'NONE',  ( -6.123233995736772199E-17, 3.000000000000000444, 0.000000000000000000 ) ) ;
#149 = ADVANCED_FACE ( 'NONE', ( #256 ), #259, .T. ) ;
#150 = DIRECTION ( 'NONE',  ( -3.061616997868386099E-17, 1.000000000000000000, -0.000000000000000000 ) ) ;
#151 = AXIS2_PLACEMENT_3D ( 'NONE', #168, #15, #253 ) ;
#152 =( GEOMETRIC_REPRESENTATION_CONTEXT ( 3 ) GLOBAL_UNCERTAINTY_ASSIGNED_CONTEXT ( ( #181 ) ) GLOBAL_UNIT_ASSIGNED_CONTEXT ( ( #139, #56, #299 ) ) REPRESENTATION_CONTEXT ( 'NONE', 'WORKASPACE' ) );
#153 = ADVANCED_FACE ( 'NONE', ( #68 ), #80, .F. ) ;
#154 =( CONVERSION_BASED_UNIT ( 'INCH', #50 ) LENGTH_UNIT ( ) NAMED_UNIT ( #95 ) );
#155 = DIRECTION ( 'NONE',  ( -3.061616997868386099E-17, 1.000000000000000000, -0.000000000000000000 ) ) ;
#156 = APPLICATION_CONTEXT ( 'automotive_design' ) ;
#157 = CARTESIAN_POINT ( 'NONE',  ( 5.858436651022893041E-35, 1.000000000000000000, 0.000000000000000000 ) ) ;
#158 = APPLICATION_CONTEXT ( 'automotive_design' ) ;
#159 = PRESENTATION_LAYER_ASSIGNMENT (  '', '', ( #130 ) ) ;
#160 = EDGE_LOOP ( 'NONE', ( #221, #248 ) ) ;
#161 = AXIS2_PLACEMENT_3D ( 'NONE', #298, #83, #115 ) ;
#162 = CARTESIAN_POINT ( 'NONE',  ( 1.530808498934191817E-17, 0.000000000000000000, 0.1250000000000000278 ) ) ;
#163 = PRODUCT_DEFINITION_CONTEXT ( 'detailed design', #156, 'design' ) ;
#164 = PRESENTATION_LAYER_ASSIGNMENT (  '', '', ( #126 ) ) ;
#165 = CARTESIAN_POINT ( 'NONE',  ( 0.000000000000000000, 0.000000000000000000, -0.1250000000000000278 ) ) ;
#166 = PRESENTATION_STYLE_ASSIGNMENT (( #116 ) ) ;
#167 =( GEOMETRIC_REPRESENTATION_CONTEXT ( 3 ) GLOBAL_UNCERTAINTY_ASSIGNED_CONTEXT ( ( #236 ) ) GLOBAL_UNIT_ASSIGNED_CONTEXT ( ( #87, #105, #290 ) ) REPRESENTATION_CONTEXT ( 'NONE', 'WORKASPACE' ) );
#168 = CARTESIAN_POINT ( 'NONE',  ( -6.123233995736772199E-17, 3.000000000000000444, 0.000000000000000000 ) ) ;
#169 = CARTESIAN_POINT ( 'NONE',  ( 0.1250000000000000278, 3.000000000000000444, 1.530808498934192125E-17 ) ) ;
#170 = CARTESIAN_POINT ( 'NONE',  ( 7.582401355855259480E-33, 1.000000000000000000, 0.000000000000000000 ) ) ;
#171 =( GEOMETRIC_REPRESENTATION_CONTEXT ( 3 ) GLOBAL_UNCERTAINTY_ASSIGNED_CONTEXT ( ( #109 ) ) GLOBAL_UNIT_ASSIGNED_CONTEXT ( ( #210, #218, #140 ) ) REPRESENTATION_CONTEXT ( 'NONE', 'WORKASPACE' ) );
#172 = DIMENSIONAL_EXPONENTS ( 1.000000000000000000, 0.000000000000000000, 0.000000000000000000, 0.000000000000000000, 0.000000000000000000, 0.000000000000000000, 0.000000000000000000 ) ;
#173 = DIRECTION ( 'NONE',  ( -1.000000000000000000, -3.061616997868386099E-17, 0.000000000000000000 ) ) ;
#174 = EDGE_CURVE ( 'NONE', #192, #35, #306, .T. ) ;
#175 = AXIS2_PLACEMENT_3D ( 'NONE', #26, #76, #178 ) ;
#176 = DIMENSIONAL_EXPONENTS ( 1.000000000000000000, 0.000000000000000000, 0.000000000000000000, 0.000000000000000000, 0.000000000000000000, 0.000000000000000000, 0.000000000000000000 ) ;
#177 = CYLINDRICAL_SURFACE ( 'NONE', #78, 0.1250000000000000278 ) ;
#178 = DIRECTION ( 'NONE',  ( 0.000000000000000000, 0.000000000000000000, -1.000000000000000000 ) ) ;
#179 = FILL_AREA_STYLE ('',( #280 ) ) ;
#180 = ORIENTED_EDGE ( 'NONE', *, *, #9, .T. ) ;
#181 = UNCERTAINTY_MEASURE_WITH_UNIT (LENGTH_MEASURE( 1.000000000000000082E-05 ), #139, 'distance_accuracy_value', 'NONE');
#182 = CARTESIAN_POINT ( 'NONE',  ( 0.000000000000000000, 1.000000000000000000, 0.000000000000000000 ) ) ;
#183 = LINE ( 'NONE', #162, #264 ) ;
#184 = AXIS2_PLACEMENT_3D ( 'NONE', #182, #108, #85 ) ;
#185 = FACE_OUTER_BOUND ( 'NONE', #22, .T. ) ;
#186 =( NAMED_UNIT ( * ) SI_UNIT ( $, .STERADIAN. ) SOLID_ANGLE_UNIT ( ) );
#187 = SURFACE_STYLE_FILL_AREA ( #238 ) ;
#188 = CARTESIAN_POINT ( 'NONE',  ( 1.530808498934192125E-17, 0.000000000000000000, 0.1250000000000000555 ) ) ;
#189 = DIRECTION ( 'NONE',  ( 0.000000000000000000, 0.000000000000000000, -1.000000000000000000 ) ) ;
#190 = CIRCLE ( 'NONE', #184, 0.1250000000000000000 ) ;
#191 = LINE ( 'NONE', #287, #285 ) ;
#192 = VERTEX_POINT ( 'NONE', #127 ) ;
#193 = DIRECTION ( 'NONE',  ( -3.061616997868386099E-17, 1.000000000000000000, -0.000000000000000000 ) ) ;
#194 = MECHANICAL_DESIGN_GEOMETRIC_PRESENTATION_REPRESENTATION (  '', ( #242 ), #167 ) ;
#195 = ADVANCED_FACE ( 'NONE', ( #103 ), #177, .T. ) ;
#196 = CIRCLE ( 'NONE', #288, 0.1250000000000000278 ) ;
#197 = STYLED_ITEM ( 'NONE', ( #243 ), #303 ) ;
#198 = CARTESIAN_POINT ( 'NONE',  ( -6.123233995736772199E-17, 3.000000000000000444, 0.000000000000000000 ) ) ;
#199 = EDGE_CURVE ( 'NONE', #239, #114, #77, .T. ) ;
#200 = EDGE_LOOP ( 'NONE', ( #31, #146 ) ) ;
#201 = PRESENTATION_STYLE_ASSIGNMENT (( #82 ) ) ;
#202 = MECHANICAL_DESIGN_GEOMETRIC_PRESENTATION_REPRESENTATION (  '', ( #130 ), #171 ) ;
#203 = COLOUR_RGB ( '',1.000000000000000000, 0.000000000000000000, 0.000000000000000000 ) ;
#204 = PRODUCT_CONTEXT ( 'NONE', #158, 'mechanical' ) ;
#205 = EDGE_LOOP ( 'NONE', ( #217, #53, #121, #297 ) ) ;
#206 = PRODUCT_DEFINITION_SHAPE ( 'NONE', 'NONE',  #46 ) ;
#207 = EDGE_CURVE ( 'NONE', #273, #29, #270, .T. ) ;
#208 = FILL_AREA_STYLE_COLOUR ( '', #203 ) ;
#209 =( CONVERSION_BASED_UNIT ( 'INCH', #137 ) LENGTH_UNIT ( ) NAMED_UNIT ( #128 ) );
#210 =( CONVERSION_BASED_UNIT ( 'INCH', #112 ) LENGTH_UNIT ( ) NAMED_UNIT ( #72 ) );
#211 = DIRECTION ( 'NONE',  ( 1.000000000000000000, 0.000000000000000000, 0.000000000000000000 ) ) ;
#212 = EDGE_LOOP ( 'NONE', ( #271, #180, #117, #302 ) ) ;
#213 =( CONVERSION_BASED_UNIT ( 'INCH', #307 ) LENGTH_UNIT ( ) NAMED_UNIT ( #172 ) );
#214 = PRODUCT_RELATED_PRODUCT_CATEGORY ( 'part', '', ( #244 ) ) ;
#215 = VERTEX_POINT ( 'NONE', #261 ) ;
#216 = FILL_AREA_STYLE ('',( #283 ) ) ;
#217 = ORIENTED_EDGE ( 'NONE', *, *, #174, .T. ) ;
#218 =( NAMED_UNIT ( * ) PLANE_ANGLE_UNIT ( ) SI_UNIT ( $, .RADIAN. ) );
#219 = AXIS2_PLACEMENT_3D ( 'NONE', #79, #293, #289 ) ;
#220 = CIRCLE ( 'NONE', #235, 0.1250000000000000555 ) ;
#221 = ORIENTED_EDGE ( 'NONE', *, *, #113, .T. ) ;
#222 = PLANE ( 'NONE',  #94 ) ;
#223 = LINE ( 'NONE', #165, #6 ) ;
#224 = DIRECTION ( 'NONE',  ( -1.000000000000000000, 0.000000000000000000, 0.000000000000000000 ) ) ;
#225 = COLOUR_RGB ( '',1.000000000000000000, 0.000000000000000000, 0.000000000000000000 ) ;
#226 = CLOSED_SHELL ( 'NONE', ( #229, #300, #149, #227 ) ) ;
#227 = ADVANCED_FACE ( 'NONE', ( #2 ), #27, .T. ) ;
#228 = CARTESIAN_POINT ( 'NONE',  ( 0.000000000000000000, 0.000000000000000000, 0.000000000000000000 ) ) ;
#229 = ADVANCED_FACE ( 'NONE', ( #247 ), #275, .T. ) ;
#230 = DIRECTION ( 'NONE',  ( -1.000000000000000000, 0.000000000000000000, 0.000000000000000000 ) ) ;
#231 = MECHANICAL_DESIGN_GEOMETRIC_PRESENTATION_REPRESENTATION (  '', ( #126 ), #152 ) ;
#232 = DIRECTION ( 'NONE',  ( 0.000000000000000000, 0.000000000000000000, 1.000000000000000000 ) ) ;
#233 = FILL_AREA_STYLE ('',( #41 ) ) ;
#234 = PLANE ( 'NONE',  #133 ) ;
#235 = AXIS2_PLACEMENT_3D ( 'NONE', #124, #92, #254 ) ;
#236 = UNCERTAINTY_MEASURE_WITH_UNIT (LENGTH_MEASURE( 1.000000000000000082E-05 ), #87, 'distance_accuracy_value', 'NONE');
#237 = PRODUCT_DEFINITION_FORMATION_WITH_SPECIFIED_SOURCE ( 'ANY', '', #244, .NOT_KNOWN. ) ;
#238 = FILL_AREA_STYLE ('',( #277 ) ) ;
#239 = VERTEX_POINT ( 'NONE', #84 ) ;
#240 = EDGE_LOOP ( 'NONE', ( #16, #57, #42, #282 ) ) ;
#241 = AXIS2_PLACEMENT_3D ( 'NONE', #51, #246, #268 ) ;
#242 = STYLED_ITEM ( 'NONE', ( #111 ), #149 ) ;
#243 = PRESENTATION_STYLE_ASSIGNMENT (( #263 ) ) ;
#244 = PRODUCT ( '44152W', '44152W', '', ( #204 ) ) ;
#245 = CIRCLE ( 'NONE', #151, 0.1250000000000000555 ) ;
#246 = DIRECTION ( 'NONE',  ( -0.000000000000000000, -1.000000000000000000, -0.000000000000000000 ) ) ;
#247 = FACE_OUTER_BOUND ( 'NONE', #205, .T. ) ;
#248 = ORIENTED_EDGE ( 'NONE', *, *, #24, .T. ) ;
#249 = FACE_OUTER_BOUND ( 'NONE', #160, .T. ) ;
#250 = ORIENTED_EDGE ( 'NONE', *, *, #174, .F. ) ;
#251 =( LENGTH_UNIT ( ) NAMED_UNIT ( * ) SI_UNIT ( $, .METRE. ) );
#252 = COLOUR_RGB ( '',0.7921568627450980005, 0.8196078431372548767, 0.9333333333333333481 ) ;
#253 = DIRECTION ( 'NONE',  ( -1.000000000000000000, 0.000000000000000000, 0.000000000000000000 ) ) ;
#254 = DIRECTION ( 'NONE',  ( -1.000000000000000000, 0.000000000000000000, 0.000000000000000000 ) ) ;
#255 = APPLICATION_PROTOCOL_DEFINITION ( 'draft international standard', 'automotive_design', 1998, #158 ) ;
#256 = FACE_OUTER_BOUND ( 'NONE', #65, .T. ) ;
#257 = MECHANICAL_DESIGN_GEOMETRIC_PRESENTATION_REPRESENTATION (  '', ( #197 ), #135 ) ;
#258 =( LENGTH_UNIT ( ) NAMED_UNIT ( * ) SI_UNIT ( $, .METRE. ) );
#259 = CYLINDRICAL_SURFACE ( 'NONE', #241, 0.1250000000000000278 ) ;
#260 = CARTESIAN_POINT ( 'NONE',  ( 1.530808498934191817E-17, 1.000000000000000000, 0.1250000000000000000 ) ) ;
#261 = CARTESIAN_POINT ( 'NONE',  ( 0.1250000000000000278, 1.000000000000000000, 1.530808498934192125E-17 ) ) ;
#262 = CARTESIAN_POINT ( 'NONE',  ( 0.000000000000000000, 0.000000000000000000, 0.000000000000000000 ) ) ;
#263 = SURFACE_STYLE_USAGE ( .BOTH. , #147 ) ;
#264 = VECTOR ( 'NONE', #305, 39.37007874015748143 ) ;
#265 = SURFACE_STYLE_FILL_AREA ( #43 ) ;
#266 = STYLED_ITEM ( 'NONE', ( #201 ), #300 ) ;
#267 = CYLINDRICAL_SURFACE ( 'NONE', #276, 0.1250000000000000278 ) ;
#268 = DIRECTION ( 'NONE',  ( 0.000000000000000000, 0.000000000000000000, -1.000000000000000000 ) ) ;
#269 = UNCERTAINTY_MEASURE_WITH_UNIT (LENGTH_MEASURE( 1.000000000000000082E-05 ), #213, 'distance_accuracy_value', 'NONE');
#270 = LINE ( 'NONE', #73, #25 ) ;
#271 = ORIENTED_EDGE ( 'NONE', *, *, #52, .F. ) ;
#272 = SURFACE_SIDE_STYLE ('',( #37 ) ) ;
#273 = VERTEX_POINT ( 'NONE', #132 ) ;
#274 = UNCERTAINTY_MEASURE_WITH_UNIT (LENGTH_MEASURE( 1.000000000000000082E-05 ), #209, 'distance_accuracy_value', 'NONE');
#275 = CYLINDRICAL_SURFACE ( 'NONE', #39, 0.1250000000000000278 ) ;
#276 = AXIS2_PLACEMENT_3D ( 'NONE', #148, #193, #224 ) ;
#277 = FILL_AREA_STYLE_COLOUR ( '', #252 ) ;
#278 = COLOUR_RGB ( '',1.000000000000000000, 0.000000000000000000, 0.000000000000000000 ) ;
#279 = EDGE_CURVE ( 'NONE', #273, #215, #7, .T. ) ;
#280 = FILL_AREA_STYLE_COLOUR ( '', #21 ) ;
#281 = SHAPE_DEFINITION_REPRESENTATION ( #206, #75 ) ;
#282 = ORIENTED_EDGE ( 'NONE', *, *, #207, .F. ) ;
#283 = FILL_AREA_STYLE_COLOUR ( '', #59 ) ;
#284 = EDGE_CURVE ( 'NONE', #35, #192, #190, .T. ) ;
#285 = VECTOR ( 'NONE', #69, 39.37007874015748143 ) ;
#286 = STYLED_ITEM ( 'NONE', ( #145 ), #227 ) ;
#287 = CARTESIAN_POINT ( 'NONE',  ( 0.1249999999999999584, 3.000000000000000444, 1.530808498934191817E-17 ) ) ;
#288 = AXIS2_PLACEMENT_3D ( 'NONE', #262, #67, #189 ) ;
#289 = DIRECTION ( 'NONE',  ( 0.000000000000000000, 0.000000000000000000, -1.000000000000000000 ) ) ;
#290 =( NAMED_UNIT ( * ) SI_UNIT ( $, .STERADIAN. ) SOLID_ANGLE_UNIT ( ) );
#291 =( GEOMETRIC_REPRESENTATION_CONTEXT ( 3 ) GLOBAL_UNCERTAINTY_ASSIGNED_CONTEXT ( ( #274 ) ) GLOBAL_UNIT_ASSIGNED_CONTEXT ( ( #209, #17, #63 ) ) REPRESENTATION_CONTEXT ( 'NONE', 'WORKASPACE' ) );
#292 = AXIS2_PLACEMENT_3D ( 'NONE', #81, #4, #230 ) ;
#293 = DIRECTION ( 'NONE',  ( -0.000000000000000000, -1.000000000000000000, -0.000000000000000000 ) ) ;
#294 = ORIENTED_EDGE ( 'NONE', *, *, #55, .T. ) ;
#295 = DIRECTION ( 'NONE',  ( 3.061616997868386099E-17, -1.000000000000000000, 0.000000000000000000 ) ) ;
#296 = ORIENTED_EDGE ( 'NONE', *, *, #279, .F. ) ;
#297 = ORIENTED_EDGE ( 'NONE', *, *, #55, .F. ) ;
#298 = CARTESIAN_POINT ( 'NONE',  ( 0.000000000000000000, 0.000000000000000000, 0.000000000000000000 ) ) ;
#299 =( NAMED_UNIT ( * ) SI_UNIT ( $, .STERADIAN. ) SOLID_ANGLE_UNIT ( ) );
#300 = ADVANCED_FACE ( 'NONE', ( #185 ), #234, .T. ) ;
#301 = SURFACE_SIDE_STYLE ('',( #32 ) ) ;
#302 = ORIENTED_EDGE ( 'NONE', *, *, #24, .F. ) ;
#303 = MANIFOLD_SOLID_BREP ( 'Revolve - Tool Body (Straight Shanked)', #101 ) ;
#304 =( NAMED_UNIT ( * ) SI_UNIT ( $, .STERADIAN. ) SOLID_ANGLE_UNIT ( ) );
#305 = DIRECTION ( 'NONE',  ( -0.000000000000000000, -1.000000000000000000, -0.000000000000000000 ) ) ;
#306 = CIRCLE ( 'NONE', #219, 0.1250000000000000000 ) ;
#307 = LENGTH_MEASURE_WITH_UNIT ( LENGTH_MEASURE( 0.02539999999999999897 ), #40 );
#308 = SURFACE_STYLE_USAGE ( .BOTH. , #19 ) ;
#309 = VERTEX_POINT ( 'NONE', #169 ) ;
ENDSEC;
END-ISO-10303-21;
