ISO-10303-21;
HEADER;
FILE_DESCRIPTION (( 'STEP AP214' ),
    '1' );
FILE_NAME ('Micro_SHL-750-4X.STEP',
    '2021-09-02T08:10:05',
    ( '' ),
    ( '' ),
    'SwSTEP 2.0',
    'SolidWorks 2020',
    '' );
FILE_SCHEMA (( 'AUTOMOTIVE_DESIGN' ));
ENDSEC;

DATA;
#1 = VERTEX_POINT ( 'NONE', #44 ) ;
#2 = ADVANCED_FACE ( 'NONE', ( #179 ), #296, .T. ) ;
#3 = VERTEX_POINT ( 'NONE', #95 ) ;
#4 = AXIS2_PLACEMENT_3D ( 'NONE', #252, #249, #39 ) ;
#5 = DIRECTION ( 'NONE',  ( -1.000000000000000000, 0.0000000000000000000, 0.0000000000000000000 ) ) ;
#6 = FACE_OUTER_BOUND ( 'NONE', #88, .T. ) ;
#7 = ADVANCED_FACE ( 'NONE', ( #6 ), #164, .T. ) ;
#8 = DIRECTION ( 'NONE',  ( -1.224646799147353207E-16, -0.0000000000000000000, -1.000000000000000000 ) ) ;
#9 = CARTESIAN_POINT ( 'NONE',  ( 5.618475085796983064E-33, 0.0000000000000000000, 4.587833071305771192E-17 ) ) ;
#10 = ADVANCED_BREP_SHAPE_REPRESENTATION ( 'Micro_SHL-750-4X', ( #120, #189 ), #180 ) ;
#11 = LINE ( 'NONE', #285, #57 ) ;
#12 = MECHANICAL_DESIGN_GEOMETRIC_PRESENTATION_REPRESENTATION (  '', ( #112 ), #246 ) ;
#13 = CONICAL_SURFACE ( 'NONE', #124, 0.3600000000000005418, 0.7853981633974050913 ) ;
#14 = CARTESIAN_POINT ( 'NONE',  ( -0.3746249999999997082, 4.587833071305771192E-17, 2.500000000000000000 ) ) ;
#15 = UNCERTAINTY_MEASURE_WITH_UNIT (LENGTH_MEASURE( 1.000000000000000082E-05 ), #42, 'distance_accuracy_value', 'NONE');
#16 = FACE_OUTER_BOUND ( 'NONE', #181, .T. ) ;
#17 = CARTESIAN_POINT ( 'NONE',  ( 0.0000000000000000000, 0.0000000000000000000, 4.984999999999999432 ) ) ;
#18 = DIMENSIONAL_EXPONENTS ( 1.000000000000000000, 0.0000000000000000000, 0.0000000000000000000, 0.0000000000000000000, 0.0000000000000000000, 0.0000000000000000000, 0.0000000000000000000 ) ;
#19 = VECTOR ( 'NONE', #243, 39.37007874015748143 ) ;
#20 = DIRECTION ( 'NONE',  ( 1.000000000000000000, 0.0000000000000000000, 0.0000000000000000000 ) ) ;
#21 =( NAMED_UNIT ( * ) SI_UNIT ( $, .STERADIAN. ) SOLID_ANGLE_UNIT ( ) );
#22 = ORIENTED_EDGE ( 'NONE', *, *, #262, .F. ) ;
#23 = DIRECTION ( 'NONE',  ( -1.000000000000000000, 0.0000000000000000000, 0.0000000000000000000 ) ) ;
#24 = ADVANCED_FACE ( 'NONE', ( #265 ), #79, .T. ) ;
#25 = CIRCLE ( 'NONE', #4, 0.3746249999999999858 ) ;
#26 = ORIENTED_EDGE ( 'NONE', *, *, #288, .F. ) ;
#27 =( LENGTH_UNIT ( ) NAMED_UNIT ( * ) SI_UNIT ( $, .METRE. ) );
#28 = ORIENTED_EDGE ( 'NONE', *, *, #166, .F. ) ;
#29 = VERTEX_POINT ( 'NONE', #247 ) ;
#30 = DIRECTION ( 'NONE',  ( -1.224646799147353207E-16, -0.0000000000000000000, -1.000000000000000000 ) ) ;
#31 = CARTESIAN_POINT ( 'NONE',  ( 0.3600000000000005418, 4.408728476930478424E-17, 5.000000000000000000 ) ) ;
#32 = ADVANCED_FACE ( 'NONE', ( #244 ), #192, .T. ) ;
#33 = CARTESIAN_POINT ( 'NONE',  ( 0.0000000000000000000, 0.0000000000000000000, 4.984999999999999432 ) ) ;
#34 = PRESENTATION_STYLE_ASSIGNMENT (( #98 ) ) ;
#35 = AXIS2_PLACEMENT_3D ( 'NONE', #37, #38, #101 ) ;
#36 = CARTESIAN_POINT ( 'NONE',  ( 0.0000000000000000000, 0.0000000000000000000, 5.000000000000000000 ) ) ;
#37 = CARTESIAN_POINT ( 'NONE',  ( 0.0000000000000000000, 0.0000000000000000000, 5.000000000000000000 ) ) ;
#38 = DIRECTION ( 'NONE',  ( 0.0000000000000000000, 0.0000000000000000000, 1.000000000000000000 ) ) ;
#39 = DIRECTION ( 'NONE',  ( -1.000000000000000000, 0.0000000000000000000, 0.0000000000000000000 ) ) ;
#40 = CARTESIAN_POINT ( 'NONE',  ( 0.3600000000000005418, 4.500576986866526629E-17, 5.000000000000000000 ) ) ;
#41 = DIRECTION ( 'NONE',  ( 1.000000000000000000, 0.0000000000000000000, 0.0000000000000000000 ) ) ;
#42 =( CONVERSION_BASED_UNIT ( 'INCH', #65 ) LENGTH_UNIT ( ) NAMED_UNIT ( #256 ) );
#43 = EDGE_CURVE ( 'NONE', #158, #3, #169, .T. ) ;
#44 = CARTESIAN_POINT ( 'NONE',  ( -0.3600000000000005418, 0.0000000000000000000, 5.000000000000000000 ) ) ;
#45 = EDGE_CURVE ( 'NONE', #143, #163, #51, .T. ) ;
#46 = EDGE_LOOP ( 'NONE', ( #50, #66, #235, #212 ) ) ;
#47 = CIRCLE ( 'NONE', #35, 0.3600000000000005418 ) ;
#48 = ORIENTED_EDGE ( 'NONE', *, *, #45, .T. ) ;
#49 = ORIENTED_EDGE ( 'NONE', *, *, #106, .T. ) ;
#50 = ORIENTED_EDGE ( 'NONE', *, *, #269, .F. ) ;
#51 = LINE ( 'NONE', #31, #74 ) ;
#52 = CARTESIAN_POINT ( 'NONE',  ( -0.3749999999999997780, 0.0000000000000000000, 2.502126730682356914 ) ) ;
#53 = SURFACE_SIDE_STYLE ('',( #266 ) ) ;
#54 =( NAMED_UNIT ( * ) PLANE_ANGLE_UNIT ( ) SI_UNIT ( $, .RADIAN. ) );
#55 = VECTOR ( 'NONE', #97, 39.37007874015748143 ) ;
#56 = ADVANCED_FACE ( 'NONE', ( #216 ), #283, .T. ) ;
#57 = VECTOR ( 'NONE', #99, 39.37007874015748143 ) ;
#58 = LINE ( 'NONE', #131, #284 ) ;
#59 = DIRECTION ( 'NONE',  ( -1.000000000000000000, 0.0000000000000000000, 0.0000000000000000000 ) ) ;
#60 = EDGE_CURVE ( 'NONE', #260, #116, #267, .T. ) ;
#61 = APPLICATION_CONTEXT ( 'automotive_design' ) ;
#62 = DIRECTION ( 'NONE',  ( 0.0000000000000000000, 0.0000000000000000000, -1.000000000000000000 ) ) ;
#63 = COLOUR_RGB ( '',0.7921568627450980005, 0.8196078431372548767, 0.9333333333333333481 ) ;
#64 = EDGE_LOOP ( 'NONE', ( #22, #162, #280, #278 ) ) ;
#65 = LENGTH_MEASURE_WITH_UNIT ( LENGTH_MEASURE( 0.02539999999999999897 ), #27 );
#66 = ORIENTED_EDGE ( 'NONE', *, *, #199, .F. ) ;
#67 = DIRECTION ( 'NONE',  ( 1.000000000000000000, 0.0000000000000000000, 0.0000000000000000000 ) ) ;
#68 = ORIENTED_EDGE ( 'NONE', *, *, #217, .F. ) ;
#69 = AXIS2_PLACEMENT_3D ( 'NONE', #218, #75, #77 ) ;
#70 = ORIENTED_EDGE ( 'NONE', *, *, #217, .T. ) ;
#71 = ORIENTED_EDGE ( 'NONE', *, *, #60, .F. ) ;
#72 =( CONVERSION_BASED_UNIT ( 'INCH', #78 ) LENGTH_UNIT ( ) NAMED_UNIT ( #18 ) );
#73 = EDGE_CURVE ( 'NONE', #1, #143, #206, .T. ) ;
#74 = VECTOR ( 'NONE', #119, 39.37007874015748143 ) ;
#75 = DIRECTION ( 'NONE',  ( 0.0000000000000000000, 0.0000000000000000000, 1.000000000000000000 ) ) ;
#76 = VECTOR ( 'NONE', #83, 39.37007874015748143 ) ;
#77 = DIRECTION ( 'NONE',  ( 1.000000000000000000, 0.0000000000000000000, 0.0000000000000000000 ) ) ;
#78 = LENGTH_MEASURE_WITH_UNIT ( LENGTH_MEASURE( 0.02539999999999999897 ), #125 );
#79 = CYLINDRICAL_SURFACE ( 'NONE', #142, 0.3746249999999999858 ) ;
#80 = AXIS2_PLACEMENT_3D ( 'NONE', #215, #8, #220 ) ;
#81 = CARTESIAN_POINT ( 'NONE',  ( 0.3750000000000000555, 4.592425496802575451E-17, 4.984999999999999432 ) ) ;
#82 = CARTESIAN_POINT ( 'NONE',  ( 3.061616997868383141E-16, 0.0000000000000000000, 2.500000000000000000 ) ) ;
#83 = DIRECTION ( 'NONE',  ( -0.0000000000000000000, -0.0000000000000000000, -1.000000000000000000 ) ) ;
#84 = CARTESIAN_POINT ( 'NONE',  ( -0.3746249999999997082, 4.590129284054173014E-17, 2.500000000000000000 ) ) ;
#85 = FILL_AREA_STYLE_COLOUR ( '', #63 ) ;
#86 = EDGE_LOOP ( 'NONE', ( #110, #185, #49, #108 ) ) ;
#87 = FILL_AREA_STYLE ('',( #85 ) ) ;
#88 = EDGE_LOOP ( 'NONE', ( #239, #114 ) ) ;
#89 = DIRECTION ( 'NONE',  ( 0.0000000000000000000, 0.0000000000000000000, 1.000000000000000000 ) ) ;
#90 = EDGE_LOOP ( 'NONE', ( #26, #144, #159, #115 ) ) ;
#91 = ORIENTED_EDGE ( 'NONE', *, *, #43, .F. ) ;
#92 = APPLICATION_PROTOCOL_DEFINITION ( 'draft international standard', 'automotive_design', 1998, #61 ) ;
#93 = VERTEX_POINT ( 'NONE', #52 ) ;
#94 =( NAMED_UNIT ( * ) SI_UNIT ( $, .STERADIAN. ) SOLID_ANGLE_UNIT ( ) );
#95 = CARTESIAN_POINT ( 'NONE',  ( 0.3750000000000002776, 4.592425496802578533E-17, 2.502126730682356914 ) ) ;
#96 = DIRECTION ( 'NONE',  ( -1.000000000000000000, 0.0000000000000000000, 1.224646799147352961E-16 ) ) ;
#97 = DIRECTION ( 'NONE',  ( -1.224646799147353207E-16, -0.0000000000000000000, -1.000000000000000000 ) ) ;
#98 = SURFACE_STYLE_USAGE ( .BOTH. , #53 ) ;
#99 = DIRECTION ( 'NONE',  ( -1.224646799147353207E-16, -0.0000000000000000000, -1.000000000000000000 ) ) ;
#100 = PRODUCT_DEFINITION_FORMATION_WITH_SPECIFIED_SOURCE ( 'ANY', '', #140, .NOT_KNOWN. ) ;
#101 = DIRECTION ( 'NONE',  ( 1.000000000000000000, 0.0000000000000000000, 0.0000000000000000000 ) ) ;
#102 = CARTESIAN_POINT ( 'NONE',  ( 0.0000000000000000000, 0.0000000000000000000, 5.000000000000000000 ) ) ;
#103 = DIRECTION ( 'NONE',  ( -1.000000000000000000, 0.0000000000000000000, 0.0000000000000000000 ) ) ;
#104 = AXIS2_PLACEMENT_3D ( 'NONE', #36, #191, #5 ) ;
#105 = MECHANICAL_DESIGN_GEOMETRIC_PRESENTATION_REPRESENTATION (  '', ( #229 ), #219 ) ;
#106 = EDGE_CURVE ( 'NONE', #1, #183, #126, .T. ) ;
#107 = DIRECTION ( 'NONE',  ( -1.000000000000000000, 0.0000000000000000000, 1.224646799147352961E-16 ) ) ;
#108 = ORIENTED_EDGE ( 'NONE', *, *, #111, .F. ) ;
#109 =( NAMED_UNIT ( * ) PLANE_ANGLE_UNIT ( ) SI_UNIT ( $, .RADIAN. ) );
#110 = ORIENTED_EDGE ( 'NONE', *, *, #45, .F. ) ;
#111 = EDGE_CURVE ( 'NONE', #163, #183, #150, .T. ) ;
#112 = STYLED_ITEM ( 'NONE', ( #34 ), #120 ) ;
#113 = CIRCLE ( 'NONE', #214, 0.3746249999999999858 ) ;
#114 = ORIENTED_EDGE ( 'NONE', *, *, #241, .T. ) ;
#115 = ORIENTED_EDGE ( 'NONE', *, *, #286, .F. ) ;
#116 = VERTEX_POINT ( 'NONE', #170 ) ;
#117 = AXIS2_PLACEMENT_3D ( 'NONE', #268, #174, #155 ) ;
#118 = AXIS2_PLACEMENT_3D ( 'NONE', #17, #62, #289 ) ;
#119 = DIRECTION ( 'NONE',  ( 0.7071067811865169306, 8.659560562354558149E-17, -0.7071067811865781039 ) ) ;
#120 = MANIFOLD_SOLID_BREP ( 'Cut-Revolve1', #234 ) ;
#121 = DIRECTION ( 'NONE',  ( 1.000000000000000000, 0.0000000000000000000, 0.0000000000000000000 ) ) ;
#122 = EDGE_CURVE ( 'NONE', #116, #29, #227, .T. ) ;
#123 = AXIS2_PLACEMENT_3D ( 'NONE', #33, #221, #121 ) ;
#124 = AXIS2_PLACEMENT_3D ( 'NONE', #102, #270, #59 ) ;
#125 =( LENGTH_UNIT ( ) NAMED_UNIT ( * ) SI_UNIT ( $, .METRE. ) );
#126 = LINE ( 'NONE', #148, #19 ) ;
#127 = CARTESIAN_POINT ( 'NONE',  ( 5.618475085796983064E-33, 0.0000000000000000000, 4.587833071305771192E-17 ) ) ;
#128 = ADVANCED_FACE ( 'NONE', ( #16 ), #274, .T. ) ;
#129 = DIRECTION ( 'NONE',  ( -1.224646799147353207E-16, -0.0000000000000000000, -1.000000000000000000 ) ) ;
#130 = UNCERTAINTY_MEASURE_WITH_UNIT (LENGTH_MEASURE( 1.000000000000000082E-05 ), #135, 'distance_accuracy_value', 'NONE');
#131 = CARTESIAN_POINT ( 'NONE',  ( -0.3750000000000000555, 0.0000000000000000000, 5.000000000000000000 ) ) ;
#132 = CARTESIAN_POINT ( 'NONE',  ( 0.0000000000000000000, 0.0000000000000000000, 5.000000000000000000 ) ) ;
#133 = CARTESIAN_POINT ( 'NONE',  ( 3.061616997868383141E-16, 0.0000000000000000000, 2.500000000000000000 ) ) ;
#134 = VECTOR ( 'NONE', #273, 39.37007874015747433 ) ;
#135 =( CONVERSION_BASED_UNIT ( 'INCH', #238 ) LENGTH_UNIT ( ) NAMED_UNIT ( #176 ) );
#136 =( LENGTH_UNIT ( ) NAMED_UNIT ( * ) SI_UNIT ( $, .METRE. ) );
#137 = ADVANCED_FACE ( 'NONE', ( #153 ), #287, .F. ) ;
#138 = EDGE_LOOP ( 'NONE', ( #255, #205 ) ) ;
#139 = ORIENTED_EDGE ( 'NONE', *, *, #245, .T. ) ;
#140 = PRODUCT ( 'Micro_SHL-750-4X', 'Micro_SHL-750-4X', '', ( #298 ) ) ;
#141 = APPLICATION_CONTEXT ( 'automotive_design' ) ;
#142 = AXIS2_PLACEMENT_3D ( 'NONE', #149, #30, #96 ) ;
#143 = VERTEX_POINT ( 'NONE', #40 ) ;
#144 = ORIENTED_EDGE ( 'NONE', *, *, #199, .T. ) ;
#145 = ORIENTED_EDGE ( 'NONE', *, *, #288, .T. ) ;
#146 = AXIS2_PLACEMENT_3D ( 'NONE', #133, #228, #20 ) ;
#147 = DIRECTION ( 'NONE',  ( 0.1736481776669313859, 0.0000000000000000000, 0.9848077530122077983 ) ) ;
#148 = CARTESIAN_POINT ( 'NONE',  ( -0.3600000000000005418, 0.0000000000000000000, 5.000000000000000000 ) ) ;
#149 = CARTESIAN_POINT ( 'NONE',  ( 0.0000000000000000000, 0.0000000000000000000, 0.0000000000000000000 ) ) ;
#150 = CIRCLE ( 'NONE', #123, 0.3750000000000000555 ) ;
#151 = DIRECTION ( 'NONE',  ( 1.000000000000000000, 0.0000000000000000000, -0.0000000000000000000 ) ) ;
#152 = DIRECTION ( 'NONE',  ( -1.224646799147353207E-16, -0.0000000000000000000, -1.000000000000000000 ) ) ;
#153 = FACE_OUTER_BOUND ( 'NONE', #138, .T. ) ;
#154 = CARTESIAN_POINT ( 'NONE',  ( -0.3750000000000000555, 0.0000000000000000000, 4.984999999999999432 ) ) ;
#155 = DIRECTION ( 'NONE',  ( 1.000000000000000000, 0.0000000000000000000, 0.0000000000000000000 ) ) ;
#156 = CARTESIAN_POINT ( 'NONE',  ( 0.3746250000000002633, 0.0000000000000000000, 2.500000000000000000 ) ) ;
#157 = PRESENTATION_LAYER_ASSIGNMENT (  '', '', ( #112 ) ) ;
#158 = VERTEX_POINT ( 'NONE', #156 ) ;
#159 = ORIENTED_EDGE ( 'NONE', *, *, #60, .T. ) ;
#160 = ORIENTED_EDGE ( 'NONE', *, *, #241, .F. ) ;
#161 = CIRCLE ( 'NONE', #118, 0.3750000000000000555 ) ;
#162 = ORIENTED_EDGE ( 'NONE', *, *, #111, .T. ) ;
#163 = VERTEX_POINT ( 'NONE', #81 ) ;
#164 = PLANE ( 'NONE',  #236 ) ;
#165 = AXIS2_PLACEMENT_3D ( 'NONE', #275, #233, #23 ) ;
#166 = EDGE_CURVE ( 'NONE', #183, #93, #58, .T. ) ;
#167 = DIRECTION ( 'NONE',  ( 0.0000000000000000000, 0.0000000000000000000, 1.000000000000000000 ) ) ;
#168 = PRODUCT_RELATED_PRODUCT_CATEGORY ( 'part', '', ( #140 ) ) ;
#169 = LINE ( 'NONE', #188, #173 ) ;
#170 = CARTESIAN_POINT ( 'NONE',  ( -0.3746249999999999858, 0.0000000000000000000, 9.175666142611542384E-17 ) ) ;
#171 = ADVANCED_FACE ( 'NONE', ( #172 ), #13, .T. ) ;
#172 = FACE_OUTER_BOUND ( 'NONE', #86, .T. ) ;
#173 = VECTOR ( 'NONE', #147, 39.37007874015748143 ) ;
#174 = DIRECTION ( 'NONE',  ( 1.224646799147353207E-16, 0.0000000000000000000, 1.000000000000000000 ) ) ;
#175 = DIRECTION ( 'NONE',  ( 1.000000000000000000, 0.0000000000000000000, -0.0000000000000000000 ) ) ;
#176 = DIMENSIONAL_EXPONENTS ( 1.000000000000000000, 0.0000000000000000000, 0.0000000000000000000, 0.0000000000000000000, 0.0000000000000000000, 0.0000000000000000000, 0.0000000000000000000 ) ;
#177 = LINE ( 'NONE', #14, #134 ) ;
#178 = CARTESIAN_POINT ( 'NONE',  ( 0.0000000000000000000, 0.0000000000000000000, 0.0000000000000000000 ) ) ;
#179 = FACE_OUTER_BOUND ( 'NONE', #64, .T. ) ;
#180 =( GEOMETRIC_REPRESENTATION_CONTEXT ( 3 ) GLOBAL_UNCERTAINTY_ASSIGNED_CONTEXT ( ( #130 ) ) GLOBAL_UNIT_ASSIGNED_CONTEXT ( ( #135, #109, #21 ) ) REPRESENTATION_CONTEXT ( 'NONE', 'WORKASPACE' ) );
#181 = EDGE_LOOP ( 'NONE', ( #293, #261, #207, #91 ) ) ;
#182 = APPLICATION_PROTOCOL_DEFINITION ( 'draft international standard', 'automotive_design', 1998, #141 ) ;
#183 = VERTEX_POINT ( 'NONE', #154 ) ;
#184 = SHAPE_DEFINITION_REPRESENTATION ( #213, #10 ) ;
#185 = ORIENTED_EDGE ( 'NONE', *, *, #73, .F. ) ;
#186 = AXIS2_PLACEMENT_3D ( 'NONE', #272, #194, #175 ) ;
#187 = AXIS2_PLACEMENT_3D ( 'NONE', #82, #271, #103 ) ;
#188 = CARTESIAN_POINT ( 'NONE',  ( 0.3746250000000002633, 0.0000000000000000000, 2.500000000000000000 ) ) ;
#189 = AXIS2_PLACEMENT_3D ( 'NONE', #178, #89, #67 ) ;
#190 = FILL_AREA_STYLE ('',( #282 ) ) ;
#191 = DIRECTION ( 'NONE',  ( -0.0000000000000000000, -0.0000000000000000000, -1.000000000000000000 ) ) ;
#192 = CYLINDRICAL_SURFACE ( 'NONE', #80, 0.3746249999999999858 ) ;
#193 = PRESENTATION_LAYER_ASSIGNMENT (  '', '', ( #229 ) ) ;
#194 = DIRECTION ( 'NONE',  ( 0.0000000000000000000, 0.0000000000000000000, 1.000000000000000000 ) ) ;
#195 = FACE_OUTER_BOUND ( 'NONE', #46, .T. ) ;
#196 = PRODUCT_DEFINITION_CONTEXT ( 'detailed design', #141, 'design' ) ;
#197 = EDGE_CURVE ( 'NONE', #3, #93, #294, .T. ) ;
#198 = FACE_OUTER_BOUND ( 'NONE', #279, .T. ) ;
#199 = EDGE_CURVE ( 'NONE', #158, #260, #25, .T. ) ;
#200 = LINE ( 'NONE', #291, #76 ) ;
#201 = AXIS2_PLACEMENT_3D ( 'NONE', #292, #129, #41 ) ;
#202 = CARTESIAN_POINT ( 'NONE',  ( 3.064221491791179634E-16, 0.0000000000000000000, 2.502126730682356914 ) ) ;
#203 = EDGE_LOOP ( 'NONE', ( #139, #145, #277, #71 ) ) ;
#204 =( NAMED_UNIT ( * ) PLANE_ANGLE_UNIT ( ) SI_UNIT ( $, .RADIAN. ) );
#205 = ORIENTED_EDGE ( 'NONE', *, *, #286, .T. ) ;
#206 = CIRCLE ( 'NONE', #69, 0.3600000000000005418 ) ;
#207 = ORIENTED_EDGE ( 'NONE', *, *, #232, .T. ) ;
#208 = ADVANCED_FACE ( 'NONE', ( #198 ), #240, .T. ) ;
#209 =( NAMED_UNIT ( * ) SI_UNIT ( $, .STERADIAN. ) SOLID_ANGLE_UNIT ( ) );
#210 = ORIENTED_EDGE ( 'NONE', *, *, #106, .F. ) ;
#211 = PRESENTATION_STYLE_ASSIGNMENT (( #231 ) ) ;
#212 = ORIENTED_EDGE ( 'NONE', *, *, #197, .T. ) ;
#213 = PRODUCT_DEFINITION_SHAPE ( 'NONE', 'NONE',  #297 ) ;
#214 = AXIS2_PLACEMENT_3D ( 'NONE', #127, #224, #222 ) ;
#215 = CARTESIAN_POINT ( 'NONE',  ( 0.0000000000000000000, 0.0000000000000000000, 0.0000000000000000000 ) ) ;
#216 = FACE_OUTER_BOUND ( 'NONE', #257, .T. ) ;
#217 = EDGE_CURVE ( 'NONE', #183, #163, #161, .T. ) ;
#218 = CARTESIAN_POINT ( 'NONE',  ( 0.0000000000000000000, 0.0000000000000000000, 5.000000000000000000 ) ) ;
#219 =( GEOMETRIC_REPRESENTATION_CONTEXT ( 3 ) GLOBAL_UNCERTAINTY_ASSIGNED_CONTEXT ( ( #15 ) ) GLOBAL_UNIT_ASSIGNED_CONTEXT ( ( #42, #204, #209 ) ) REPRESENTATION_CONTEXT ( 'NONE', 'WORKASPACE' ) );
#220 = DIRECTION ( 'NONE',  ( -1.000000000000000000, 0.0000000000000000000, 1.224646799147352961E-16 ) ) ;
#221 = DIRECTION ( 'NONE',  ( 0.0000000000000000000, 0.0000000000000000000, -1.000000000000000000 ) ) ;
#222 = DIRECTION ( 'NONE',  ( -1.000000000000000000, 0.0000000000000000000, 1.224646799147352961E-16 ) ) ;
#223 = CIRCLE ( 'NONE', #201, 0.3750000000000000555 ) ;
#224 = DIRECTION ( 'NONE',  ( -1.224646799147353207E-16, -0.0000000000000000000, -1.000000000000000000 ) ) ;
#225 = DIRECTION ( 'NONE',  ( -0.0000000000000000000, -0.0000000000000000000, -1.000000000000000000 ) ) ;
#226 = DIRECTION ( 'NONE',  ( -1.000000000000000000, 0.0000000000000000000, 0.0000000000000000000 ) ) ;
#227 = CIRCLE ( 'NONE', #264, 0.3746249999999999858 ) ;
#228 = DIRECTION ( 'NONE',  ( 1.224646799147353207E-16, 0.0000000000000000000, 1.000000000000000000 ) ) ;
#229 = STYLED_ITEM ( 'NONE', ( #211 ), #10 ) ;
#230 = UNCERTAINTY_MEASURE_WITH_UNIT (LENGTH_MEASURE( 1.000000000000000082E-05 ), #72, 'distance_accuracy_value', 'NONE');
#231 = SURFACE_STYLE_USAGE ( .BOTH. , #259 ) ;
#232 = EDGE_CURVE ( 'NONE', #93, #3, #223, .T. ) ;
#233 = DIRECTION ( 'NONE',  ( -0.0000000000000000000, -0.0000000000000000000, -1.000000000000000000 ) ) ;
#234 = CLOSED_SHELL ( 'NONE', ( #32, #128, #208, #56, #2, #7, #171, #263, #24, #137 ) ) ;
#235 = ORIENTED_EDGE ( 'NONE', *, *, #43, .T. ) ;
#236 = AXIS2_PLACEMENT_3D ( 'NONE', #242, #167, #151 ) ;
#237 = CONICAL_SURFACE ( 'NONE', #146, 0.3746249999999999858, 0.1745329251994338915 ) ;
#238 = LENGTH_MEASURE_WITH_UNIT ( LENGTH_MEASURE( 0.02539999999999999897 ), #136 );
#239 = ORIENTED_EDGE ( 'NONE', *, *, #73, .T. ) ;
#240 = CONICAL_SURFACE ( 'NONE', #251, 0.3600000000000005418, 0.7853981633974050913 ) ;
#241 = EDGE_CURVE ( 'NONE', #143, #1, #47, .T. ) ;
#242 = CARTESIAN_POINT ( 'NONE',  ( 0.0000000000000000000, 0.0000000000000000000, 5.000000000000000000 ) ) ;
#243 = DIRECTION ( 'NONE',  ( -0.7071067811865169306, 0.0000000000000000000, -0.7071067811865781039 ) ) ;
#244 = FACE_OUTER_BOUND ( 'NONE', #203, .T. ) ;
#245 = EDGE_CURVE ( 'NONE', #260, #158, #295, .T. ) ;
#246 =( GEOMETRIC_REPRESENTATION_CONTEXT ( 3 ) GLOBAL_UNCERTAINTY_ASSIGNED_CONTEXT ( ( #230 ) ) GLOBAL_UNIT_ASSIGNED_CONTEXT ( ( #72, #54, #94 ) ) REPRESENTATION_CONTEXT ( 'NONE', 'WORKASPACE' ) );
#247 = CARTESIAN_POINT ( 'NONE',  ( 0.3746249999999999858, 4.587833071305771192E-17, 0.0000000000000000000 ) ) ;
#248 = DIRECTION ( 'NONE',  ( -1.224646799147353207E-16, -0.0000000000000000000, -1.000000000000000000 ) ) ;
#249 = DIRECTION ( 'NONE',  ( -1.224646799147353207E-16, -0.0000000000000000000, -1.000000000000000000 ) ) ;
#250 = COLOUR_RGB ( '',0.7921568627450980005, 0.8196078431372548767, 0.9333333333333333481 ) ;
#251 = AXIS2_PLACEMENT_3D ( 'NONE', #132, #254, #226 ) ;
#252 = CARTESIAN_POINT ( 'NONE',  ( 3.061616997868383141E-16, 0.0000000000000000000, 2.500000000000000000 ) ) ;
#253 = DIRECTION ( 'NONE',  ( 1.000000000000000000, 0.0000000000000000000, 0.0000000000000000000 ) ) ;
#254 = DIRECTION ( 'NONE',  ( 0.0000000000000000000, 0.0000000000000000000, -1.000000000000000000 ) ) ;
#255 = ORIENTED_EDGE ( 'NONE', *, *, #122, .T. ) ;
#256 = DIMENSIONAL_EXPONENTS ( 1.000000000000000000, 0.0000000000000000000, 0.0000000000000000000, 0.0000000000000000000, 0.0000000000000000000, 0.0000000000000000000, 0.0000000000000000000 ) ;
#257 = EDGE_LOOP ( 'NONE', ( #70, #258, #299, #28 ) ) ;
#258 = ORIENTED_EDGE ( 'NONE', *, *, #262, .T. ) ;
#259 = SURFACE_SIDE_STYLE ('',( #276 ) ) ;
#260 = VERTEX_POINT ( 'NONE', #84 ) ;
#261 = ORIENTED_EDGE ( 'NONE', *, *, #269, .T. ) ;
#262 = EDGE_CURVE ( 'NONE', #163, #3, #200, .T. ) ;
#263 = ADVANCED_FACE ( 'NONE', ( #195 ), #237, .T. ) ;
#264 = AXIS2_PLACEMENT_3D ( 'NONE', #9, #152, #107 ) ;
#265 = FACE_OUTER_BOUND ( 'NONE', #90, .T. ) ;
#266 = SURFACE_STYLE_FILL_AREA ( #190 ) ;
#267 = LINE ( 'NONE', #281, #55 ) ;
#268 = CARTESIAN_POINT ( 'NONE',  ( 3.061616997868383141E-16, 0.0000000000000000000, 2.500000000000000000 ) ) ;
#269 = EDGE_CURVE ( 'NONE', #260, #93, #177, .T. ) ;
#270 = DIRECTION ( 'NONE',  ( 0.0000000000000000000, 0.0000000000000000000, -1.000000000000000000 ) ) ;
#271 = DIRECTION ( 'NONE',  ( -1.224646799147353207E-16, -0.0000000000000000000, -1.000000000000000000 ) ) ;
#272 = CARTESIAN_POINT ( 'NONE',  ( 0.0000000000000000000, 0.0000000000000000000, 0.0000000000000000000 ) ) ;
#273 = DIRECTION ( 'NONE',  ( -0.1736481776669311916, 2.126576849575783316E-17, 0.9848077530122080203 ) ) ;
#274 = CONICAL_SURFACE ( 'NONE', #117, 0.3746249999999999858, 0.1745329251994338915 ) ;
#275 = CARTESIAN_POINT ( 'NONE',  ( 0.0000000000000000000, 0.0000000000000000000, 5.000000000000000000 ) ) ;
#276 = SURFACE_STYLE_FILL_AREA ( #87 ) ;
#277 = ORIENTED_EDGE ( 'NONE', *, *, #122, .F. ) ;
#278 = ORIENTED_EDGE ( 'NONE', *, *, #197, .F. ) ;
#279 = EDGE_LOOP ( 'NONE', ( #160, #48, #68, #210 ) ) ;
#280 = ORIENTED_EDGE ( 'NONE', *, *, #166, .T. ) ;
#281 = CARTESIAN_POINT ( 'NONE',  ( -0.3746249999999999858, 0.0000000000000000000, 4.587833071305771192E-17 ) ) ;
#282 = FILL_AREA_STYLE_COLOUR ( '', #250 ) ;
#283 = CYLINDRICAL_SURFACE ( 'NONE', #104, 0.3750000000000000555 ) ;
#284 = VECTOR ( 'NONE', #225, 39.37007874015748143 ) ;
#285 = CARTESIAN_POINT ( 'NONE',  ( 0.3746249999999999858, 4.587833071305771192E-17, -4.587833071305771192E-17 ) ) ;
#286 = EDGE_CURVE ( 'NONE', #29, #116, #113, .T. ) ;
#287 = PLANE ( 'NONE',  #186 ) ;
#288 = EDGE_CURVE ( 'NONE', #158, #29, #11, .T. ) ;
#289 = DIRECTION ( 'NONE',  ( 1.000000000000000000, 0.0000000000000000000, 0.0000000000000000000 ) ) ;
#290 = AXIS2_PLACEMENT_3D ( 'NONE', #202, #248, #253 ) ;
#291 = CARTESIAN_POINT ( 'NONE',  ( 0.3750000000000000555, 4.592425496802575451E-17, 5.000000000000000000 ) ) ;
#292 = CARTESIAN_POINT ( 'NONE',  ( 3.064221491791179634E-16, 0.0000000000000000000, 2.502126730682356914 ) ) ;
#293 = ORIENTED_EDGE ( 'NONE', *, *, #245, .F. ) ;
#294 = CIRCLE ( 'NONE', #290, 0.3750000000000000555 ) ;
#295 = CIRCLE ( 'NONE', #187, 0.3746249999999999858 ) ;
#296 = CYLINDRICAL_SURFACE ( 'NONE', #165, 0.3750000000000000555 ) ;
#297 = PRODUCT_DEFINITION ( 'UNKNOWN', '', #100, #196 ) ;
#298 = PRODUCT_CONTEXT ( 'NONE', #61, 'mechanical' ) ;
#299 = ORIENTED_EDGE ( 'NONE', *, *, #232, .F. ) ;
ENDSEC;
END-ISO-10303-21;
