ISO-10303-21;
HEADER;
FILE_DESCRIPTION (( 'STEP AP214' ),
    '1' );
FILE_NAME ('84777.STEP',
    '2023-07-05T16:24:59',
    ( '' ),
    ( '' ),
    'SwSTEP 2.0',
    'SolidWorks 2023',
    '' );
FILE_SCHEMA (( 'AUTOMOTIVE_DESIGN' ));
ENDSEC;

DATA;
#1 =( NAMED_UNIT ( * ) SI_UNIT ( $, .STERADIAN. ) SOLID_ANGLE_UNIT ( ) );
#2 = DIRECTION ( 'NONE',  ( 0.000000000000000000, 0.000000000000000000, -1.000000000000000000 ) ) ;
#3 = EDGE_CURVE ( 'NONE', #217, #242, #122, .T. ) ;
#4 = PRESENTATION_STYLE_ASSIGNMENT (( #9 ) ) ;
#5 = CIRCLE ( 'NONE', #247, 0.1562499999999999722 ) ;
#6 = UNCERTAINTY_MEASURE_WITH_UNIT (LENGTH_MEASURE( 1.000000000000000082E-05 ), #60, 'distance_accuracy_value', 'NONE');
#7 =( LENGTH_UNIT ( ) NAMED_UNIT ( * ) SI_UNIT ( $, .METRE. ) );
#8 = EDGE_CURVE ( 'NONE', #243, #242, #184, .T. ) ;
#9 = SURFACE_STYLE_USAGE ( .BOTH. , #189 ) ;
#10 = PRODUCT_RELATED_PRODUCT_CATEGORY ( 'part', '', ( #195 ) ) ;
#11 = AXIS2_PLACEMENT_3D ( 'NONE', #127, #167, #126 ) ;
#12 =( LENGTH_UNIT ( ) NAMED_UNIT ( * ) SI_UNIT ( $, .METRE. ) );
#13 = ORIENTED_EDGE ( 'NONE', *, *, #148, .T. ) ;
#14 = SURFACE_STYLE_FILL_AREA ( #196 ) ;
#15 =( LENGTH_UNIT ( ) NAMED_UNIT ( * ) SI_UNIT ( $, .METRE. ) );
#16 = SURFACE_STYLE_FILL_AREA ( #223 ) ;
#17 = AXIS2_PLACEMENT_3D ( 'NONE', #51, #192, #221 ) ;
#18 = COLOUR_RGB ( '',0.7921568627450980005, 0.8196078431372548767, 0.9333333333333333481 ) ;
#19 = CARTESIAN_POINT ( 'NONE',  ( -0.1562499999999993894, 0.1562499999999994726, 0.000000000000000000 ) ) ;
#20 = VERTEX_POINT ( 'NONE', #259 ) ;
#21 =( NAMED_UNIT ( * ) PLANE_ANGLE_UNIT ( ) SI_UNIT ( $, .RADIAN. ) );
#22 = CARTESIAN_POINT ( 'NONE',  ( -0.1562499999999997224, 2.500000000000000000, 0.000000000000000000 ) ) ;
#23 = MANIFOLD_SOLID_BREP ( 'Revolve - Cutting Edge', #123 ) ;
#24 = DIRECTION ( 'NONE',  ( 0.000000000000000000, 0.000000000000000000, 1.000000000000000000 ) ) ;
#25 =( NAMED_UNIT ( * ) PLANE_ANGLE_UNIT ( ) SI_UNIT ( $, .RADIAN. ) );
#26 = LENGTH_MEASURE_WITH_UNIT ( LENGTH_MEASURE( 0.02539999999999999897 ), #15 );
#27 = DIMENSIONAL_EXPONENTS ( 1.000000000000000000, 0.000000000000000000, 0.000000000000000000, 0.000000000000000000, 0.000000000000000000, 0.000000000000000000, 0.000000000000000000 ) ;
#28 = ORIENTED_EDGE ( 'NONE', *, *, #191, .T. ) ;
#29 = EDGE_LOOP ( 'NONE', ( #142, #245 ) ) ;
#30 = AXIS2_PLACEMENT_3D ( 'NONE', #84, #58, #64 ) ;
#31 = DIRECTION ( 'NONE',  ( 8.659560562354947649E-17, 0.7071067811865464625, -0.7071067811865486830 ) ) ;
#32 = CARTESIAN_POINT ( 'NONE',  ( 0.000000000000000000, 0.1562499999999995004, 0.000000000000000000 ) ) ;
#33 = SURFACE_STYLE_FILL_AREA ( #36 ) ;
#34 =( NAMED_UNIT ( * ) PLANE_ANGLE_UNIT ( ) SI_UNIT ( $, .RADIAN. ) );
#35 = ORIENTED_EDGE ( 'NONE', *, *, #191, .F. ) ;
#36 = FILL_AREA_STYLE ('',( #214 ) ) ;
#37 = CYLINDRICAL_SURFACE ( 'NONE', #263, 0.1562499999999998057 ) ;
#38 = PRESENTATION_LAYER_ASSIGNMENT (  '', '', ( #94 ) ) ;
#39 = AXIS2_PLACEMENT_3D ( 'NONE', #175, #173, #261 ) ;
#40 = EDGE_CURVE ( 'NONE', #120, #243, #239, .T. ) ;
#41 = DIRECTION ( 'NONE',  ( -0.000000000000000000, -1.000000000000000000, -0.000000000000000000 ) ) ;
#42 = ORIENTED_EDGE ( 'NONE', *, *, #3, .F. ) ;
#43 = MECHANICAL_DESIGN_GEOMETRIC_PRESENTATION_REPRESENTATION (  '', ( #115 ), #48 ) ;
#44 = DIRECTION ( 'NONE',  ( 1.000000000000000000, 0.000000000000000000, 0.000000000000000000 ) ) ;
#45 = ADVANCED_FACE ( 'NONE', ( #128 ), #209, .F. ) ;
#46 = PRODUCT_DEFINITION_FORMATION_WITH_SPECIFIED_SOURCE ( 'ANY', '', #195, .NOT_KNOWN. ) ;
#47 = EDGE_CURVE ( 'NONE', #229, #125, #231, .T. ) ;
#48 =( GEOMETRIC_REPRESENTATION_CONTEXT ( 3 ) GLOBAL_UNCERTAINTY_ASSIGNED_CONTEXT ( ( #54 ) ) GLOBAL_UNIT_ASSIGNED_CONTEXT ( ( #232, #34, #1 ) ) REPRESENTATION_CONTEXT ( 'NONE', 'WORKASPACE' ) );
#49 = DIRECTION ( 'NONE',  ( -9.633888153292509464E-17, 1.000000000000000000, -0.000000000000000000 ) ) ;
#50 = FILL_AREA_STYLE ('',( #187 ) ) ;
#51 = CARTESIAN_POINT ( 'NONE',  ( 2.870265935501609472E-16, 0.1562499999999995004, 0.000000000000000000 ) ) ;
#52 = DIRECTION ( 'NONE',  ( -9.633888153292509464E-17, 1.000000000000000000, -0.000000000000000000 ) ) ;
#53 = PRESENTATION_LAYER_ASSIGNMENT (  '', '', ( #115 ) ) ;
#54 = UNCERTAINTY_MEASURE_WITH_UNIT (LENGTH_MEASURE( 1.000000000000000082E-05 ), #232, 'distance_accuracy_value', 'NONE');
#55 = PRESENTATION_STYLE_ASSIGNMENT (( #93 ) ) ;
#56 = ORIENTED_EDGE ( 'NONE', *, *, #47, .T. ) ;
#57 = FILL_AREA_STYLE_COLOUR ( '', #18 ) ;
#58 = DIRECTION ( 'NONE',  ( -9.633888153292509464E-17, 1.000000000000000000, -0.000000000000000000 ) ) ;
#59 = SURFACE_SIDE_STYLE ('',( #14 ) ) ;
#60 =( CONVERSION_BASED_UNIT ( 'INCH', #198 ) LENGTH_UNIT ( ) NAMED_UNIT ( #183 ) );
#61 = EDGE_LOOP ( 'NONE', ( #235, #205, #176 ) ) ;
#62 = ADVANCED_FACE ( 'NONE', ( #112 ), #73, .T. ) ;
#63 = DIMENSIONAL_EXPONENTS ( 1.000000000000000000, 0.000000000000000000, 0.000000000000000000, 0.000000000000000000, 0.000000000000000000, 0.000000000000000000, 0.000000000000000000 ) ;
#64 = DIRECTION ( 'NONE',  ( -1.000000000000000000, 0.000000000000000000, 0.000000000000000000 ) ) ;
#65 = CIRCLE ( 'NONE', #78, 0.1562499999999999722 ) ;
#66 =( CONVERSION_BASED_UNIT ( 'INCH', #150 ) LENGTH_UNIT ( ) NAMED_UNIT ( #111 ) );
#67 = SURFACE_STYLE_FILL_AREA ( #165 ) ;
#68 = CIRCLE ( 'NONE', #107, 0.1562499999999999445 ) ;
#69 = SURFACE_STYLE_USAGE ( .BOTH. , #248 ) ;
#70 = ADVANCED_BREP_SHAPE_REPRESENTATION ( '84777', ( #23, #201, #207 ), #135 ) ;
#71 = ADVANCED_FACE ( 'NONE', ( #213 ), #75, .F. ) ;
#72 = CARTESIAN_POINT ( 'NONE',  ( 1.913510623667739463E-17, 0.1562499999999995004, -0.1562500000000000000 ) ) ;
#73 = CONICAL_SURFACE ( 'NONE', #218, 39.37007874015760223, 0.7853981633974498333 ) ;
#74 = FACE_OUTER_BOUND ( 'NONE', #61, .T. ) ;
#75 = PLANE ( 'NONE',  #17 ) ;
#76 = UNCERTAINTY_MEASURE_WITH_UNIT (LENGTH_MEASURE( 1.000000000000000082E-05 ), #82, 'distance_accuracy_value', 'NONE');
#77 = DIRECTION ( 'NONE',  ( 0.000000000000000000, -0.000000000000000000, 1.000000000000000000 ) ) ;
#78 = AXIS2_PLACEMENT_3D ( 'NONE', #32, #219, #2 ) ;
#79 = CARTESIAN_POINT ( 'NONE',  ( 6.123233995736772199E-17, 2.500000000000000000, 0.000000000000000000 ) ) ;
#80 = CIRCLE ( 'NONE', #39, 0.1562499999999996669 ) ;
#81 = PRESENTATION_LAYER_ASSIGNMENT (  '', '', ( #185 ) ) ;
#82 =( CONVERSION_BASED_UNIT ( 'INCH', #100 ) LENGTH_UNIT ( ) NAMED_UNIT ( #63 ) );
#83 = COLOUR_RGB ( '',1.000000000000000000, 0.000000000000000000, 0.000000000000000000 ) ;
#84 = CARTESIAN_POINT ( 'NONE',  ( 6.123233995736772199E-17, 2.500000000000000000, 0.000000000000000000 ) ) ;
#85 = VECTOR ( 'NONE', #136, 39.37007874015748143 ) ;
#86 = SHAPE_DEFINITION_REPRESENTATION ( #143, #70 ) ;
#87 = ADVANCED_FACE ( 'NONE', ( #255 ), #37, .T. ) ;
#88 = APPLICATION_PROTOCOL_DEFINITION ( 'draft international standard', 'automotive_design', 1998, #105 ) ;
#89 = CARTESIAN_POINT ( 'NONE',  ( 0.000000000000000000, 39.37007874015748143, 0.000000000000000000 ) ) ;
#90 =( GEOMETRIC_REPRESENTATION_CONTEXT ( 3 ) GLOBAL_UNCERTAINTY_ASSIGNED_CONTEXT ( ( #76 ) ) GLOBAL_UNIT_ASSIGNED_CONTEXT ( ( #82, #203, #172 ) ) REPRESENTATION_CONTEXT ( 'NONE', 'WORKASPACE' ) );
#91 = PRESENTATION_STYLE_ASSIGNMENT (( #69 ) ) ;
#92 = ADVANCED_FACE ( 'NONE', ( #114 ), #249, .T. ) ;
#93 = SURFACE_STYLE_USAGE ( .BOTH. , #156 ) ;
#94 = STYLED_ITEM ( 'NONE', ( #91 ), #62 ) ;
#95 = MECHANICAL_DESIGN_GEOMETRIC_PRESENTATION_REPRESENTATION (  '', ( #185 ), #90 ) ;
#96 = DIRECTION ( 'NONE',  ( -9.633888153292509464E-17, 1.000000000000000000, -0.000000000000000000 ) ) ;
#97 = ORIENTED_EDGE ( 'NONE', *, *, #121, .F. ) ;
#98 = DIRECTION ( 'NONE',  ( 0.000000000000000000, 1.000000000000000000, 0.000000000000000000 ) ) ;
#99 = CIRCLE ( 'NONE', #250, 0.1562499999999996669 ) ;
#100 = LENGTH_MEASURE_WITH_UNIT ( LENGTH_MEASURE( 0.02539999999999999897 ), #12 );
#101 = PRESENTATION_STYLE_ASSIGNMENT (( #119 ) ) ;
#102 = CARTESIAN_POINT ( 'NONE',  ( 0.000000000000000000, 0.1562499999999995004, 0.000000000000000000 ) ) ;
#103 =( GEOMETRIC_REPRESENTATION_CONTEXT ( 3 ) GLOBAL_UNCERTAINTY_ASSIGNED_CONTEXT ( ( #6 ) ) GLOBAL_UNIT_ASSIGNED_CONTEXT ( ( #60, #159, #258 ) ) REPRESENTATION_CONTEXT ( 'NONE', 'WORKASPACE' ) );
#104 = DIRECTION ( 'NONE',  ( -9.633888153292509464E-17, 1.000000000000000000, -0.000000000000000000 ) ) ;
#105 = APPLICATION_CONTEXT ( 'automotive_design' ) ;
#106 =( NAMED_UNIT ( * ) SI_UNIT ( $, .STERADIAN. ) SOLID_ANGLE_UNIT ( ) );
#107 = AXIS2_PLACEMENT_3D ( 'NONE', #188, #52, #168 ) ;
#108 = ORIENTED_EDGE ( 'NONE', *, *, #265, .F. ) ;
#109 = COLOUR_RGB ( '',1.000000000000000000, 0.000000000000000000, 0.000000000000000000 ) ;
#110 = ORIENTED_EDGE ( 'NONE', *, *, #174, .F. ) ;
#111 = DIMENSIONAL_EXPONENTS ( 1.000000000000000000, 0.000000000000000000, 0.000000000000000000, 0.000000000000000000, 0.000000000000000000, 0.000000000000000000, 0.000000000000000000 ) ;
#112 = FACE_OUTER_BOUND ( 'NONE', #253, .T. ) ;
#113 = CARTESIAN_POINT ( 'NONE',  ( 0.000000000000000000, 0.000000000000000000, 0.000000000000000000 ) ) ;
#114 = FACE_OUTER_BOUND ( 'NONE', #193, .T. ) ;
#115 = STYLED_ITEM ( 'NONE', ( #55 ), #92 ) ;
#116 = CARTESIAN_POINT ( 'NONE',  ( 0.000000000000000000, 0.1562499999999995004, 0.000000000000000000 ) ) ;
#117 = ORIENTED_EDGE ( 'NONE', *, *, #40, .T. ) ;
#118 = LINE ( 'NONE', #113, #85 ) ;
#119 = SURFACE_STYLE_USAGE ( .BOTH. , #138 ) ;
#120 = VERTEX_POINT ( 'NONE', #234 ) ;
#121 = EDGE_CURVE ( 'NONE', #242, #243, #68, .T. ) ;
#122 = LINE ( 'NONE', #22, #166 ) ;
#123 = CLOSED_SHELL ( 'NONE', ( #62, #92, #180 ) ) ;
#124 = CARTESIAN_POINT ( 'NONE',  ( 0.000000000000000000, 0.000000000000000000, 0.000000000000000000 ) ) ;
#125 = VERTEX_POINT ( 'NONE', #72 ) ;
#126 = DIRECTION ( 'NONE',  ( 1.000000000000000000, 9.633888153292509464E-17, 0.000000000000000000 ) ) ;
#127 = CARTESIAN_POINT ( 'NONE',  ( 0.1562500000000000000, 2.500000000000000000, 0.000000000000000000 ) ) ;
#128 = FACE_OUTER_BOUND ( 'NONE', #29, .T. ) ;
#129 = APPLICATION_CONTEXT ( 'automotive_design' ) ;
#130 =( GEOMETRIC_REPRESENTATION_CONTEXT ( 3 ) GLOBAL_UNCERTAINTY_ASSIGNED_CONTEXT ( ( #257 ) ) GLOBAL_UNIT_ASSIGNED_CONTEXT ( ( #164, #181, #146 ) ) REPRESENTATION_CONTEXT ( 'NONE', 'WORKASPACE' ) );
#131 = DIRECTION ( 'NONE',  ( -1.000000000000000000, 0.000000000000000000, 0.000000000000000000 ) ) ;
#132 = ADVANCED_FACE ( 'NONE', ( #194 ), #251, .T. ) ;
#133 = UNCERTAINTY_MEASURE_WITH_UNIT (LENGTH_MEASURE( 1.000000000000000082E-05 ), #66, 'distance_accuracy_value', 'NONE');
#134 = COLOUR_RGB ( '',0.7921568627450980005, 0.8196078431372548767, 0.9333333333333333481 ) ;
#135 =( GEOMETRIC_REPRESENTATION_CONTEXT ( 3 ) GLOBAL_UNCERTAINTY_ASSIGNED_CONTEXT ( ( #133 ) ) GLOBAL_UNIT_ASSIGNED_CONTEXT ( ( #66, #21, #106 ) ) REPRESENTATION_CONTEXT ( 'NONE', 'WORKASPACE' ) );
#136 = DIRECTION ( 'NONE',  ( 0.000000000000000000, 0.7071067811865464625, 0.7071067811865486830 ) ) ;
#137 = EDGE_LOOP ( 'NONE', ( #210, #204, #220, #169 ) ) ;
#138 = SURFACE_SIDE_STYLE ('',( #16 ) ) ;
#139 = MECHANICAL_DESIGN_GEOMETRIC_PRESENTATION_REPRESENTATION (  '', ( #155 ), #130 ) ;
#140 = FILL_AREA_STYLE_COLOUR ( '', #134 ) ;
#141 = SURFACE_STYLE_USAGE ( .BOTH. , #59 ) ;
#142 = ORIENTED_EDGE ( 'NONE', *, *, #121, .T. ) ;
#143 = PRODUCT_DEFINITION_SHAPE ( 'NONE', 'NONE',  #145 ) ;
#144 = DIRECTION ( 'NONE',  ( 0.000000000000000000, 0.000000000000000000, 1.000000000000000000 ) ) ;
#145 = PRODUCT_DEFINITION ( 'UNKNOWN', '', #46, #230 ) ;
#146 =( NAMED_UNIT ( * ) SI_UNIT ( $, .STERADIAN. ) SOLID_ANGLE_UNIT ( ) );
#147 = PRESENTATION_LAYER_ASSIGNMENT (  '', '', ( #155 ) ) ;
#148 = EDGE_CURVE ( 'NONE', #125, #20, #65, .T. ) ;
#149 = ORIENTED_EDGE ( 'NONE', *, *, #148, .F. ) ;
#150 = LENGTH_MEASURE_WITH_UNIT ( LENGTH_MEASURE( 0.02539999999999999897 ), #244 );
#151 = CARTESIAN_POINT ( 'NONE',  ( 6.123233995736772199E-17, 2.500000000000000000, 0.000000000000000000 ) ) ;
#152 = PRESENTATION_LAYER_ASSIGNMENT (  '', '', ( #177 ) ) ;
#153 = DIRECTION ( 'NONE',  ( 0.000000000000000000, 1.000000000000000000, 0.000000000000000000 ) ) ;
#154 = ORIENTED_EDGE ( 'NONE', *, *, #252, .F. ) ;
#155 = STYLED_ITEM ( 'NONE', ( #101 ), #23 ) ;
#156 = SURFACE_SIDE_STYLE ('',( #170 ) ) ;
#157 = CARTESIAN_POINT ( 'NONE',  ( 0.000000000000000000, 0.000000000000000000, 0.000000000000000000 ) ) ;
#158 = CLOSED_SHELL ( 'NONE', ( #132, #71, #87, #45 ) ) ;
#159 =( NAMED_UNIT ( * ) PLANE_ANGLE_UNIT ( ) SI_UNIT ( $, .RADIAN. ) );
#160 = EDGE_LOOP ( 'NONE', ( #35, #108 ) ) ;
#161 =( GEOMETRIC_REPRESENTATION_CONTEXT ( 3 ) GLOBAL_UNCERTAINTY_ASSIGNED_CONTEXT ( ( #215 ) ) GLOBAL_UNIT_ASSIGNED_CONTEXT ( ( #246, #25, #227 ) ) REPRESENTATION_CONTEXT ( 'NONE', 'WORKASPACE' ) );
#162 = LENGTH_MEASURE_WITH_UNIT ( LENGTH_MEASURE( 0.02539999999999999897 ), #226 );
#163 = FILL_AREA_STYLE_COLOUR ( '', #224 ) ;
#164 =( CONVERSION_BASED_UNIT ( 'INCH', #26 ) LENGTH_UNIT ( ) NAMED_UNIT ( #27 ) );
#165 = FILL_AREA_STYLE ('',( #163 ) ) ;
#166 = VECTOR ( 'NONE', #262, 39.37007874015748143 ) ;
#167 = DIRECTION ( 'NONE',  ( 9.633888153292509464E-17, -1.000000000000000000, 0.000000000000000000 ) ) ;
#168 = DIRECTION ( 'NONE',  ( -1.000000000000000000, 0.000000000000000000, 0.000000000000000000 ) ) ;
#169 = ORIENTED_EDGE ( 'NONE', *, *, #8, .F. ) ;
#170 = SURFACE_STYLE_FILL_AREA ( #50 ) ;
#171 = DIRECTION ( 'NONE',  ( 0.000000000000000000, 1.000000000000000000, 0.000000000000000000 ) ) ;
#172 =( NAMED_UNIT ( * ) SI_UNIT ( $, .STERADIAN. ) SOLID_ANGLE_UNIT ( ) );
#173 = DIRECTION ( 'NONE',  ( -9.633888153292509464E-17, 1.000000000000000000, -0.000000000000000000 ) ) ;
#174 = EDGE_CURVE ( 'NONE', #229, #20, #118, .T. ) ;
#175 = CARTESIAN_POINT ( 'NONE',  ( 2.870265935501609472E-16, 0.1562499999999994726, 0.000000000000000000 ) ) ;
#176 = ORIENTED_EDGE ( 'NONE', *, *, #252, .T. ) ;
#177 = STYLED_ITEM ( 'NONE', ( #4 ), #180 ) ;
#178 = CARTESIAN_POINT ( 'NONE',  ( 0.1562499999999998612, 2.500000000000000000, 1.913510623667736998E-17 ) ) ;
#179 = PRODUCT_CONTEXT ( 'NONE', #105, 'mechanical' ) ;
#180 = ADVANCED_FACE ( 'NONE', ( #74 ), #211, .T. ) ;
#181 =( NAMED_UNIT ( * ) PLANE_ANGLE_UNIT ( ) SI_UNIT ( $, .RADIAN. ) );
#182 = CARTESIAN_POINT ( 'NONE',  ( 0.000000000000000000, 0.000000000000000000, 0.000000000000000000 ) ) ;
#183 = DIMENSIONAL_EXPONENTS ( 1.000000000000000000, 0.000000000000000000, 0.000000000000000000, 0.000000000000000000, 0.000000000000000000, 0.000000000000000000, 0.000000000000000000 ) ;
#184 = CIRCLE ( 'NONE', #30, 0.1562499999999999445 ) ;
#185 = STYLED_ITEM ( 'NONE', ( #256 ), #201 ) ;
#186 = EDGE_LOOP ( 'NONE', ( #28, #117, #97, #42 ) ) ;
#187 = FILL_AREA_STYLE_COLOUR ( '', #83 ) ;
#188 = CARTESIAN_POINT ( 'NONE',  ( 6.123233995736772199E-17, 2.500000000000000000, 0.000000000000000000 ) ) ;
#189 = SURFACE_SIDE_STYLE ('',( #33 ) ) ;
#190 = MECHANICAL_DESIGN_GEOMETRIC_PRESENTATION_REPRESENTATION (  '', ( #94 ), #161 ) ;
#191 = EDGE_CURVE ( 'NONE', #217, #120, #99, .T. ) ;
#192 = DIRECTION ( 'NONE',  ( -9.633888153292509464E-17, 1.000000000000000000, 0.000000000000000000 ) ) ;
#193 = EDGE_LOOP ( 'NONE', ( #154, #149 ) ) ;
#194 = FACE_OUTER_BOUND ( 'NONE', #186, .T. ) ;
#195 = PRODUCT ( '84777', '84777', '', ( #179 ) ) ;
#196 = FILL_AREA_STYLE ('',( #57 ) ) ;
#197 = VECTOR ( 'NONE', #228, 39.37007874015748143 ) ;
#198 = LENGTH_MEASURE_WITH_UNIT ( LENGTH_MEASURE( 0.02539999999999999897 ), #238 );
#199 = DIRECTION ( 'NONE',  ( 0.000000000000000000, 0.000000000000000000, -1.000000000000000000 ) ) ;
#200 = CARTESIAN_POINT ( 'NONE',  ( -0.1562499999999998612, 2.500000000000000000, 0.000000000000000000 ) ) ;
#201 = MANIFOLD_SOLID_BREP ( 'Revolve - Tool Body (Pointed)', #158 ) ;
#202 = AXIS2_PLACEMENT_3D ( 'NONE', #116, #98, #77 ) ;
#203 =( NAMED_UNIT ( * ) PLANE_ANGLE_UNIT ( ) SI_UNIT ( $, .RADIAN. ) );
#204 = ORIENTED_EDGE ( 'NONE', *, *, #265, .T. ) ;
#205 = ORIENTED_EDGE ( 'NONE', *, *, #174, .T. ) ;
#206 = AXIS2_PLACEMENT_3D ( 'NONE', #151, #49, #131 ) ;
#207 = AXIS2_PLACEMENT_3D ( 'NONE', #124, #24, #44 ) ;
#208 = APPLICATION_PROTOCOL_DEFINITION ( 'draft international standard', 'automotive_design', 1998, #129 ) ;
#209 = PLANE ( 'NONE',  #11 ) ;
#210 = ORIENTED_EDGE ( 'NONE', *, *, #40, .F. ) ;
#211 = CONICAL_SURFACE ( 'NONE', #236, 39.37007874015760223, 0.7853981633974498333 ) ;
#212 = DIMENSIONAL_EXPONENTS ( 1.000000000000000000, 0.000000000000000000, 0.000000000000000000, 0.000000000000000000, 0.000000000000000000, 0.000000000000000000, 0.000000000000000000 ) ;
#213 = FACE_OUTER_BOUND ( 'NONE', #160, .T. ) ;
#214 = FILL_AREA_STYLE_COLOUR ( '', #109 ) ;
#215 = UNCERTAINTY_MEASURE_WITH_UNIT (LENGTH_MEASURE( 1.000000000000000082E-05 ), #246, 'distance_accuracy_value', 'NONE');
#216 = LENGTH_MEASURE_WITH_UNIT ( LENGTH_MEASURE( 0.02539999999999999897 ), #7 );
#217 = VERTEX_POINT ( 'NONE', #19 ) ;
#218 = AXIS2_PLACEMENT_3D ( 'NONE', #89, #153, #254 ) ;
#219 = DIRECTION ( 'NONE',  ( -0.000000000000000000, -1.000000000000000000, -0.000000000000000000 ) ) ;
#220 = ORIENTED_EDGE ( 'NONE', *, *, #3, .T. ) ;
#221 = DIRECTION ( 'NONE',  ( -1.000000000000000000, -9.633888153292509464E-17, 0.000000000000000000 ) ) ;
#222 = CARTESIAN_POINT ( 'NONE',  ( 0.1562500000000000000, 2.500000000000000000, 1.913510623667737923E-17 ) ) ;
#223 = FILL_AREA_STYLE ('',( #140 ) ) ;
#224 = COLOUR_RGB ( '',1.000000000000000000, 0.000000000000000000, 0.000000000000000000 ) ;
#225 = CARTESIAN_POINT ( 'NONE',  ( 2.870265935501609472E-16, 0.1562499999999994726, 0.000000000000000000 ) ) ;
#226 =( LENGTH_UNIT ( ) NAMED_UNIT ( * ) SI_UNIT ( $, .METRE. ) );
#227 =( NAMED_UNIT ( * ) SI_UNIT ( $, .STERADIAN. ) SOLID_ANGLE_UNIT ( ) );
#228 = DIRECTION ( 'NONE',  ( -9.633888153292509464E-17, 1.000000000000000000, -0.000000000000000000 ) ) ;
#229 = VERTEX_POINT ( 'NONE', #157 ) ;
#230 = PRODUCT_DEFINITION_CONTEXT ( 'detailed design', #129, 'design' ) ;
#231 = LINE ( 'NONE', #182, #260 ) ;
#232 =( CONVERSION_BASED_UNIT ( 'INCH', #216 ) LENGTH_UNIT ( ) NAMED_UNIT ( #212 ) );
#233 = CARTESIAN_POINT ( 'NONE',  ( 0.000000000000000000, 39.37007874015748143, 0.000000000000000000 ) ) ;
#234 = CARTESIAN_POINT ( 'NONE',  ( 0.1562499999999999445, 0.1562499999999994726, 1.913510623667737614E-17 ) ) ;
#235 = ORIENTED_EDGE ( 'NONE', *, *, #47, .F. ) ;
#236 = AXIS2_PLACEMENT_3D ( 'NONE', #233, #171, #144 ) ;
#237 = DIRECTION ( 'NONE',  ( -1.000000000000000000, 0.000000000000000000, 0.000000000000000000 ) ) ;
#238 =( LENGTH_UNIT ( ) NAMED_UNIT ( * ) SI_UNIT ( $, .METRE. ) );
#239 = LINE ( 'NONE', #178, #197 ) ;
#240 = MECHANICAL_DESIGN_GEOMETRIC_PRESENTATION_REPRESENTATION (  '', ( #177 ), #103 ) ;
#241 = DIRECTION ( 'NONE',  ( -1.000000000000000000, 0.000000000000000000, 0.000000000000000000 ) ) ;
#242 = VERTEX_POINT ( 'NONE', #200 ) ;
#243 = VERTEX_POINT ( 'NONE', #222 ) ;
#244 =( LENGTH_UNIT ( ) NAMED_UNIT ( * ) SI_UNIT ( $, .METRE. ) );
#245 = ORIENTED_EDGE ( 'NONE', *, *, #8, .T. ) ;
#246 =( CONVERSION_BASED_UNIT ( 'INCH', #162 ) LENGTH_UNIT ( ) NAMED_UNIT ( #264 ) );
#247 = AXIS2_PLACEMENT_3D ( 'NONE', #102, #41, #199 ) ;
#248 = SURFACE_SIDE_STYLE ('',( #67 ) ) ;
#249 = PLANE ( 'NONE',  #202 ) ;
#250 = AXIS2_PLACEMENT_3D ( 'NONE', #225, #104, #241 ) ;
#251 = CYLINDRICAL_SURFACE ( 'NONE', #206, 0.1562499999999998057 ) ;
#252 = EDGE_CURVE ( 'NONE', #20, #125, #5, .T. ) ;
#253 = EDGE_LOOP ( 'NONE', ( #110, #56, #13 ) ) ;
#254 = DIRECTION ( 'NONE',  ( 0.000000000000000000, 0.000000000000000000, 1.000000000000000000 ) ) ;
#255 = FACE_OUTER_BOUND ( 'NONE', #137, .T. ) ;
#256 = PRESENTATION_STYLE_ASSIGNMENT (( #141 ) ) ;
#257 = UNCERTAINTY_MEASURE_WITH_UNIT (LENGTH_MEASURE( 1.000000000000000082E-05 ), #164, 'distance_accuracy_value', 'NONE');
#258 =( NAMED_UNIT ( * ) SI_UNIT ( $, .STERADIAN. ) SOLID_ANGLE_UNIT ( ) );
#259 = CARTESIAN_POINT ( 'NONE',  ( 0.000000000000000000, 0.1562499999999995004, 0.1562500000000000000 ) ) ;
#260 = VECTOR ( 'NONE', #31, 39.37007874015748143 ) ;
#261 = DIRECTION ( 'NONE',  ( -1.000000000000000000, 0.000000000000000000, 0.000000000000000000 ) ) ;
#262 = DIRECTION ( 'NONE',  ( -9.633888153292509464E-17, 1.000000000000000000, -0.000000000000000000 ) ) ;
#263 = AXIS2_PLACEMENT_3D ( 'NONE', #79, #96, #237 ) ;
#264 = DIMENSIONAL_EXPONENTS ( 1.000000000000000000, 0.000000000000000000, 0.000000000000000000, 0.000000000000000000, 0.000000000000000000, 0.000000000000000000, 0.000000000000000000 ) ;
#265 = EDGE_CURVE ( 'NONE', #120, #217, #80, .T. ) ;
ENDSEC;
END-ISO-10303-21;
