ISO-10303-21;
HEADER;
FILE_DESCRIPTION (( 'STEP AP214' ),
    '1' );
FILE_NAME ('Micro_BMR-016-2X.STEP',
    '2021-09-03T13:46:37',
    ( '' ),
    ( '' ),
    'SwSTEP 2.0',
    'SolidWorks 2020',
    '' );
FILE_SCHEMA (( 'AUTOMOTIVE_DESIGN' ));
ENDSEC;

DATA;
#1 = ORIENTED_EDGE ( 'NONE', *, *, #87, .T. ) ;
#2 = DIRECTION ( 'NONE',  ( -1.000000000000000000, 0.0000000000000000000, 0.0000000000000000000 ) ) ;
#3 = EDGE_CURVE ( 'NONE', #276, #144, #110, .T. ) ;
#4 = AXIS2_PLACEMENT_3D ( 'NONE', #18, #316, #23 ) ;
#5 =( NAMED_UNIT ( * ) PLANE_ANGLE_UNIT ( ) SI_UNIT ( $, .RADIAN. ) );
#6 = ADVANCED_FACE ( 'NONE', ( #261 ), #66, .T. ) ;
#7 =( LENGTH_UNIT ( ) NAMED_UNIT ( * ) SI_UNIT ( $, .METRE. ) );
#8 = DIRECTION ( 'NONE',  ( -0.0000000000000000000, -0.0000000000000000000, -1.000000000000000000 ) ) ;
#9 = CARTESIAN_POINT ( 'NONE',  ( 5.878304635907297015E-18, 0.0000000000000000000, 0.04800000000000000100 ) ) ;
#10 = FILL_AREA_STYLE ('',( #42 ) ) ;
#11 = DIRECTION ( 'NONE',  ( 0.0000000000000000000, -1.000000000000000000, 0.0000000000000000000 ) ) ;
#12 =( CONVERSION_BASED_UNIT ( 'INCH', #321 ) LENGTH_UNIT ( ) NAMED_UNIT ( #270 ) );
#13 = FACE_OUTER_BOUND ( 'NONE', #108, .T. ) ;
#14 =( NAMED_UNIT ( * ) PLANE_ANGLE_UNIT ( ) SI_UNIT ( $, .RADIAN. ) );
#15 = UNCERTAINTY_MEASURE_WITH_UNIT (LENGTH_MEASURE( 1.000000000000000082E-05 ), #12, 'distance_accuracy_value', 'NONE');
#16 = CARTESIAN_POINT ( 'NONE',  ( 0.04750000000000064587, 5.817072295950006528E-18, 1.500000000000000222 ) ) ;
#17 = DIMENSIONAL_EXPONENTS ( 1.000000000000000000, 0.0000000000000000000, 0.0000000000000000000, 0.0000000000000000000, 0.0000000000000000000, 0.0000000000000000000, 0.0000000000000000000 ) ;
#18 = CARTESIAN_POINT ( 'NONE',  ( 4.373583923425194285E-17, 0.0000000000000000000, 0.3571302294237206354 ) ) ;
#19 =( LENGTH_UNIT ( ) NAMED_UNIT ( * ) SI_UNIT ( $, .METRE. ) );
#20 = EDGE_CURVE ( 'NONE', #279, #144, #277, .T. ) ;
#21 = DIRECTION ( 'NONE',  ( -1.000000000000000000, 1.224646799147353207E-16, 0.0000000000000000000 ) ) ;
#22 = DIRECTION ( 'NONE',  ( 0.0000000000000000000, 0.0000000000000000000, -1.000000000000000000 ) ) ;
#23 = DIRECTION ( 'NONE',  ( 1.000000000000000000, 0.0000000000000000000, 0.0000000000000000000 ) ) ;
#24 = VERTEX_POINT ( 'NONE', #113 ) ;
#25 = DIMENSIONAL_EXPONENTS ( 1.000000000000000000, 0.0000000000000000000, 0.0000000000000000000, 0.0000000000000000000, 0.0000000000000000000, 0.0000000000000000000, 0.0000000000000000000 ) ;
#26 = VERTEX_POINT ( 'NONE', #280 ) ;
#27 = DIRECTION ( 'NONE',  ( -1.224646799147353454E-16, -0.0000000000000000000, -1.000000000000000000 ) ) ;
#28 = ORIENTED_EDGE ( 'NONE', *, *, #238, .T. ) ;
#29 = AXIS2_PLACEMENT_3D ( 'NONE', #9, #205, #310 ) ;
#30 = ADVANCED_FACE ( 'NONE', ( #56 ), #233, .T. ) ;
#31 = CARTESIAN_POINT ( 'NONE',  ( 0.04750000000000064587, 6.735557395310483192E-18, 1.500000000000000222 ) ) ;
#32 = ORIENTED_EDGE ( 'NONE', *, *, #209, .F. ) ;
#33 = DIRECTION ( 'NONE',  ( 1.000000000000000000, 0.0000000000000000000, 0.0000000000000000000 ) ) ;
#34 = AXIS2_PLACEMENT_3D ( 'NONE', #264, #168, #33 ) ;
#35 = CIRCLE ( 'NONE', #68, 0.06250000000000002776 ) ;
#36 = PRESENTATION_LAYER_ASSIGNMENT (  '', '', ( #318 ) ) ;
#37 = CARTESIAN_POINT ( 'NONE',  ( 0.007992000000000007778, 0.0000000000000000000, 0.04800000000000000100 ) ) ;
#38 = ORIENTED_EDGE ( 'NONE', *, *, #243, .T. ) ;
#39 = CARTESIAN_POINT ( 'NONE',  ( -0.06250000000000002776, 0.0000000000000000000, 1.500000000000000222 ) ) ;
#40 = EDGE_CURVE ( 'NONE', #212, #26, #103, .T. ) ;
#41 = DIRECTION ( 'NONE',  ( 0.0000000000000000000, 0.0000000000000000000, -1.000000000000000000 ) ) ;
#42 = FILL_AREA_STYLE_COLOUR ( '', #220 ) ;
#43 = CARTESIAN_POINT ( 'NONE',  ( 9.787377218785650228E-19, 0.0000000000000000000, 0.007992000000000000839 ) ) ;
#44 = CARTESIAN_POINT ( 'NONE',  ( 9.787377218785650228E-19, 0.0000000000000000000, 0.007992000000000000839 ) ) ;
#45 = AXIS2_PLACEMENT_3D ( 'NONE', #44, #11, #41 ) ;
#46 = CIRCLE ( 'NONE', #278, 0.06250000000000002776 ) ;
#47 = CARTESIAN_POINT ( 'NONE',  ( 4.373583923425194285E-17, 0.0000000000000000000, 0.3571302294237206354 ) ) ;
#48 = FACE_OUTER_BOUND ( 'NONE', #171, .T. ) ;
#49 = ORIENTED_EDGE ( 'NONE', *, *, #202, .F. ) ;
#50 = AXIS2_PLACEMENT_3D ( 'NONE', #248, #222, #228 ) ;
#51 = CARTESIAN_POINT ( 'NONE',  ( 0.0000000000000000000, 0.0000000000000000000, 1.500000000000000222 ) ) ;
#52 = ADVANCED_FACE ( 'NONE', ( #74 ), #244, .T. ) ;
#53 = CONICAL_SURFACE ( 'NONE', #34, 0.007992000000000002574, 0.1745329251994338637 ) ;
#54 = VECTOR ( 'NONE', #217, 39.37007874015748143 ) ;
#55 = EDGE_LOOP ( 'NONE', ( #307, #57, #184, #140 ) ) ;
#56 = FACE_OUTER_BOUND ( 'NONE', #272, .T. ) ;
#57 = ORIENTED_EDGE ( 'NONE', *, *, #112, .T. ) ;
#58 = EDGE_CURVE ( 'NONE', #193, #109, #35, .T. ) ;
#59 = CARTESIAN_POINT ( 'NONE',  ( 0.0000000000000000000, 0.0000000000000000000, 0.0000000000000000000 ) ) ;
#60 = DIRECTION ( 'NONE',  ( 0.0000000000000000000, 0.0000000000000000000, 1.000000000000000000 ) ) ;
#61 = COLOUR_RGB ( '',0.7921568627450980005, 0.8196078431372548767, 0.9333333333333333481 ) ;
#62 = AXIS2_PLACEMENT_3D ( 'NONE', #223, #294, #146 ) ;
#63 = CARTESIAN_POINT ( 'NONE',  ( 0.0000000000000000000, 0.0000000000000000000, 1.500000000000000222 ) ) ;
#64 = ADVANCED_FACE ( 'NONE', ( #13 ), #152, .T. ) ;
#65 = DIRECTION ( 'NONE',  ( 1.000000000000000000, 0.0000000000000000000, 0.0000000000000000000 ) ) ;
#66 = SPHERICAL_SURFACE ( 'NONE', #281, 0.007992000000000000839 ) ;
#67 = SURFACE_STYLE_USAGE ( .BOTH. , #227 ) ;
#68 = AXIS2_PLACEMENT_3D ( 'NONE', #47, #27, #175 ) ;
#69 = SURFACE_STYLE_FILL_AREA ( #145 ) ;
#70 = EDGE_CURVE ( 'NONE', #218, #212, #299, .T. ) ;
#71 = APPLICATION_CONTEXT ( 'automotive_design' ) ;
#72 = EDGE_LOOP ( 'NONE', ( #132, #156 ) ) ;
#73 = DIRECTION ( 'NONE',  ( -0.1736481776669311639, 2.126576849575783008E-17, 0.9848077530122080203 ) ) ;
#74 = FACE_OUTER_BOUND ( 'NONE', #92, .T. ) ;
#75 = ORIENTED_EDGE ( 'NONE', *, *, #191, .T. ) ;
#76 = EDGE_CURVE ( 'NONE', #77, #142, #256, .T. ) ;
#77 = VERTEX_POINT ( 'NONE', #293 ) ;
#78 = AXIS2_PLACEMENT_3D ( 'NONE', #303, #117, #2 ) ;
#79 = AXIS2_PLACEMENT_3D ( 'NONE', #317, #301, #89 ) ;
#80 = VECTOR ( 'NONE', #8, 39.37007874015748143 ) ;
#81 = PRODUCT_DEFINITION ( 'UNKNOWN', '', #186, #320 ) ;
#82 = ORIENTED_EDGE ( 'NONE', *, *, #139, .F. ) ;
#83 = PRODUCT_DEFINITION_SHAPE ( 'NONE', 'NONE',  #81 ) ;
#84 = CARTESIAN_POINT ( 'NONE',  ( 0.0000000000000000000, 0.0000000000000000000, 1.485000000000000764 ) ) ;
#85 = ORIENTED_EDGE ( 'NONE', *, *, #238, .F. ) ;
#86 = AXIS2_PLACEMENT_3D ( 'NONE', #59, #164, #257 ) ;
#87 = EDGE_CURVE ( 'NONE', #109, #193, #211, .T. ) ;
#88 = DIRECTION ( 'NONE',  ( 1.000000000000000000, 0.0000000000000000000, 0.0000000000000000000 ) ) ;
#89 = DIRECTION ( 'NONE',  ( -1.000000000000000000, 0.0000000000000000000, 1.335245398554932983E-16 ) ) ;
#90 = PLANE ( 'NONE',  #97 ) ;
#91 = ORIENTED_EDGE ( 'NONE', *, *, #3, .F. ) ;
#92 = EDGE_LOOP ( 'NONE', ( #91, #174, #82 ) ) ;
#93 = DIRECTION ( 'NONE',  ( 0.0000000000000000000, 0.0000000000000000000, 1.000000000000000000 ) ) ;
#94 = ORIENTED_EDGE ( 'NONE', *, *, #76, .T. ) ;
#95 = DIRECTION ( 'NONE',  ( -0.7071067811865462405, 0.0000000000000000000, -0.7071067811865486830 ) ) ;
#96 = DIRECTION ( 'NONE',  ( -1.000000000000000000, 0.0000000000000000000, 1.224646799147353454E-16 ) ) ;
#97 = AXIS2_PLACEMENT_3D ( 'NONE', #194, #60, #165 ) ;
#98 = CARTESIAN_POINT ( 'NONE',  ( 9.787377218785650228E-19, 0.0000000000000000000, 0.007992000000000000839 ) ) ;
#99 = STYLED_ITEM ( 'NONE', ( #176 ), #300 ) ;
#100 = SURFACE_SIDE_STYLE ('',( #149 ) ) ;
#101 = DIRECTION ( 'NONE',  ( 1.000000000000000000, 0.0000000000000000000, 0.0000000000000000000 ) ) ;
#102 = DIRECTION ( 'NONE',  ( 1.000000000000000000, 0.0000000000000000000, 0.0000000000000000000 ) ) ;
#103 = LINE ( 'NONE', #106, #125 ) ;
#104 = CARTESIAN_POINT ( 'NONE',  ( -0.007992000000000000839, 0.0000000000000000000, 0.007992000000000002574 ) ) ;
#105 = DIRECTION ( 'NONE',  ( 1.000000000000000000, 0.0000000000000000000, 0.0000000000000000000 ) ) ;
#106 = CARTESIAN_POINT ( 'NONE',  ( -0.04750000000000064587, 0.0000000000000000000, 1.500000000000000222 ) ) ;
#107 = EDGE_CURVE ( 'NONE', #276, #279, #241, .T. ) ;
#108 = EDGE_LOOP ( 'NONE', ( #32, #28, #258, #231 ) ) ;
#109 = VERTEX_POINT ( 'NONE', #120 ) ;
#110 = CIRCLE ( 'NONE', #215, 0.007992000000000000839 ) ;
#111 = ORIENTED_EDGE ( 'NONE', *, *, #210, .T. ) ;
#112 = EDGE_CURVE ( 'NONE', #142, #77, #247, .T. ) ;
#113 = CARTESIAN_POINT ( 'NONE',  ( 0.06250000000000002776, 7.654042494670959086E-18, 1.485000000000000764 ) ) ;
#114 = SURFACE_STYLE_USAGE ( .BOTH. , #100 ) ;
#115 = AXIS2_PLACEMENT_3D ( 'NONE', #84, #239, #189 ) ;
#116 = AXIS2_PLACEMENT_3D ( 'NONE', #43, #313, #105 ) ;
#117 = DIRECTION ( 'NONE',  ( 0.0000000000000000000, 0.0000000000000000000, -1.000000000000000000 ) ) ;
#118 = LINE ( 'NONE', #39, #80 ) ;
#119 = ORIENTED_EDGE ( 'NONE', *, *, #160, .T. ) ;
#120 = CARTESIAN_POINT ( 'NONE',  ( -0.06249999999999997918, 0.0000000000000000000, 0.3571302294237206354 ) ) ;
#121 = AXIS2_PLACEMENT_3D ( 'NONE', #51, #251, #129 ) ;
#122 = CARTESIAN_POINT ( 'NONE',  ( 0.007992000000000007778, 0.0000000000000000000, 0.04800000000000000100 ) ) ;
#123 = SHAPE_DEFINITION_REPRESENTATION ( #83, #300 ) ;
#124 = MECHANICAL_DESIGN_GEOMETRIC_PRESENTATION_REPRESENTATION (  '', ( #318 ), #322 ) ;
#125 = VECTOR ( 'NONE', #95, 39.37007874015748854 ) ;
#126 = DIRECTION ( 'NONE',  ( -1.000000000000000000, 0.0000000000000000000, 0.0000000000000000000 ) ) ;
#127 = DIRECTION ( 'NONE',  ( -0.0000000000000000000, -0.0000000000000000000, -1.000000000000000000 ) ) ;
#128 = EDGE_CURVE ( 'NONE', #77, #144, #196, .T. ) ;
#129 = DIRECTION ( 'NONE',  ( -1.000000000000000000, 0.0000000000000000000, 0.0000000000000000000 ) ) ;
#130 = ORIENTED_EDGE ( 'NONE', *, *, #159, .T. ) ;
#131 = EDGE_LOOP ( 'NONE', ( #167, #134, #236 ) ) ;
#132 = ORIENTED_EDGE ( 'NONE', *, *, #202, .T. ) ;
#133 = ADVANCED_FACE ( 'NONE', ( #289 ), #324, .T. ) ;
#134 = ORIENTED_EDGE ( 'NONE', *, *, #3, .T. ) ;
#135 = PRODUCT ( 'Micro_BMR-016-2X', 'Micro_BMR-016-2X', '', ( #206 ) ) ;
#136 = VECTOR ( 'NONE', #178, 39.37007874015748854 ) ;
#137 =( CONVERSION_BASED_UNIT ( 'INCH', #283 ) LENGTH_UNIT ( ) NAMED_UNIT ( #25 ) );
#138 = DIRECTION ( 'NONE',  ( -0.0000000000000000000, -0.0000000000000000000, -1.000000000000000000 ) ) ;
#139 = EDGE_CURVE ( 'NONE', #144, #279, #288, .T. ) ;
#140 = ORIENTED_EDGE ( 'NONE', *, *, #139, .T. ) ;
#141 = FACE_OUTER_BOUND ( 'NONE', #232, .T. ) ;
#142 = VERTEX_POINT ( 'NONE', #122 ) ;
#143 = FACE_OUTER_BOUND ( 'NONE', #162, .T. ) ;
#144 = VERTEX_POINT ( 'NONE', #104 ) ;
#145 = FILL_AREA_STYLE ('',( #203 ) ) ;
#146 = DIRECTION ( 'NONE',  ( -1.000000000000000000, 0.0000000000000000000, 0.0000000000000000000 ) ) ;
#147 =( GEOMETRIC_REPRESENTATION_CONTEXT ( 3 ) GLOBAL_UNCERTAINTY_ASSIGNED_CONTEXT ( ( #15 ) ) GLOBAL_UNIT_ASSIGNED_CONTEXT ( ( #12, #172, #153 ) ) REPRESENTATION_CONTEXT ( 'NONE', 'WORKASPACE' ) );
#148 = ADVANCED_FACE ( 'NONE', ( #292 ), #201, .T. ) ;
#149 = SURFACE_STYLE_FILL_AREA ( #10 ) ;
#150 = CARTESIAN_POINT ( 'NONE',  ( 9.787377218785650228E-19, 0.0000000000000000000, 0.007992000000000000839 ) ) ;
#151 = LINE ( 'NONE', #16, #136 ) ;
#152 = CYLINDRICAL_SURFACE ( 'NONE', #173, 0.06250000000000002776 ) ;
#153 =( NAMED_UNIT ( * ) SI_UNIT ( $, .STERADIAN. ) SOLID_ANGLE_UNIT ( ) );
#154 = PRESENTATION_LAYER_ASSIGNMENT (  '', '', ( #99 ) ) ;
#155 =( LENGTH_UNIT ( ) NAMED_UNIT ( * ) SI_UNIT ( $, .METRE. ) );
#156 = ORIENTED_EDGE ( 'NONE', *, *, #70, .T. ) ;
#157 = EDGE_LOOP ( 'NONE', ( #94, #111, #181, #240 ) ) ;
#158 = AXIS2_PLACEMENT_3D ( 'NONE', #199, #245, #102 ) ;
#159 = EDGE_CURVE ( 'NONE', #218, #24, #151, .T. ) ;
#160 = EDGE_CURVE ( 'NONE', #77, #109, #273, .T. ) ;
#161 = CARTESIAN_POINT ( 'NONE',  ( 0.06250000000000002776, 7.654042494670959086E-18, 1.500000000000000222 ) ) ;
#162 = EDGE_LOOP ( 'NONE', ( #266, #119, #1, #221 ) ) ;
#163 = ORIENTED_EDGE ( 'NONE', *, *, #58, .T. ) ;
#164 = DIRECTION ( 'NONE',  ( -1.224646799147353454E-16, -0.0000000000000000000, -1.000000000000000000 ) ) ;
#165 = DIRECTION ( 'NONE',  ( 1.000000000000000000, 0.0000000000000000000, -0.0000000000000000000 ) ) ;
#166 = ADVANCED_FACE ( 'NONE', ( #48 ), #180, .T. ) ;
#167 = ORIENTED_EDGE ( 'NONE', *, *, #107, .F. ) ;
#168 = DIRECTION ( 'NONE',  ( 1.224646799147353454E-16, 0.0000000000000000000, 1.000000000000000000 ) ) ;
#169 = CLOSED_SHELL ( 'NONE', ( #6, #252, #267, #30, #166, #64, #269, #188, #133, #148, #52 ) ) ;
#170 = DIRECTION ( 'NONE',  ( 0.0000000000000000000, 0.0000000000000000000, 1.000000000000000000 ) ) ;
#171 = EDGE_LOOP ( 'NONE', ( #75, #177, #263, #187 ) ) ;
#172 =( NAMED_UNIT ( * ) PLANE_ANGLE_UNIT ( ) SI_UNIT ( $, .RADIAN. ) );
#173 = AXIS2_PLACEMENT_3D ( 'NONE', #290, #127, #323 ) ;
#174 = ORIENTED_EDGE ( 'NONE', *, *, #107, .T. ) ;
#175 = DIRECTION ( 'NONE',  ( 1.000000000000000000, 0.0000000000000000000, 0.0000000000000000000 ) ) ;
#176 = PRESENTATION_STYLE_ASSIGNMENT (( #67 ) ) ;
#177 = ORIENTED_EDGE ( 'NONE', *, *, #209, .T. ) ;
#178 = DIRECTION ( 'NONE',  ( 0.7071067811865462405, 8.659560562354916834E-17, -0.7071067811865486830 ) ) ;
#179 = PRODUCT_RELATED_PRODUCT_CATEGORY ( 'part', '', ( #135 ) ) ;
#180 = CYLINDRICAL_SURFACE ( 'NONE', #121, 0.06250000000000002776 ) ;
#181 = ORIENTED_EDGE ( 'NONE', *, *, #20, .T. ) ;
#182 = MANIFOLD_SOLID_BREP ( 'Fillet1', #169 ) ;
#183 = UNCERTAINTY_MEASURE_WITH_UNIT (LENGTH_MEASURE( 1.000000000000000082E-05 ), #137, 'distance_accuracy_value', 'NONE');
#184 = ORIENTED_EDGE ( 'NONE', *, *, #128, .T. ) ;
#185 = CONICAL_SURFACE ( 'NONE', #78, 0.04750000000000064587, 0.7853981633974466137 ) ;
#186 = PRODUCT_DEFINITION_FORMATION_WITH_SPECIFIED_SOURCE ( 'ANY', '', #135, .NOT_KNOWN. ) ;
#187 = ORIENTED_EDGE ( 'NONE', *, *, #297, .F. ) ;
#188 = ADVANCED_FACE ( 'NONE', ( #141 ), #185, .T. ) ;
#189 = DIRECTION ( 'NONE',  ( 1.000000000000000000, 0.0000000000000000000, 0.0000000000000000000 ) ) ;
#190 = CIRCLE ( 'NONE', #115, 0.06250000000000002776 ) ;
#191 = EDGE_CURVE ( 'NONE', #26, #24, #190, .T. ) ;
#192 = FACE_OUTER_BOUND ( 'NONE', #157, .T. ) ;
#193 = VERTEX_POINT ( 'NONE', #284 ) ;
#194 = CARTESIAN_POINT ( 'NONE',  ( 0.0000000000000000000, 0.0000000000000000000, 1.500000000000000222 ) ) ;
#195 = CARTESIAN_POINT ( 'NONE',  ( 0.0000000000000000000, 0.0000000000000000000, 1.485000000000000764 ) ) ;
#196 = LINE ( 'NONE', #314, #229 ) ;
#197 = AXIS2_PLACEMENT_3D ( 'NONE', #265, #200, #101 ) ;
#198 = UNCERTAINTY_MEASURE_WITH_UNIT (LENGTH_MEASURE( 1.000000000000000082E-05 ), #250, 'distance_accuracy_value', 'NONE');
#199 = CARTESIAN_POINT ( 'NONE',  ( 0.0000000000000000000, 0.0000000000000000000, 1.500000000000000222 ) ) ;
#200 = DIRECTION ( 'NONE',  ( 1.224646799147353454E-16, 0.0000000000000000000, 1.000000000000000000 ) ) ;
#201 = CYLINDRICAL_SURFACE ( 'NONE', #275, 0.007992000000000002574 ) ;
#202 = EDGE_CURVE ( 'NONE', #212, #218, #282, .T. ) ;
#203 = FILL_AREA_STYLE_COLOUR ( '', #61 ) ;
#204 = VECTOR ( 'NONE', #138, 39.37007874015748143 ) ;
#205 = DIRECTION ( 'NONE',  ( -1.224646799147353454E-16, -0.0000000000000000000, -1.000000000000000000 ) ) ;
#206 = PRODUCT_CONTEXT ( 'NONE', #71, 'mechanical' ) ;
#207 = DIRECTION ( 'NONE',  ( 1.224646799147353207E-16, 1.000000000000000000, -0.0000000000000000000 ) ) ;
#208 = CARTESIAN_POINT ( 'NONE',  ( 0.0000000000000000000, 0.0000000000000000000, 0.0000000000000000000 ) ) ;
#209 = EDGE_CURVE ( 'NONE', #24, #193, #219, .T. ) ;
#210 = EDGE_CURVE ( 'NONE', #142, #279, #308, .T. ) ;
#211 = CIRCLE ( 'NONE', #4, 0.06250000000000002776 ) ;
#212 = VERTEX_POINT ( 'NONE', #285 ) ;
#213 = MECHANICAL_DESIGN_GEOMETRIC_PRESENTATION_REPRESENTATION (  '', ( #99 ), #147 ) ;
#214 = LINE ( 'NONE', #37, #235 ) ;
#215 = AXIS2_PLACEMENT_3D ( 'NONE', #150, #207, #21 ) ;
#216 =( GEOMETRIC_REPRESENTATION_CONTEXT ( 3 ) GLOBAL_UNCERTAINTY_ASSIGNED_CONTEXT ( ( #198 ) ) GLOBAL_UNIT_ASSIGNED_CONTEXT ( ( #250, #14, #268 ) ) REPRESENTATION_CONTEXT ( 'NONE', 'WORKASPACE' ) );
#217 = DIRECTION ( 'NONE',  ( -1.224646799147353454E-16, -0.0000000000000000000, -1.000000000000000000 ) ) ;
#218 = VERTEX_POINT ( 'NONE', #31 ) ;
#219 = LINE ( 'NONE', #161, #204 ) ;
#220 = COLOUR_RGB ( '',0.7921568627450980005, 0.8196078431372548767, 0.9333333333333333481 ) ;
#221 = ORIENTED_EDGE ( 'NONE', *, *, #243, .F. ) ;
#222 = DIRECTION ( 'NONE',  ( 1.224646799147353454E-16, 0.0000000000000000000, 1.000000000000000000 ) ) ;
#223 = CARTESIAN_POINT ( 'NONE',  ( 5.878304635907297015E-18, 0.0000000000000000000, 0.04800000000000000100 ) ) ;
#224 = AXIS2_PLACEMENT_3D ( 'NONE', #208, #170, #246 ) ;
#225 = APPLICATION_CONTEXT ( 'automotive_design' ) ;
#226 = DIRECTION ( 'NONE',  ( 1.000000000000000000, 0.0000000000000000000, 0.0000000000000000000 ) ) ;
#227 = SURFACE_SIDE_STYLE ('',( #69 ) ) ;
#228 = DIRECTION ( 'NONE',  ( -1.000000000000000000, 0.0000000000000000000, 1.335245398554932983E-16 ) ) ;
#229 = VECTOR ( 'NONE', #312, 39.37007874015748143 ) ;
#230 = ORIENTED_EDGE ( 'NONE', *, *, #40, .F. ) ;
#231 = ORIENTED_EDGE ( 'NONE', *, *, #58, .F. ) ;
#232 = EDGE_LOOP ( 'NONE', ( #271, #49, #254, #85 ) ) ;
#233 = CONICAL_SURFACE ( 'NONE', #253, 0.04750000000000064587, 0.7853981633974466137 ) ;
#234 = CYLINDRICAL_SURFACE ( 'NONE', #86, 0.007992000000000002574 ) ;
#235 = VECTOR ( 'NONE', #287, 39.37007874015748143 ) ;
#236 = ORIENTED_EDGE ( 'NONE', *, *, #20, .F. ) ;
#237 = CARTESIAN_POINT ( 'NONE',  ( 0.007992000000000002574, 9.787377218785648302E-19, 0.007992000000000000839 ) ) ;
#238 = EDGE_CURVE ( 'NONE', #24, #26, #46, .T. ) ;
#239 = DIRECTION ( 'NONE',  ( 0.0000000000000000000, 0.0000000000000000000, -1.000000000000000000 ) ) ;
#240 = ORIENTED_EDGE ( 'NONE', *, *, #128, .F. ) ;
#241 = CIRCLE ( 'NONE', #45, 0.007992000000000000839 ) ;
#242 = CARTESIAN_POINT ( 'NONE',  ( -0.007991999999999995635, 9.787377218785648302E-19, 0.04800000000000000100 ) ) ;
#243 = EDGE_CURVE ( 'NONE', #142, #193, #214, .T. ) ;
#244 = SPHERICAL_SURFACE ( 'NONE', #116, 0.007992000000000000839 ) ;
#245 = DIRECTION ( 'NONE',  ( 0.0000000000000000000, 0.0000000000000000000, 1.000000000000000000 ) ) ;
#246 = DIRECTION ( 'NONE',  ( 1.000000000000000000, 0.0000000000000000000, 0.0000000000000000000 ) ) ;
#247 = CIRCLE ( 'NONE', #29, 0.007992000000000002574 ) ;
#248 = CARTESIAN_POINT ( 'NONE',  ( 9.787377218785650228E-19, 0.0000000000000000000, 0.007992000000000000839 ) ) ;
#249 = ORIENTED_EDGE ( 'NONE', *, *, #70, .F. ) ;
#250 =( CONVERSION_BASED_UNIT ( 'INCH', #291 ) LENGTH_UNIT ( ) NAMED_UNIT ( #17 ) );
#251 = DIRECTION ( 'NONE',  ( -0.0000000000000000000, -0.0000000000000000000, -1.000000000000000000 ) ) ;
#252 = ADVANCED_FACE ( 'NONE', ( #192 ), #234, .T. ) ;
#253 = AXIS2_PLACEMENT_3D ( 'NONE', #274, #22, #126 ) ;
#254 = ORIENTED_EDGE ( 'NONE', *, *, #40, .T. ) ;
#255 = ORIENTED_EDGE ( 'NONE', *, *, #191, .F. ) ;
#256 = CIRCLE ( 'NONE', #62, 0.007992000000000002574 ) ;
#257 = DIRECTION ( 'NONE',  ( -1.000000000000000000, 0.0000000000000000000, 1.224646799147353454E-16 ) ) ;
#258 = ORIENTED_EDGE ( 'NONE', *, *, #297, .T. ) ;
#259 = EDGE_LOOP ( 'NONE', ( #302, #298, #38, #163 ) ) ;
#260 = DIRECTION ( 'NONE',  ( 0.0000000000000000000, 0.0000000000000000000, -1.000000000000000000 ) ) ;
#261 = FACE_OUTER_BOUND ( 'NONE', #131, .T. ) ;
#262 = CARTESIAN_POINT ( 'NONE',  ( 1.468106582817847438E-18, 0.0000000000000000000, 0.0000000000000000000 ) ) ;
#263 = ORIENTED_EDGE ( 'NONE', *, *, #87, .F. ) ;
#264 = CARTESIAN_POINT ( 'NONE',  ( 5.878304635907297015E-18, 0.0000000000000000000, 0.04800000000000000100 ) ) ;
#265 = CARTESIAN_POINT ( 'NONE',  ( 5.878304635907297015E-18, 0.0000000000000000000, 0.04800000000000000100 ) ) ;
#266 = ORIENTED_EDGE ( 'NONE', *, *, #76, .F. ) ;
#267 = ADVANCED_FACE ( 'NONE', ( #143 ), #53, .T. ) ;
#268 =( NAMED_UNIT ( * ) SI_UNIT ( $, .STERADIAN. ) SOLID_ANGLE_UNIT ( ) );
#269 = ADVANCED_FACE ( 'NONE', ( #305 ), #90, .T. ) ;
#270 = DIMENSIONAL_EXPONENTS ( 1.000000000000000000, 0.0000000000000000000, 0.0000000000000000000, 0.0000000000000000000, 0.0000000000000000000, 0.0000000000000000000, 0.0000000000000000000 ) ;
#271 = ORIENTED_EDGE ( 'NONE', *, *, #159, .F. ) ;
#272 = EDGE_LOOP ( 'NONE', ( #249, #130, #255, #230 ) ) ;
#273 = LINE ( 'NONE', #242, #309 ) ;
#274 = CARTESIAN_POINT ( 'NONE',  ( 0.0000000000000000000, 0.0000000000000000000, 1.500000000000000222 ) ) ;
#275 = AXIS2_PLACEMENT_3D ( 'NONE', #296, #315, #96 ) ;
#276 = VERTEX_POINT ( 'NONE', #262 ) ;
#277 = CIRCLE ( 'NONE', #79, 0.007992000000000002574 ) ;
#278 = AXIS2_PLACEMENT_3D ( 'NONE', #195, #260, #65 ) ;
#279 = VERTEX_POINT ( 'NONE', #237 ) ;
#280 = CARTESIAN_POINT ( 'NONE',  ( -0.06250000000000002776, 0.0000000000000000000, 1.485000000000000764 ) ) ;
#281 = AXIS2_PLACEMENT_3D ( 'NONE', #98, #311, #226 ) ;
#282 = CIRCLE ( 'NONE', #286, 0.04750000000000064587 ) ;
#283 = LENGTH_MEASURE_WITH_UNIT ( LENGTH_MEASURE( 0.02539999999999999897 ), #7 );
#284 = CARTESIAN_POINT ( 'NONE',  ( 0.06250000000000006939, 7.654042494670963708E-18, 0.3571302294237206354 ) ) ;
#285 = CARTESIAN_POINT ( 'NONE',  ( -0.04750000000000064587, 0.0000000000000000000, 1.500000000000000222 ) ) ;
#286 = AXIS2_PLACEMENT_3D ( 'NONE', #63, #93, #88 ) ;
#287 = DIRECTION ( 'NONE',  ( 0.1736481776669313581, 0.0000000000000000000, 0.9848077530122077983 ) ) ;
#288 = CIRCLE ( 'NONE', #50, 0.007992000000000002574 ) ;
#289 = FACE_OUTER_BOUND ( 'NONE', #259, .T. ) ;
#290 = CARTESIAN_POINT ( 'NONE',  ( 0.0000000000000000000, 0.0000000000000000000, 1.500000000000000222 ) ) ;
#291 = LENGTH_MEASURE_WITH_UNIT ( LENGTH_MEASURE( 0.02539999999999999897 ), #155 );
#292 = FACE_OUTER_BOUND ( 'NONE', #55, .T. ) ;
#293 = CARTESIAN_POINT ( 'NONE',  ( -0.007991999999999995635, 4.316390108274762921E-18, 0.04800000000000000100 ) ) ;
#294 = DIRECTION ( 'NONE',  ( -1.224646799147353454E-16, -0.0000000000000000000, -1.000000000000000000 ) ) ;
#295 = APPLICATION_PROTOCOL_DEFINITION ( 'draft international standard', 'automotive_design', 1998, #225 ) ;
#296 = CARTESIAN_POINT ( 'NONE',  ( 0.0000000000000000000, 0.0000000000000000000, 0.0000000000000000000 ) ) ;
#297 = EDGE_CURVE ( 'NONE', #26, #109, #118, .T. ) ;
#298 = ORIENTED_EDGE ( 'NONE', *, *, #112, .F. ) ;
#299 = CIRCLE ( 'NONE', #158, 0.04750000000000064587 ) ;
#300 = ADVANCED_BREP_SHAPE_REPRESENTATION ( 'Micro_BMR-016-2X', ( #182, #224 ), #216 ) ;
#301 = DIRECTION ( 'NONE',  ( 1.224646799147353454E-16, 0.0000000000000000000, 1.000000000000000000 ) ) ;
#302 = ORIENTED_EDGE ( 'NONE', *, *, #160, .F. ) ;
#303 = CARTESIAN_POINT ( 'NONE',  ( 0.0000000000000000000, 0.0000000000000000000, 1.500000000000000222 ) ) ;
#304 = PRESENTATION_STYLE_ASSIGNMENT (( #114 ) ) ;
#305 = FACE_OUTER_BOUND ( 'NONE', #72, .T. ) ;
#306 = CARTESIAN_POINT ( 'NONE',  ( 0.007992000000000002574, 9.787377218785648302E-19, -9.787377218785652154E-19 ) ) ;
#307 = ORIENTED_EDGE ( 'NONE', *, *, #210, .F. ) ;
#308 = LINE ( 'NONE', #306, #54 ) ;
#309 = VECTOR ( 'NONE', #73, 39.37007874015747433 ) ;
#310 = DIRECTION ( 'NONE',  ( -1.000000000000000000, 0.0000000000000000000, 0.0000000000000000000 ) ) ;
#311 = DIRECTION ( 'NONE',  ( 0.0000000000000000000, 1.000000000000000000, 0.0000000000000000000 ) ) ;
#312 = DIRECTION ( 'NONE',  ( -1.224646799147353454E-16, -0.0000000000000000000, -1.000000000000000000 ) ) ;
#313 = DIRECTION ( 'NONE',  ( 0.0000000000000000000, 1.000000000000000000, 0.0000000000000000000 ) ) ;
#314 = CARTESIAN_POINT ( 'NONE',  ( -0.007992000000000002574, 0.0000000000000000000, 9.787377218785652154E-19 ) ) ;
#315 = DIRECTION ( 'NONE',  ( -1.224646799147353454E-16, -0.0000000000000000000, -1.000000000000000000 ) ) ;
#316 = DIRECTION ( 'NONE',  ( -1.224646799147353454E-16, -0.0000000000000000000, -1.000000000000000000 ) ) ;
#317 = CARTESIAN_POINT ( 'NONE',  ( 9.787377218785650228E-19, 0.0000000000000000000, 0.007992000000000000839 ) ) ;
#318 = STYLED_ITEM ( 'NONE', ( #304 ), #182 ) ;
#319 = APPLICATION_PROTOCOL_DEFINITION ( 'draft international standard', 'automotive_design', 1998, #71 ) ;
#320 = PRODUCT_DEFINITION_CONTEXT ( 'detailed design', #225, 'design' ) ;
#321 = LENGTH_MEASURE_WITH_UNIT ( LENGTH_MEASURE( 0.02539999999999999897 ), #19 );
#322 =( GEOMETRIC_REPRESENTATION_CONTEXT ( 3 ) GLOBAL_UNCERTAINTY_ASSIGNED_CONTEXT ( ( #183 ) ) GLOBAL_UNIT_ASSIGNED_CONTEXT ( ( #137, #5, #325 ) ) REPRESENTATION_CONTEXT ( 'NONE', 'WORKASPACE' ) );
#323 = DIRECTION ( 'NONE',  ( -1.000000000000000000, 0.0000000000000000000, 0.0000000000000000000 ) ) ;
#324 = CONICAL_SURFACE ( 'NONE', #197, 0.007992000000000002574, 0.1745329251994338637 ) ;
#325 =( NAMED_UNIT ( * ) SI_UNIT ( $, .STERADIAN. ) SOLID_ANGLE_UNIT ( ) );
ENDSEC;
END-ISO-10303-21;
