ISO-10303-21;
HEADER;
FILE_DESCRIPTION (( 'STEP AP214' ),
    '1' );
FILE_NAME ('59630.STEP',
    '2023-07-24T15:17:09',
    ( '' ),
    ( '' ),
    'SwSTEP 2.0',
    'SolidWorks 2023',
    '' );
FILE_SCHEMA (( 'AUTOMOTIVE_DESIGN' ));
ENDSEC;

DATA;
#1 = VERTEX_POINT ( 'NONE', #90 ) ;
#2 = ADVANCED_FACE ( 'NONE', ( #209 ), #171, .F. ) ;
#3 =( GEOMETRIC_REPRESENTATION_CONTEXT ( 3 ) GLOBAL_UNCERTAINTY_ASSIGNED_CONTEXT ( ( #40 ) ) GLOBAL_UNIT_ASSIGNED_CONTEXT ( ( #129, #89, #5 ) ) REPRESENTATION_CONTEXT ( 'NONE', 'WORKASPACE' ) );
#4 = ORIENTED_EDGE ( 'NONE', *, *, #101, .F. ) ;
#5 =( NAMED_UNIT ( * ) SI_UNIT ( $, .STERADIAN. ) SOLID_ANGLE_UNIT ( ) );
#6 = MANIFOLD_SOLID_BREP ( 'Revolve - Tool Body (Straight Shanked)', #181 ) ;
#7 = SURFACE_SIDE_STYLE ('',( #92 ) ) ;
#8 = AXIS2_PLACEMENT_3D ( 'NONE', #253, #55, #226 ) ;
#9 = CARTESIAN_POINT ( 'NONE',  ( 0.000000000000000000, 0.5000000000000000000, 0.000000000000000000 ) ) ;
#10 = CARTESIAN_POINT ( 'NONE',  ( 4.898587196589412829E-16, 24.00000000000000000, 4.000000000000000000 ) ) ;
#11 = FILL_AREA_STYLE ('',( #218 ) ) ;
#12 = PRESENTATION_STYLE_ASSIGNMENT (( #303 ) ) ;
#13 =( NAMED_UNIT ( * ) PLANE_ANGLE_UNIT ( ) SI_UNIT ( $, .RADIAN. ) );
#14 = CARTESIAN_POINT ( 'NONE',  ( 0.000000000000000000, 0.000000000000000000, 0.000000000000000000 ) ) ;
#15 = CARTESIAN_POINT ( 'NONE',  ( 0.000000000000000000, 0.000000000000000000, 0.000000000000000000 ) ) ;
#16 = TOROIDAL_SURFACE ( 'NONE', #322, 3.500000000000000000, 0.5000000000000000000 ) ;
#17 = AXIS2_PLACEMENT_3D ( 'NONE', #170, #315, #52 ) ;
#18 = DIRECTION ( 'NONE',  ( -0.000000000000000000, -1.000000000000000000, -0.000000000000000000 ) ) ;
#19 = DIRECTION ( 'NONE',  ( -1.000000000000000000, 0.000000000000000000, 0.000000000000000000 ) ) ;
#20 = LINE ( 'NONE', #250, #365 ) ;
#21 = ADVANCED_FACE ( 'NONE', ( #73 ), #16, .T. ) ;
#22 = CARTESIAN_POINT ( 'NONE',  ( -1.469576158976823750E-15, 75.00000000000000000, 0.000000000000000000 ) ) ;
#23 = PLANE ( 'NONE',  #336 ) ;
#24 = AXIS2_PLACEMENT_3D ( 'NONE', #360, #364, #314 ) ;
#25 = AXIS2_PLACEMENT_3D ( 'NONE', #22, #165, #221 ) ;
#26 = DIRECTION ( 'NONE',  ( -1.223542297630008506E-16, 1.000000000000000000, -0.000000000000000000 ) ) ;
#27 = VERTEX_POINT ( 'NONE', #68 ) ;
#28 = EDGE_CURVE ( 'NONE', #63, #334, #237, .T. ) ;
#29 = CIRCLE ( 'NONE', #351, 4.000000000000000000 ) ;
#30 = ORIENTED_EDGE ( 'NONE', *, *, #324, .F. ) ;
#31 = FILL_AREA_STYLE ('',( #318 ) ) ;
#32 = EDGE_LOOP ( 'NONE', ( #138, #296, #56, #180 ) ) ;
#33 = AXIS2_PLACEMENT_3D ( 'NONE', #311, #325, #249 ) ;
#34 = DIRECTION ( 'NONE',  ( 0.000000000000000000, 0.000000000000000000, -1.000000000000000000 ) ) ;
#35 = ORIENTED_EDGE ( 'NONE', *, *, #198, .T. ) ;
#36 = DIRECTION ( 'NONE',  ( -0.000000000000000000, -1.000000000000000000, -0.000000000000000000 ) ) ;
#37 =( NAMED_UNIT ( * ) SI_UNIT ( $, .STERADIAN. ) SOLID_ANGLE_UNIT ( ) );
#38 = COLOUR_RGB ( '',1.000000000000000000, 0.000000000000000000, 0.000000000000000000 ) ;
#39 = SURFACE_STYLE_FILL_AREA ( #184 ) ;
#40 = UNCERTAINTY_MEASURE_WITH_UNIT (LENGTH_MEASURE( 1.000000000000000082E-05 ), #129, 'distance_accuracy_value', 'NONE');
#41 =( LENGTH_UNIT ( ) NAMED_UNIT ( * ) SI_UNIT ( .MILLI., .METRE. ) );
#42 = EDGE_CURVE ( 'NONE', #179, #331, #70, .T. ) ;
#43 = FILL_AREA_STYLE_COLOUR ( '', #301 ) ;
#44 = PRODUCT_DEFINITION_SHAPE ( 'NONE', 'NONE',  #111 ) ;
#45 = FACE_OUTER_BOUND ( 'NONE', #83, .T. ) ;
#46 = PLANE ( 'NONE',  #113 ) ;
#47 = ORIENTED_EDGE ( 'NONE', *, *, #329, .F. ) ;
#48 = CIRCLE ( 'NONE', #186, 3.999999999999996447 ) ;
#49 = SURFACE_SIDE_STYLE ('',( #305 ) ) ;
#50 = CARTESIAN_POINT ( 'NONE',  ( 0.000000000000000000, 0.5000000000000000000, 0.000000000000000000 ) ) ;
#51 =( NAMED_UNIT ( * ) PLANE_ANGLE_UNIT ( ) SI_UNIT ( $, .RADIAN. ) );
#52 = DIRECTION ( 'NONE',  ( 0.000000000000000000, 0.000000000000000000, -1.000000000000000000 ) ) ;
#53 = CIRCLE ( 'NONE', #316, 0.5000000000000000000 ) ;
#54 = LINE ( 'NONE', #200, #141 ) ;
#55 = DIRECTION ( 'NONE',  ( -1.223542297630008506E-16, 1.000000000000000000, -0.000000000000000000 ) ) ;
#56 = ORIENTED_EDGE ( 'NONE', *, *, #211, .T. ) ;
#57 = SURFACE_STYLE_FILL_AREA ( #31 ) ;
#58 = MECHANICAL_DESIGN_GEOMETRIC_PRESENTATION_REPRESENTATION (  '', ( #193 ), #94 ) ;
#59 = AXIS2_PLACEMENT_3D ( 'NONE', #14, #124, #335 ) ;
#60 = AXIS2_PLACEMENT_3D ( 'NONE', #369, #108, #203 ) ;
#61 = PRESENTATION_STYLE_ASSIGNMENT (( #294 ) ) ;
#62 = ORIENTED_EDGE ( 'NONE', *, *, #347, .F. ) ;
#63 = VERTEX_POINT ( 'NONE', #192 ) ;
#64 = AXIS2_PLACEMENT_3D ( 'NONE', #105, #112, #34 ) ;
#65 = ADVANCED_FACE ( 'NONE', ( #282 ), #185, .T. ) ;
#66 = DIRECTION ( 'NONE',  ( 0.000000000000000000, 1.000000000000000000, 0.000000000000000000 ) ) ;
#67 =( NAMED_UNIT ( * ) SI_UNIT ( $, .STERADIAN. ) SOLID_ANGLE_UNIT ( ) );
#68 = CARTESIAN_POINT ( 'NONE',  ( 4.000000000000000000, 75.00000000000000000, 4.898587196589412829E-16 ) ) ;
#69 = PRESENTATION_STYLE_ASSIGNMENT (( #332 ) ) ;
#70 = CIRCLE ( 'NONE', #33, 4.000000000000000000 ) ;
#71 = CIRCLE ( 'NONE', #107, 3.999999999999996447 ) ;
#72 = SURFACE_STYLE_USAGE ( .BOTH. , #7 ) ;
#73 = FACE_OUTER_BOUND ( 'NONE', #197, .T. ) ;
#74 = FILL_AREA_STYLE_COLOUR ( '', #244 ) ;
#75 = DIRECTION ( 'NONE',  ( 0.000000000000000000, 0.000000000000000000, -1.000000000000000000 ) ) ;
#76 =( LENGTH_UNIT ( ) NAMED_UNIT ( * ) SI_UNIT ( .MILLI., .METRE. ) );
#77 = SURFACE_SIDE_STYLE ('',( #278 ) ) ;
#78 = VERTEX_POINT ( 'NONE', #100 ) ;
#79 = CARTESIAN_POINT ( 'NONE',  ( -4.000000000000003553, 75.00000000000000000, 0.000000000000000000 ) ) ;
#80 = ORIENTED_EDGE ( 'NONE', *, *, #235, .T. ) ;
#81 = SHAPE_DEFINITION_REPRESENTATION ( #44, #248 ) ;
#82 = DIRECTION ( 'NONE',  ( -1.223542297630008506E-16, 1.000000000000000000, -0.000000000000000000 ) ) ;
#83 = EDGE_LOOP ( 'NONE', ( #264, #263 ) ) ;
#84 = EDGE_LOOP ( 'NONE', ( #30, #349, #202, #62 ) ) ;
#85 = DIRECTION ( 'NONE',  ( -1.223542297630008506E-16, 1.000000000000000000, 0.000000000000000000 ) ) ;
#86 = COLOUR_RGB ( '',1.000000000000000000, 0.000000000000000000, 0.000000000000000000 ) ;
#87 = AXIS2_PLACEMENT_3D ( 'NONE', #326, #330, #148 ) ;
#88 = APPLICATION_CONTEXT ( 'automotive_design' ) ;
#89 =( NAMED_UNIT ( * ) PLANE_ANGLE_UNIT ( ) SI_UNIT ( $, .RADIAN. ) );
#90 = CARTESIAN_POINT ( 'NONE',  ( 0.000000000000000000, 0.5000000000000000000, -4.000000000000000000 ) ) ;
#91 = PRESENTATION_STYLE_ASSIGNMENT (( #98 ) ) ;
#92 = SURFACE_STYLE_FILL_AREA ( #243 ) ;
#93 = DIRECTION ( 'NONE',  ( 0.000000000000000000, 0.000000000000000000, -1.000000000000000000 ) ) ;
#94 =( GEOMETRIC_REPRESENTATION_CONTEXT ( 3 ) GLOBAL_UNCERTAINTY_ASSIGNED_CONTEXT ( ( #259 ) ) GLOBAL_UNIT_ASSIGNED_CONTEXT ( ( #346, #352, #37 ) ) REPRESENTATION_CONTEXT ( 'NONE', 'WORKASPACE' ) );
#95 = VECTOR ( 'NONE', #36, 1000.000000000000000 ) ;
#96 = PRODUCT ( '59630', '59630', '', ( #317 ) ) ;
#97 =( LENGTH_UNIT ( ) NAMED_UNIT ( * ) SI_UNIT ( .MILLI., .METRE. ) );
#98 = SURFACE_STYLE_USAGE ( .BOTH. , #116 ) ;
#99 = CARTESIAN_POINT ( 'NONE',  ( 0.000000000000000000, 0.5000000000000000000, -3.500000000000000000 ) ) ;
#100 = CARTESIAN_POINT ( 'NONE',  ( -3.999999999999991562, 24.00000000000000000, 0.000000000000000000 ) ) ;
#101 = EDGE_CURVE ( 'NONE', #78, #291, #20, .T. ) ;
#102 = STYLED_ITEM ( 'NONE', ( #247 ), #196 ) ;
#103 = SURFACE_STYLE_FILL_AREA ( #11 ) ;
#104 = DIRECTION ( 'NONE',  ( -0.000000000000000000, -1.000000000000000000, -0.000000000000000000 ) ) ;
#105 = CARTESIAN_POINT ( 'NONE',  ( 0.000000000000000000, 0.000000000000000000, 0.000000000000000000 ) ) ;
#106 = UNCERTAINTY_MEASURE_WITH_UNIT (LENGTH_MEASURE( 1.000000000000000082E-05 ), #357, 'distance_accuracy_value', 'NONE');
#107 = AXIS2_PLACEMENT_3D ( 'NONE', #342, #82, #162 ) ;
#108 = DIRECTION ( 'NONE',  ( 0.000000000000000000, 0.000000000000000000, 1.000000000000000000 ) ) ;
#109 = CARTESIAN_POINT ( 'NONE',  ( 4.592425496802573972E-16, 0.000000000000000000, 3.500000000000000000 ) ) ;
#110 = DIRECTION ( 'NONE',  ( -1.000000000000000000, -1.223542297630008506E-16, 0.000000000000000000 ) ) ;
#111 = PRODUCT_DEFINITION ( 'UNKNOWN', '', #232, #281 ) ;
#112 = DIRECTION ( 'NONE',  ( 0.000000000000000000, -1.000000000000000000, -0.000000000000000000 ) ) ;
#113 = AXIS2_PLACEMENT_3D ( 'NONE', #187, #66, #275 ) ;
#114 = ORIENTED_EDGE ( 'NONE', *, *, #235, .F. ) ;
#115 = FACE_OUTER_BOUND ( 'NONE', #32, .T. ) ;
#116 = SURFACE_SIDE_STYLE ('',( #279 ) ) ;
#117 = COLOUR_RGB ( '',0.7921568627450980005, 0.8196078431372548767, 0.9333333333333333481 ) ;
#118 = SURFACE_STYLE_FILL_AREA ( #164 ) ;
#119 =( NAMED_UNIT ( * ) PLANE_ANGLE_UNIT ( ) SI_UNIT ( $, .RADIAN. ) );
#120 = DIRECTION ( 'NONE',  ( -0.000000000000000000, -1.000000000000000000, -0.000000000000000000 ) ) ;
#121 = EDGE_CURVE ( 'NONE', #334, #178, #158, .T. ) ;
#122 = SURFACE_SIDE_STYLE ('',( #103 ) ) ;
#123 = SURFACE_SIDE_STYLE ('',( #39 ) ) ;
#124 = DIRECTION ( 'NONE',  ( -0.000000000000000000, -1.000000000000000000, -0.000000000000000000 ) ) ;
#125 = MECHANICAL_DESIGN_GEOMETRIC_PRESENTATION_REPRESENTATION (  '', ( #175 ), #223 ) ;
#126 = DIRECTION ( 'NONE',  ( -1.223542297630008506E-16, 1.000000000000000000, -0.000000000000000000 ) ) ;
#127 = PLANE ( 'NONE',  #64 ) ;
#128 =( NAMED_UNIT ( * ) PLANE_ANGLE_UNIT ( ) SI_UNIT ( $, .RADIAN. ) );
#129 =( LENGTH_UNIT ( ) NAMED_UNIT ( * ) SI_UNIT ( .MILLI., .METRE. ) );
#130 = FILL_AREA_STYLE ('',( #74 ) ) ;
#131 = DIRECTION ( 'NONE',  ( 0.000000000000000000, 0.000000000000000000, -1.000000000000000000 ) ) ;
#132 = PRESENTATION_LAYER_ASSIGNMENT (  '', '', ( #304 ) ) ;
#133 = EDGE_CURVE ( 'NONE', #291, #27, #261, .T. ) ;
#134 = AXIS2_PLACEMENT_3D ( 'NONE', #15, #217, #75 ) ;
#135 = DIRECTION ( 'NONE',  ( -1.000000000000000000, 0.000000000000000000, 0.000000000000000000 ) ) ;
#136 = MANIFOLD_SOLID_BREP ( 'Revolve - Cutting Edge', #236 ) ;
#137 = EDGE_LOOP ( 'NONE', ( #290, #295, #146, #4 ) ) ;
#138 = ORIENTED_EDGE ( 'NONE', *, *, #198, .F. ) ;
#139 =( GEOMETRIC_REPRESENTATION_CONTEXT ( 3 ) GLOBAL_UNCERTAINTY_ASSIGNED_CONTEXT ( ( #106 ) ) GLOBAL_UNIT_ASSIGNED_CONTEXT ( ( #357, #13, #149 ) ) REPRESENTATION_CONTEXT ( 'NONE', 'WORKASPACE' ) );
#140 = UNCERTAINTY_MEASURE_WITH_UNIT (LENGTH_MEASURE( 1.000000000000000082E-05 ), #76, 'distance_accuracy_value', 'NONE');
#141 = VECTOR ( 'NONE', #199, 1000.000000000000000 ) ;
#142 = APPLICATION_PROTOCOL_DEFINITION ( 'draft international standard', 'automotive_design', 1998, #88 ) ;
#143 = ADVANCED_FACE ( 'NONE', ( #191 ), #309, .T. ) ;
#144 = ORIENTED_EDGE ( 'NONE', *, *, #347, .T. ) ;
#145 = ORIENTED_EDGE ( 'NONE', *, *, #329, .T. ) ;
#146 = ORIENTED_EDGE ( 'NONE', *, *, #133, .F. ) ;
#147 = CIRCLE ( 'NONE', #366, 3.500000000000000000 ) ;
#148 = DIRECTION ( 'NONE',  ( 0.000000000000000000, 0.000000000000000000, -1.000000000000000000 ) ) ;
#149 =( NAMED_UNIT ( * ) SI_UNIT ( $, .STERADIAN. ) SOLID_ANGLE_UNIT ( ) );
#150 = COLOUR_RGB ( '',1.000000000000000000, 0.000000000000000000, 0.000000000000000000 ) ;
#151 = LINE ( 'NONE', #189, #95 ) ;
#152 = DIRECTION ( 'NONE',  ( -1.000000000000000000, 0.000000000000000000, 0.000000000000000000 ) ) ;
#153 = FILL_AREA_STYLE ('',( #43 ) ) ;
#154 = DIRECTION ( 'NONE',  ( 0.000000000000000000, 0.000000000000000000, -1.000000000000000000 ) ) ;
#155 =( NAMED_UNIT ( * ) SI_UNIT ( $, .STERADIAN. ) SOLID_ANGLE_UNIT ( ) );
#156 = SURFACE_SIDE_STYLE ('',( #118 ) ) ;
#157 = DIRECTION ( 'NONE',  ( -1.223542297630008506E-16, 1.000000000000000000, -0.000000000000000000 ) ) ;
#158 = CIRCLE ( 'NONE', #59, 3.500000000000000000 ) ;
#159 =( LENGTH_UNIT ( ) NAMED_UNIT ( * ) SI_UNIT ( .MILLI., .METRE. ) );
#160 = SURFACE_STYLE_USAGE ( .BOTH. , #49 ) ;
#161 =( LENGTH_UNIT ( ) NAMED_UNIT ( * ) SI_UNIT ( .MILLI., .METRE. ) );
#162 = DIRECTION ( 'NONE',  ( -1.000000000000000000, 0.000000000000000000, 0.000000000000000000 ) ) ;
#163 = ORIENTED_EDGE ( 'NONE', *, *, #256, .F. ) ;
#164 = FILL_AREA_STYLE ('',( #358 ) ) ;
#165 = DIRECTION ( 'NONE',  ( -1.223542297630008506E-16, 1.000000000000000000, -0.000000000000000000 ) ) ;
#166 = CARTESIAN_POINT ( 'NONE',  ( 0.000000000000000000, 0.000000000000000000, 0.000000000000000000 ) ) ;
#167 = PRESENTATION_LAYER_ASSIGNMENT (  '', '', ( #175 ) ) ;
#168 = DIRECTION ( 'NONE',  ( 1.000000000000000000, 1.223542297630008506E-16, 0.000000000000000000 ) ) ;
#169 =( NAMED_UNIT ( * ) SI_UNIT ( $, .STERADIAN. ) SOLID_ANGLE_UNIT ( ) );
#170 = CARTESIAN_POINT ( 'NONE',  ( 0.000000000000000000, 0.5000000000000000000, 0.000000000000000000 ) ) ;
#171 = PLANE ( 'NONE',  #267 ) ;
#172 = EDGE_CURVE ( 'NONE', #1, #178, #53, .T. ) ;
#173 = EDGE_LOOP ( 'NONE', ( #367, #266, #234, #208 ) ) ;
#174 = SURFACE_SIDE_STYLE ('',( #57 ) ) ;
#175 = STYLED_ITEM ( 'NONE', ( #277 ), #65 ) ;
#176 = UNCERTAINTY_MEASURE_WITH_UNIT (LENGTH_MEASURE( 1.000000000000000082E-05 ), #214, 'distance_accuracy_value', 'NONE');
#177 = AXIS2_PLACEMENT_3D ( 'NONE', #166, #338, #287 ) ;
#178 = VERTEX_POINT ( 'NONE', #220 ) ;
#179 = VERTEX_POINT ( 'NONE', #10 ) ;
#180 = ORIENTED_EDGE ( 'NONE', *, *, #353, .F. ) ;
#181 = CLOSED_SHELL ( 'NONE', ( #241, #2, #143, #274 ) ) ;
#182 = CIRCLE ( 'NONE', #87, 4.000000000000000000 ) ;
#183 = DIRECTION ( 'NONE',  ( 0.000000000000000000, 0.000000000000000000, -1.000000000000000000 ) ) ;
#184 = FILL_AREA_STYLE ('',( #219 ) ) ;
#185 = TOROIDAL_SURFACE ( 'NONE', #210, 3.500000000000000000, 0.5000000000000000000 ) ;
#186 = AXIS2_PLACEMENT_3D ( 'NONE', #201, #26, #135 ) ;
#187 = CARTESIAN_POINT ( 'NONE',  ( 0.000000000000000000, 24.00000000000000000, 0.000000000000000000 ) ) ;
#188 = PRODUCT_RELATED_PRODUCT_CATEGORY ( 'part', '', ( #96 ) ) ;
#189 = CARTESIAN_POINT ( 'NONE',  ( 0.000000000000000000, 0.000000000000000000, -4.000000000000000000 ) ) ;
#190 = UNCERTAINTY_MEASURE_WITH_UNIT (LENGTH_MEASURE( 1.000000000000000082E-05 ), #159, 'distance_accuracy_value', 'NONE');
#191 = FACE_OUTER_BOUND ( 'NONE', #84, .T. ) ;
#192 = CARTESIAN_POINT ( 'NONE',  ( 4.898587196589412829E-16, 0.5000000000000000000, 4.000000000000000000 ) ) ;
#193 = STYLED_ITEM ( 'NONE', ( #61 ), #6 ) ;
#194 = PRESENTATION_LAYER_ASSIGNMENT (  '', '', ( #312 ) ) ;
#195 = PRESENTATION_STYLE_ASSIGNMENT (( #333 ) ) ;
#196 = ADVANCED_FACE ( 'NONE', ( #45 ), #127, .T. ) ;
#197 = EDGE_LOOP ( 'NONE', ( #80, #321, #163, #343 ) ) ;
#198 = EDGE_CURVE ( 'NONE', #179, #63, #320, .T. ) ;
#199 = DIRECTION ( 'NONE',  ( -1.223542297630008506E-16, 1.000000000000000000, -0.000000000000000000 ) ) ;
#200 = CARTESIAN_POINT ( 'NONE',  ( 3.999999999999996447, 75.00000000000000000, 4.898587196589410857E-16 ) ) ;
#201 = CARTESIAN_POINT ( 'NONE',  ( 4.770489558936219510E-15, 24.00000000000000000, 0.000000000000000000 ) ) ;
#202 = ORIENTED_EDGE ( 'NONE', *, *, #101, .T. ) ;
#203 = DIRECTION ( 'NONE',  ( 1.000000000000000000, 0.000000000000000000, 0.000000000000000000 ) ) ;
#204 = AXIS2_PLACEMENT_3D ( 'NONE', #363, #157, #152 ) ;
#205 = ADVANCED_FACE ( 'NONE', ( #115 ), #213, .T. ) ;
#206 = EDGE_LOOP ( 'NONE', ( #145, #35, #114, #298 ) ) ;
#207 = CARTESIAN_POINT ( 'NONE',  ( 4.770489558936219510E-15, 24.00000000000000000, 0.000000000000000000 ) ) ;
#208 = ORIENTED_EDGE ( 'NONE', *, *, #121, .F. ) ;
#209 = FACE_OUTER_BOUND ( 'NONE', #258, .T. ) ;
#210 = AXIS2_PLACEMENT_3D ( 'NONE', #50, #18, #154 ) ;
#211 = EDGE_CURVE ( 'NONE', #331, #1, #151, .T. ) ;
#212 = SURFACE_STYLE_USAGE ( .BOTH. , #156 ) ;
#213 = CYLINDRICAL_SURFACE ( 'NONE', #134, 4.000000000000000000 ) ;
#214 =( LENGTH_UNIT ( ) NAMED_UNIT ( * ) SI_UNIT ( .MILLI., .METRE. ) );
#215 =( GEOMETRIC_REPRESENTATION_CONTEXT ( 3 ) GLOBAL_UNCERTAINTY_ASSIGNED_CONTEXT ( ( #140 ) ) GLOBAL_UNIT_ASSIGNED_CONTEXT ( ( #76, #242, #359 ) ) REPRESENTATION_CONTEXT ( 'NONE', 'WORKASPACE' ) );
#216 =( GEOMETRIC_REPRESENTATION_CONTEXT ( 3 ) GLOBAL_UNCERTAINTY_ASSIGNED_CONTEXT ( ( #240 ) ) GLOBAL_UNIT_ASSIGNED_CONTEXT ( ( #161, #51, #255 ) ) REPRESENTATION_CONTEXT ( 'NONE', 'WORKASPACE' ) );
#217 = DIRECTION ( 'NONE',  ( -0.000000000000000000, -1.000000000000000000, -0.000000000000000000 ) ) ;
#218 = FILL_AREA_STYLE_COLOUR ( '', #117 ) ;
#219 = FILL_AREA_STYLE_COLOUR ( '', #150 ) ;
#220 = CARTESIAN_POINT ( 'NONE',  ( 0.000000000000000000, 0.000000000000000000, -3.500000000000000000 ) ) ;
#221 = DIRECTION ( 'NONE',  ( -1.000000000000000000, 0.000000000000000000, 0.000000000000000000 ) ) ;
#222 = PRESENTATION_LAYER_ASSIGNMENT (  '', '', ( #193 ) ) ;
#223 =( GEOMETRIC_REPRESENTATION_CONTEXT ( 3 ) GLOBAL_UNCERTAINTY_ASSIGNED_CONTEXT ( ( #292 ) ) GLOBAL_UNIT_ASSIGNED_CONTEXT ( ( #41, #286, #280 ) ) REPRESENTATION_CONTEXT ( 'NONE', 'WORKASPACE' ) );
#224 = CIRCLE ( 'NONE', #8, 4.000000000000001776 ) ;
#225 = UNCERTAINTY_MEASURE_WITH_UNIT (LENGTH_MEASURE( 1.000000000000000082E-05 ), #97, 'distance_accuracy_value', 'NONE');
#226 = DIRECTION ( 'NONE',  ( -1.000000000000000000, 0.000000000000000000, 0.000000000000000000 ) ) ;
#227 = STYLED_ITEM ( 'NONE', ( #12 ), #254 ) ;
#228 = APPLICATION_PROTOCOL_DEFINITION ( 'draft international standard', 'automotive_design', 1998, #368 ) ;
#229 = CARTESIAN_POINT ( 'NONE',  ( 0.000000000000000000, 24.00000000000000000, -4.000000000000000000 ) ) ;
#230 = EDGE_LOOP ( 'NONE', ( #297, #144 ) ) ;
#231 = MECHANICAL_DESIGN_GEOMETRIC_PRESENTATION_REPRESENTATION (  '', ( #312 ), #350 ) ;
#232 = PRODUCT_DEFINITION_FORMATION_WITH_SPECIFIED_SOURCE ( 'ANY', '', #96, .NOT_KNOWN. ) ;
#233 = ORIENTED_EDGE ( 'NONE', *, *, #42, .F. ) ;
#234 = ORIENTED_EDGE ( 'NONE', *, *, #172, .T. ) ;
#235 = EDGE_CURVE ( 'NONE', #1, #63, #182, .T. ) ;
#236 = CLOSED_SHELL ( 'NONE', ( #265, #21, #196, #65, #205, #254 ) ) ;
#237 = CIRCLE ( 'NONE', #24, 0.5000000000000000000 ) ;
#238 = MECHANICAL_DESIGN_GEOMETRIC_PRESENTATION_REPRESENTATION (  '', ( #327 ), #216 ) ;
#239 = FACE_OUTER_BOUND ( 'NONE', #137, .T. ) ;
#240 = UNCERTAINTY_MEASURE_WITH_UNIT (LENGTH_MEASURE( 1.000000000000000082E-05 ), #161, 'distance_accuracy_value', 'NONE');
#241 = ADVANCED_FACE ( 'NONE', ( #239 ), #323, .T. ) ;
#242 =( NAMED_UNIT ( * ) PLANE_ANGLE_UNIT ( ) SI_UNIT ( $, .RADIAN. ) );
#243 = FILL_AREA_STYLE ('',( #272 ) ) ;
#244 = COLOUR_RGB ( '',1.000000000000000000, 0.000000000000000000, 0.000000000000000000 ) ;
#245 = CIRCLE ( 'NONE', #17, 4.000000000000000000 ) ;
#246 = PRESENTATION_STYLE_ASSIGNMENT (( #72 ) ) ;
#247 = PRESENTATION_STYLE_ASSIGNMENT (( #212 ) ) ;
#248 = ADVANCED_BREP_SHAPE_REPRESENTATION ( '59630', ( #136, #6, #60 ), #3 ) ;
#249 = DIRECTION ( 'NONE',  ( 0.000000000000000000, 0.000000000000000000, -1.000000000000000000 ) ) ;
#250 = CARTESIAN_POINT ( 'NONE',  ( -4.000000000000000000, 75.00000000000000000, 0.000000000000000000 ) ) ;
#251 = COLOUR_RGB ( '',1.000000000000000000, 0.000000000000000000, 0.000000000000000000 ) ;
#252 =( GEOMETRIC_REPRESENTATION_CONTEXT ( 3 ) GLOBAL_UNCERTAINTY_ASSIGNED_CONTEXT ( ( #176 ) ) GLOBAL_UNIT_ASSIGNED_CONTEXT ( ( #214, #344, #169 ) ) REPRESENTATION_CONTEXT ( 'NONE', 'WORKASPACE' ) );
#253 = CARTESIAN_POINT ( 'NONE',  ( -1.469576158976823750E-15, 75.00000000000000000, 0.000000000000000000 ) ) ;
#254 = ADVANCED_FACE ( 'NONE', ( #362 ), #46, .T. ) ;
#255 =( NAMED_UNIT ( * ) SI_UNIT ( $, .STERADIAN. ) SOLID_ANGLE_UNIT ( ) );
#256 = EDGE_CURVE ( 'NONE', #178, #334, #147, .T. ) ;
#257 = CYLINDRICAL_SURFACE ( 'NONE', #177, 4.000000000000000000 ) ;
#258 = EDGE_LOOP ( 'NONE', ( #285, #355 ) ) ;
#259 = UNCERTAINTY_MEASURE_WITH_UNIT (LENGTH_MEASURE( 1.000000000000000082E-05 ), #346, 'distance_accuracy_value', 'NONE');
#260 = CARTESIAN_POINT ( 'NONE',  ( 4.000000000000000000, 75.00000000000000000, 0.000000000000000000 ) ) ;
#261 = CIRCLE ( 'NONE', #25, 4.000000000000001776 ) ;
#262 = PRESENTATION_LAYER_ASSIGNMENT (  '', '', ( #227 ) ) ;
#263 = ORIENTED_EDGE ( 'NONE', *, *, #121, .T. ) ;
#264 = ORIENTED_EDGE ( 'NONE', *, *, #256, .T. ) ;
#265 = ADVANCED_FACE ( 'NONE', ( #302 ), #257, .T. ) ;
#266 = ORIENTED_EDGE ( 'NONE', *, *, #353, .T. ) ;
#267 = AXIS2_PLACEMENT_3D ( 'NONE', #207, #85, #110 ) ;
#268 = MECHANICAL_DESIGN_GEOMETRIC_PRESENTATION_REPRESENTATION (  '', ( #102 ), #252 ) ;
#269 = DIRECTION ( 'NONE',  ( -0.000000000000000000, -1.000000000000000000, -0.000000000000000000 ) ) ;
#270 = CARTESIAN_POINT ( 'NONE',  ( 4.898587196589412829E-16, 0.000000000000000000, 4.000000000000000000 ) ) ;
#271 = FILL_AREA_STYLE ('',( #345 ) ) ;
#272 = FILL_AREA_STYLE_COLOUR ( '', #86 ) ;
#273 = STYLED_ITEM ( 'NONE', ( #69 ), #136 ) ;
#274 = ADVANCED_FACE ( 'NONE', ( #341 ), #23, .F. ) ;
#275 = DIRECTION ( 'NONE',  ( 0.000000000000000000, -0.000000000000000000, 1.000000000000000000 ) ) ;
#276 = DIRECTION ( 'NONE',  ( -1.000000000000000000, 0.000000000000000000, 0.000000000000000000 ) ) ;
#277 = PRESENTATION_STYLE_ASSIGNMENT (( #160 ) ) ;
#278 = SURFACE_STYLE_FILL_AREA ( #153 ) ;
#279 = SURFACE_STYLE_FILL_AREA ( #271 ) ;
#280 =( NAMED_UNIT ( * ) SI_UNIT ( $, .STERADIAN. ) SOLID_ANGLE_UNIT ( ) );
#281 = PRODUCT_DEFINITION_CONTEXT ( 'detailed design', #368, 'design' ) ;
#282 = FACE_OUTER_BOUND ( 'NONE', #173, .T. ) ;
#283 = VECTOR ( 'NONE', #269, 1000.000000000000000 ) ;
#284 =( GEOMETRIC_REPRESENTATION_CONTEXT ( 3 ) GLOBAL_UNCERTAINTY_ASSIGNED_CONTEXT ( ( #190 ) ) GLOBAL_UNIT_ASSIGNED_CONTEXT ( ( #159, #128, #155 ) ) REPRESENTATION_CONTEXT ( 'NONE', 'WORKASPACE' ) );
#285 = ORIENTED_EDGE ( 'NONE', *, *, #361, .F. ) ;
#286 =( NAMED_UNIT ( * ) PLANE_ANGLE_UNIT ( ) SI_UNIT ( $, .RADIAN. ) );
#287 = DIRECTION ( 'NONE',  ( 0.000000000000000000, 0.000000000000000000, -1.000000000000000000 ) ) ;
#288 = CARTESIAN_POINT ( 'NONE',  ( 0.000000000000000000, 24.00000000000000000, 0.000000000000000000 ) ) ;
#289 = CARTESIAN_POINT ( 'NONE',  ( 4.000000000000000000, 24.00000000000000000, 4.898587196589413815E-16 ) ) ;
#290 = ORIENTED_EDGE ( 'NONE', *, *, #361, .T. ) ;
#291 = VERTEX_POINT ( 'NONE', #79 ) ;
#292 = UNCERTAINTY_MEASURE_WITH_UNIT (LENGTH_MEASURE( 1.000000000000000082E-05 ), #41, 'distance_accuracy_value', 'NONE');
#293 = PRESENTATION_LAYER_ASSIGNMENT (  '', '', ( #327 ) ) ;
#294 = SURFACE_STYLE_USAGE ( .BOTH. , #174 ) ;
#295 = ORIENTED_EDGE ( 'NONE', *, *, #324, .T. ) ;
#296 = ORIENTED_EDGE ( 'NONE', *, *, #42, .T. ) ;
#297 = ORIENTED_EDGE ( 'NONE', *, *, #133, .T. ) ;
#298 = ORIENTED_EDGE ( 'NONE', *, *, #211, .F. ) ;
#299 = MECHANICAL_DESIGN_GEOMETRIC_PRESENTATION_REPRESENTATION (  '', ( #273 ), #215 ) ;
#300 = EDGE_LOOP ( 'NONE', ( #47, #233 ) ) ;
#301 = COLOUR_RGB ( '',1.000000000000000000, 0.000000000000000000, 0.000000000000000000 ) ;
#302 = FACE_OUTER_BOUND ( 'NONE', #206, .T. ) ;
#303 = SURFACE_STYLE_USAGE ( .BOTH. , #123 ) ;
#304 = STYLED_ITEM ( 'NONE', ( #91 ), #21 ) ;
#305 = SURFACE_STYLE_FILL_AREA ( #130 ) ;
#306 = CARTESIAN_POINT ( 'NONE',  ( 0.000000000000000000, 0.000000000000000000, 0.000000000000000000 ) ) ;
#307 = DIRECTION ( 'NONE',  ( -0.000000000000000000, -1.000000000000000000, -0.000000000000000000 ) ) ;
#308 = DIRECTION ( 'NONE',  ( 0.000000000000000000, 0.000000000000000000, 1.000000000000000000 ) ) ;
#309 = CYLINDRICAL_SURFACE ( 'NONE', #204, 3.999999999999998224 ) ;
#310 = CARTESIAN_POINT ( 'NONE',  ( -1.469576158976823750E-15, 75.00000000000000000, 0.000000000000000000 ) ) ;
#311 = CARTESIAN_POINT ( 'NONE',  ( 0.000000000000000000, 24.00000000000000000, 0.000000000000000000 ) ) ;
#312 = STYLED_ITEM ( 'NONE', ( #246 ), #205 ) ;
#313 = MECHANICAL_DESIGN_GEOMETRIC_PRESENTATION_REPRESENTATION (  '', ( #227 ), #284 ) ;
#314 = DIRECTION ( 'NONE',  ( -1.224646799147353454E-16, 0.000000000000000000, -1.000000000000000000 ) ) ;
#315 = DIRECTION ( 'NONE',  ( -0.000000000000000000, -1.000000000000000000, -0.000000000000000000 ) ) ;
#316 = AXIS2_PLACEMENT_3D ( 'NONE', #99, #276, #308 ) ;
#317 = PRODUCT_CONTEXT ( 'NONE', #88, 'mechanical' ) ;
#318 = FILL_AREA_STYLE_COLOUR ( '', #348 ) ;
#319 = MECHANICAL_DESIGN_GEOMETRIC_PRESENTATION_REPRESENTATION (  '', ( #304 ), #139 ) ;
#320 = LINE ( 'NONE', #270, #283 ) ;
#321 = ORIENTED_EDGE ( 'NONE', *, *, #28, .T. ) ;
#322 = AXIS2_PLACEMENT_3D ( 'NONE', #9, #120, #93 ) ;
#323 = CYLINDRICAL_SURFACE ( 'NONE', #340, 3.999999999999998224 ) ;
#324 = EDGE_CURVE ( 'NONE', #354, #27, #54, .T. ) ;
#325 = DIRECTION ( 'NONE',  ( -0.000000000000000000, -1.000000000000000000, -0.000000000000000000 ) ) ;
#326 = CARTESIAN_POINT ( 'NONE',  ( 0.000000000000000000, 0.5000000000000000000, 0.000000000000000000 ) ) ;
#327 = STYLED_ITEM ( 'NONE', ( #195 ), #265 ) ;
#328 = DIRECTION ( 'NONE',  ( -1.223542297630008506E-16, 1.000000000000000000, -0.000000000000000000 ) ) ;
#329 = EDGE_CURVE ( 'NONE', #331, #179, #29, .T. ) ;
#330 = DIRECTION ( 'NONE',  ( -0.000000000000000000, -1.000000000000000000, -0.000000000000000000 ) ) ;
#331 = VERTEX_POINT ( 'NONE', #229 ) ;
#332 = SURFACE_STYLE_USAGE ( .BOTH. , #122 ) ;
#333 = SURFACE_STYLE_USAGE ( .BOTH. , #77 ) ;
#334 = VERTEX_POINT ( 'NONE', #109 ) ;
#335 = DIRECTION ( 'NONE',  ( 0.000000000000000000, 0.000000000000000000, -1.000000000000000000 ) ) ;
#336 = AXIS2_PLACEMENT_3D ( 'NONE', #260, #370, #168 ) ;
#337 = EDGE_CURVE ( 'NONE', #354, #78, #48, .T. ) ;
#338 = DIRECTION ( 'NONE',  ( -0.000000000000000000, -1.000000000000000000, -0.000000000000000000 ) ) ;
#339 = PRESENTATION_LAYER_ASSIGNMENT (  '', '', ( #102 ) ) ;
#340 = AXIS2_PLACEMENT_3D ( 'NONE', #310, #126, #19 ) ;
#341 = FACE_OUTER_BOUND ( 'NONE', #230, .T. ) ;
#342 = CARTESIAN_POINT ( 'NONE',  ( 4.770489558936219510E-15, 24.00000000000000000, 0.000000000000000000 ) ) ;
#343 = ORIENTED_EDGE ( 'NONE', *, *, #172, .F. ) ;
#344 =( NAMED_UNIT ( * ) PLANE_ANGLE_UNIT ( ) SI_UNIT ( $, .RADIAN. ) );
#345 = FILL_AREA_STYLE_COLOUR ( '', #251 ) ;
#346 =( LENGTH_UNIT ( ) NAMED_UNIT ( * ) SI_UNIT ( .MILLI., .METRE. ) );
#347 = EDGE_CURVE ( 'NONE', #27, #291, #224, .T. ) ;
#348 = COLOUR_RGB ( '',0.7921568627450980005, 0.8196078431372548767, 0.9333333333333333481 ) ;
#349 = ORIENTED_EDGE ( 'NONE', *, *, #337, .T. ) ;
#350 =( GEOMETRIC_REPRESENTATION_CONTEXT ( 3 ) GLOBAL_UNCERTAINTY_ASSIGNED_CONTEXT ( ( #225 ) ) GLOBAL_UNIT_ASSIGNED_CONTEXT ( ( #97, #119, #67 ) ) REPRESENTATION_CONTEXT ( 'NONE', 'WORKASPACE' ) );
#351 = AXIS2_PLACEMENT_3D ( 'NONE', #288, #104, #131 ) ;
#352 =( NAMED_UNIT ( * ) PLANE_ANGLE_UNIT ( ) SI_UNIT ( $, .RADIAN. ) );
#353 = EDGE_CURVE ( 'NONE', #63, #1, #245, .T. ) ;
#354 = VERTEX_POINT ( 'NONE', #289 ) ;
#355 = ORIENTED_EDGE ( 'NONE', *, *, #337, .F. ) ;
#356 = PRESENTATION_LAYER_ASSIGNMENT (  '', '', ( #273 ) ) ;
#357 =( LENGTH_UNIT ( ) NAMED_UNIT ( * ) SI_UNIT ( .MILLI., .METRE. ) );
#358 = FILL_AREA_STYLE_COLOUR ( '', #38 ) ;
#359 =( NAMED_UNIT ( * ) SI_UNIT ( $, .STERADIAN. ) SOLID_ANGLE_UNIT ( ) );
#360 = CARTESIAN_POINT ( 'NONE',  ( 4.286263797015736595E-16, 0.5000000000000000000, 3.500000000000000000 ) ) ;
#361 = EDGE_CURVE ( 'NONE', #78, #354, #71, .T. ) ;
#362 = FACE_OUTER_BOUND ( 'NONE', #300, .T. ) ;
#363 = CARTESIAN_POINT ( 'NONE',  ( -1.469576158976823750E-15, 75.00000000000000000, 0.000000000000000000 ) ) ;
#364 = DIRECTION ( 'NONE',  ( 1.000000000000000000, 0.000000000000000000, -1.224646799147353207E-16 ) ) ;
#365 = VECTOR ( 'NONE', #328, 1000.000000000000000 ) ;
#366 = AXIS2_PLACEMENT_3D ( 'NONE', #306, #307, #183 ) ;
#367 = ORIENTED_EDGE ( 'NONE', *, *, #28, .F. ) ;
#368 = APPLICATION_CONTEXT ( 'automotive_design' ) ;
#369 = CARTESIAN_POINT ( 'NONE',  ( 0.000000000000000000, 0.000000000000000000, 0.000000000000000000 ) ) ;
#370 = DIRECTION ( 'NONE',  ( 1.223542297630008506E-16, -1.000000000000000000, 0.000000000000000000 ) ) ;
ENDSEC;
END-ISO-10303-21;
