ISO-10303-21;
HEADER;
FILE_DESCRIPTION (( 'STEP AP214' ),
    '1' );
FILE_NAME ('Micro_AEMM-110-3.STEP',
    '2022-03-15T14:30:47',
    ( '' ),
    ( '' ),
    'SwSTEP 2.0',
    'SolidWorks 2022',
    '' );
FILE_SCHEMA (( 'AUTOMOTIVE_DESIGN' ));
ENDSEC;

DATA;
#1 = ORIENTED_EDGE ( 'NONE', *, *, #83, .T. ) ;
#2 = CARTESIAN_POINT ( 'NONE',  ( 0.2163189644999999606, 2.649143274697949133E-17, 0.000000000000000000 ) ) ;
#3 = ORIENTED_EDGE ( 'NONE', *, *, #56, .T. ) ;
#4 = CARTESIAN_POINT ( 'NONE',  ( -0.2212205000000019295, 0.000000000000000000, 3.267717000000000649 ) ) ;
#5 = AXIS2_PLACEMENT_3D ( 'NONE', #84, #158, #172 ) ;
#6 = APPLICATION_PROTOCOL_DEFINITION ( 'draft international standard', 'automotive_design', 1998, #37 ) ;
#7 =( LENGTH_UNIT ( ) NAMED_UNIT ( * ) SI_UNIT ( $, .METRE. ) );
#8 = DIRECTION ( 'NONE',  ( -0.000000000000000000, -0.000000000000000000, -1.000000000000000000 ) ) ;
#9 = COLOUR_RGB ( '',0.7921568627450980005, 0.8196078431372548767, 0.9333333333333333481 ) ;
#10 = DIRECTION ( 'NONE',  ( 1.000000000000000000, 0.000000000000000000, 0.000000000000000000 ) ) ;
#11 = FACE_OUTER_BOUND ( 'NONE', #275, .T. ) ;
#12 = ORIENTED_EDGE ( 'NONE', *, *, #92, .F. ) ;
#13 = CARTESIAN_POINT ( 'NONE',  ( 1.446432783766537492E-16, 0.000000000000000000, 1.181102000000000096 ) ) ;
#14 = EDGE_LOOP ( 'NONE', ( #62, #111, #244, #54 ) ) ;
#15 = SURFACE_SIDE_STYLE ('',( #34 ) ) ;
#16 = DIRECTION ( 'NONE',  ( 1.000000000000000000, 0.000000000000000000, 0.000000000000000000 ) ) ;
#17 = DIRECTION ( 'NONE',  ( -1.000000000000000000, 0.000000000000000000, 0.000000000000000000 ) ) ;
#18 = CIRCLE ( 'NONE', #79, 0.2362204999999999999 ) ;
#19 = EDGE_CURVE ( 'NONE', #180, #160, #240, .T. ) ;
#20 = CARTESIAN_POINT ( 'NONE',  ( 1.584655259137388501E-16, 0.000000000000000000, 1.293969216463626060 ) ) ;
#21 = DIRECTION ( 'NONE',  ( 0.000000000000000000, 0.000000000000000000, 1.000000000000000000 ) ) ;
#22 = EDGE_CURVE ( 'NONE', #295, #197, #47, .T. ) ;
#23 = FILL_AREA_STYLE ('',( #48 ) ) ;
#24 = CARTESIAN_POINT ( 'NONE',  ( -0.2163189644999998495, 2.771005033438911660E-17, 1.181102000000000096 ) ) ;
#25 = CARTESIAN_POINT ( 'NONE',  ( 0.000000000000000000, 0.000000000000000000, 3.267717000000000649 ) ) ;
#26 = CONICAL_SURFACE ( 'NONE', #129, 0.2212205000000019295, 0.7853981633974482790 ) ;
#27 = CYLINDRICAL_SURFACE ( 'NONE', #259, 0.2163189644999999606 ) ;
#28 = CLOSED_SHELL ( 'NONE', ( #118, #215, #96, #101, #149, #261, #169, #286, #200, #226 ) ) ;
#29 = CONICAL_SURFACE ( 'NONE', #251, 0.2163189644999999606, 0.1745329251994338915 ) ;
#30 = ORIENTED_EDGE ( 'NONE', *, *, #83, .F. ) ;
#31 = DIRECTION ( 'NONE',  ( 0.7071067811865474617, 8.659560562354932858E-17, -0.7071067811865474617 ) ) ;
#32 = EDGE_CURVE ( 'NONE', #180, #137, #63, .T. ) ;
#33 = CONICAL_SURFACE ( 'NONE', #207, 0.2212205000000019295, 0.7853981633974482790 ) ;
#34 = SURFACE_STYLE_FILL_AREA ( #87 ) ;
#35 = VECTOR ( 'NONE', #216, 39.37007874015748854 ) ;
#36 = ORIENTED_EDGE ( 'NONE', *, *, #32, .T. ) ;
#37 = APPLICATION_CONTEXT ( 'automotive_design' ) ;
#38 = ORIENTED_EDGE ( 'NONE', *, *, #103, .F. ) ;
#39 = DIRECTION ( 'NONE',  ( 1.000000000000000000, 0.000000000000000000, 0.000000000000000000 ) ) ;
#40 = VERTEX_POINT ( 'NONE', #186 ) ;
#41 = FACE_OUTER_BOUND ( 'NONE', #174, .T. ) ;
#42 = EDGE_CURVE ( 'NONE', #197, #295, #51, .T. ) ;
#43 = CARTESIAN_POINT ( 'NONE',  ( 0.000000000000000000, 0.000000000000000000, 3.267717000000000649 ) ) ;
#44 = DIRECTION ( 'NONE',  ( 1.224646799147353454E-16, 0.000000000000000000, 1.000000000000000000 ) ) ;
#45 = PRODUCT_CONTEXT ( 'NONE', #37, 'mechanical' ) ;
#46 = PRESENTATION_STYLE_ASSIGNMENT (( #283 ) ) ;
#47 = CIRCLE ( 'NONE', #277, 0.2163189644999999606 ) ;
#48 = FILL_AREA_STYLE_COLOUR ( '', #122 ) ;
#49 = CARTESIAN_POINT ( 'NONE',  ( 0.2362204999999999999, 2.892866792179872647E-17, 3.252717000000002301 ) ) ;
#50 = LINE ( 'NONE', #104, #243 ) ;
#51 = CIRCLE ( 'NONE', #220, 0.2163189644999999606 ) ;
#52 = DIRECTION ( 'NONE',  ( -1.224646799147353454E-16, -0.000000000000000000, -1.000000000000000000 ) ) ;
#53 = DIMENSIONAL_EXPONENTS ( 1.000000000000000000, 0.000000000000000000, 0.000000000000000000, 0.000000000000000000, 0.000000000000000000, 0.000000000000000000, 0.000000000000000000 ) ;
#54 = ORIENTED_EDGE ( 'NONE', *, *, #282, .F. ) ;
#55 = DIRECTION ( 'NONE',  ( 1.000000000000000000, 0.000000000000000000, -0.000000000000000000 ) ) ;
#56 = EDGE_CURVE ( 'NONE', #197, #134, #253, .T. ) ;
#57 = MECHANICAL_DESIGN_GEOMETRIC_PRESENTATION_REPRESENTATION (  '', ( #214 ), #250 ) ;
#58 = ORIENTED_EDGE ( 'NONE', *, *, #282, .T. ) ;
#59 = PRODUCT_DEFINITION ( 'UNKNOWN', '', #299, #248 ) ;
#60 = VERTEX_POINT ( 'NONE', #2 ) ;
#61 = CARTESIAN_POINT ( 'NONE',  ( 0.000000000000000000, 0.000000000000000000, 3.267717000000000649 ) ) ;
#62 = ORIENTED_EDGE ( 'NONE', *, *, #103, .T. ) ;
#63 = CIRCLE ( 'NONE', #298, 0.2212205000000019295 ) ;
#64 = CARTESIAN_POINT ( 'NONE',  ( 1.446432783766537492E-16, 0.000000000000000000, 1.181102000000000096 ) ) ;
#65 = EDGE_LOOP ( 'NONE', ( #222, #36 ) ) ;
#66 = DIRECTION ( 'NONE',  ( 0.1736481776669313859, 0.000000000000000000, 0.9848077530122077983 ) ) ;
#67 = UNCERTAINTY_MEASURE_WITH_UNIT (LENGTH_MEASURE( 1.000000000000000082E-05 ), #171, 'distance_accuracy_value', 'NONE');
#68 = CYLINDRICAL_SURFACE ( 'NONE', #211, 0.2362204999999999999 ) ;
#69 = EDGE_LOOP ( 'NONE', ( #225, #270, #58, #12 ) ) ;
#70 = DIRECTION ( 'NONE',  ( -1.000000000000000000, 0.000000000000000000, 0.000000000000000000 ) ) ;
#71 = VECTOR ( 'NONE', #31, 39.37007874015748854 ) ;
#72 = AXIS2_PLACEMENT_3D ( 'NONE', #235, #52, #287 ) ;
#73 = LENGTH_MEASURE_WITH_UNIT ( LENGTH_MEASURE( 0.02539999999999999897 ), #256 );
#74 = DIRECTION ( 'NONE',  ( 1.000000000000000000, 0.000000000000000000, 0.000000000000000000 ) ) ;
#75 =( NAMED_UNIT ( * ) PLANE_ANGLE_UNIT ( ) SI_UNIT ( $, .RADIAN. ) );
#76 = VECTOR ( 'NONE', #66, 39.37007874015748143 ) ;
#77 = DIRECTION ( 'NONE',  ( 0.000000000000000000, 0.000000000000000000, 1.000000000000000000 ) ) ;
#78 = CARTESIAN_POINT ( 'NONE',  ( -0.2212205000000019295, 0.000000000000000000, 3.267717000000000649 ) ) ;
#79 = AXIS2_PLACEMENT_3D ( 'NONE', #20, #246, #95 ) ;
#80 = CIRCLE ( 'NONE', #5, 0.2212205000000019295 ) ;
#81 = ORIENTED_EDGE ( 'NONE', *, *, #42, .T. ) ;
#82 = DIRECTION ( 'NONE',  ( 1.000000000000000000, 0.000000000000000000, 0.000000000000000000 ) ) ;
#83 = EDGE_CURVE ( 'NONE', #197, #238, #273, .T. ) ;
#84 = CARTESIAN_POINT ( 'NONE',  ( 0.000000000000000000, 0.000000000000000000, 3.267717000000000649 ) ) ;
#85 =( GEOMETRIC_REPRESENTATION_CONTEXT ( 3 ) GLOBAL_UNCERTAINTY_ASSIGNED_CONTEXT ( ( #192 ) ) GLOBAL_UNIT_ASSIGNED_CONTEXT ( ( #150, #75, #123 ) ) REPRESENTATION_CONTEXT ( 'NONE', 'WORKASPACE' ) );
#86 = ORIENTED_EDGE ( 'NONE', *, *, #99, .T. ) ;
#87 = FILL_AREA_STYLE ('',( #119 ) ) ;
#88 = ORIENTED_EDGE ( 'NONE', *, *, #136, .T. ) ;
#89 = DIRECTION ( 'NONE',  ( -1.000000000000000000, 0.000000000000000000, 1.224646799147353454E-16 ) ) ;
#90 = AXIS2_PLACEMENT_3D ( 'NONE', #163, #91, #112 ) ;
#91 = DIRECTION ( 'NONE',  ( 0.000000000000000000, 0.000000000000000000, -1.000000000000000000 ) ) ;
#92 = EDGE_CURVE ( 'NONE', #108, #134, #138, .T. ) ;
#93 = DIRECTION ( 'NONE',  ( -1.224646799147353454E-16, -0.000000000000000000, -1.000000000000000000 ) ) ;
#94 = ORIENTED_EDGE ( 'NONE', *, *, #213, .F. ) ;
#95 = DIRECTION ( 'NONE',  ( 1.000000000000000000, 0.000000000000000000, 0.000000000000000000 ) ) ;
#96 = ADVANCED_FACE ( 'NONE', ( #274 ), #33, .T. ) ;
#97 = CARTESIAN_POINT ( 'NONE',  ( 1.446432783766537492E-16, 0.000000000000000000, 1.181102000000000096 ) ) ;
#98 = VECTOR ( 'NONE', #206, 39.37007874015747433 ) ;
#99 = EDGE_CURVE ( 'NONE', #295, #108, #113, .T. ) ;
#100 = APPLICATION_PROTOCOL_DEFINITION ( 'draft international standard', 'automotive_design', 1998, #294 ) ;
#101 = ADVANCED_FACE ( 'NONE', ( #117 ), #68, .T. ) ;
#102 = CARTESIAN_POINT ( 'NONE',  ( 0.000000000000000000, 0.000000000000000000, 3.252717000000002301 ) ) ;
#103 = EDGE_CURVE ( 'NONE', #40, #160, #193, .T. ) ;
#104 = CARTESIAN_POINT ( 'NONE',  ( -0.2362204999999999999, 0.000000000000000000, 3.267717000000000649 ) ) ;
#105 = LENGTH_MEASURE_WITH_UNIT ( LENGTH_MEASURE( 0.02539999999999999897 ), #157 );
#106 = EDGE_LOOP ( 'NONE', ( #88, #166 ) ) ;
#107 = CARTESIAN_POINT ( 'NONE',  ( 1.446432783766537492E-16, 0.000000000000000000, 1.181102000000000096 ) ) ;
#108 = VERTEX_POINT ( 'NONE', #202 ) ;
#109 =( GEOMETRIC_REPRESENTATION_CONTEXT ( 3 ) GLOBAL_UNCERTAINTY_ASSIGNED_CONTEXT ( ( #67 ) ) GLOBAL_UNIT_ASSIGNED_CONTEXT ( ( #171, #189, #278 ) ) REPRESENTATION_CONTEXT ( 'NONE', 'WORKASPACE' ) );
#110 = ORIENTED_EDGE ( 'NONE', *, *, #178, .F. ) ;
#111 = ORIENTED_EDGE ( 'NONE', *, *, #265, .T. ) ;
#112 = DIRECTION ( 'NONE',  ( 1.000000000000000000, 0.000000000000000000, 0.000000000000000000 ) ) ;
#113 = LINE ( 'NONE', #161, #76 ) ;
#114 = CIRCLE ( 'NONE', #120, 0.2163189644999999606 ) ;
#115 = AXIS2_PLACEMENT_3D ( 'NONE', #190, #21, #121 ) ;
#116 = CARTESIAN_POINT ( 'NONE',  ( 0.000000000000000000, 0.000000000000000000, 3.267717000000000649 ) ) ;
#117 = FACE_OUTER_BOUND ( 'NONE', #14, .T. ) ;
#118 = ADVANCED_FACE ( 'NONE', ( #41 ), #146, .T. ) ;
#119 = FILL_AREA_STYLE_COLOUR ( '', #9 ) ;
#120 = AXIS2_PLACEMENT_3D ( 'NONE', #205, #147, #89 ) ;
#121 = DIRECTION ( 'NONE',  ( 1.000000000000000000, 0.000000000000000000, 0.000000000000000000 ) ) ;
#122 = COLOUR_RGB ( '',0.7921568627450980005, 0.8196078431372548767, 0.9333333333333333481 ) ;
#123 =( NAMED_UNIT ( * ) SI_UNIT ( $, .STERADIAN. ) SOLID_ANGLE_UNIT ( ) );
#124 = SURFACE_STYLE_FILL_AREA ( #23 ) ;
#125 = DIRECTION ( 'NONE',  ( -1.000000000000000000, 0.000000000000000000, 1.224646799147353454E-16 ) ) ;
#126 = UNCERTAINTY_MEASURE_WITH_UNIT (LENGTH_MEASURE( 1.000000000000000082E-05 ), #196, 'distance_accuracy_value', 'NONE');
#127 = AXIS2_PLACEMENT_3D ( 'NONE', #184, #164, #296 ) ;
#128 = DIRECTION ( 'NONE',  ( 0.000000000000000000, 0.000000000000000000, -1.000000000000000000 ) ) ;
#129 = AXIS2_PLACEMENT_3D ( 'NONE', #25, #260, #132 ) ;
#130 = DIRECTION ( 'NONE',  ( -1.224646799147353454E-16, -0.000000000000000000, -1.000000000000000000 ) ) ;
#131 = FACE_OUTER_BOUND ( 'NONE', #227, .T. ) ;
#132 = DIRECTION ( 'NONE',  ( -1.000000000000000000, 0.000000000000000000, 0.000000000000000000 ) ) ;
#133 = CIRCLE ( 'NONE', #72, 0.2163189644999999606 ) ;
#134 = VERTEX_POINT ( 'NONE', #228 ) ;
#135 = EDGE_CURVE ( 'NONE', #134, #108, #18, .T. ) ;
#136 = EDGE_CURVE ( 'NONE', #238, #60, #114, .T. ) ;
#137 = VERTEX_POINT ( 'NONE', #4 ) ;
#138 = CIRCLE ( 'NONE', #201, 0.2362204999999999999 ) ;
#139 = ORIENTED_EDGE ( 'NONE', *, *, #42, .F. ) ;
#140 = DIRECTION ( 'NONE',  ( -1.000000000000000000, 0.000000000000000000, 0.000000000000000000 ) ) ;
#141 = ORIENTED_EDGE ( 'NONE', *, *, #32, .F. ) ;
#142 = ORIENTED_EDGE ( 'NONE', *, *, #168, .T. ) ;
#143 = DIRECTION ( 'NONE',  ( 0.000000000000000000, 0.000000000000000000, -1.000000000000000000 ) ) ;
#144 = EDGE_LOOP ( 'NONE', ( #182, #292, #86, #234 ) ) ;
#145 = AXIS2_PLACEMENT_3D ( 'NONE', #102, #128, #10 ) ;
#146 = CYLINDRICAL_SURFACE ( 'NONE', #127, 0.2163189644999999606 ) ;
#147 = DIRECTION ( 'NONE',  ( -1.224646799147353454E-16, -0.000000000000000000, -1.000000000000000000 ) ) ;
#148 = SURFACE_SIDE_STYLE ('',( #124 ) ) ;
#149 = ADVANCED_FACE ( 'NONE', ( #242 ), #188, .T. ) ;
#150 =( CONVERSION_BASED_UNIT ( 'INCH', #73 ) LENGTH_UNIT ( ) NAMED_UNIT ( #236 ) );
#151 = FACE_OUTER_BOUND ( 'NONE', #106, .T. ) ;
#152 = MANIFOLD_SOLID_BREP ( 'Cut-Revolve1', #28 ) ;
#153 = CARTESIAN_POINT ( 'NONE',  ( -0.2163189644999999606, 0.000000000000000000, 5.298286549395898883E-17 ) ) ;
#154 = FACE_OUTER_BOUND ( 'NONE', #144, .T. ) ;
#155 = ADVANCED_BREP_SHAPE_REPRESENTATION ( 'Micro_AEMM-110-3', ( #152, #115 ), #85 ) ;
#156 = FACE_OUTER_BOUND ( 'NONE', #219, .T. ) ;
#157 =( LENGTH_UNIT ( ) NAMED_UNIT ( * ) SI_UNIT ( $, .METRE. ) );
#158 = DIRECTION ( 'NONE',  ( 0.000000000000000000, 0.000000000000000000, 1.000000000000000000 ) ) ;
#159 = EDGE_LOOP ( 'NONE', ( #141, #268, #38, #94 ) ) ;
#160 = VERTEX_POINT ( 'NONE', #49 ) ;
#161 = CARTESIAN_POINT ( 'NONE',  ( 0.2163189645000000993, 0.000000000000000000, 1.181102000000000096 ) ) ;
#162 = CONICAL_SURFACE ( 'NONE', #293, 0.2163189644999999606, 0.1745329251994338915 ) ;
#163 = CARTESIAN_POINT ( 'NONE',  ( 0.000000000000000000, 0.000000000000000000, 3.252717000000002301 ) ) ;
#164 = DIRECTION ( 'NONE',  ( -1.224646799147353454E-16, -0.000000000000000000, -1.000000000000000000 ) ) ;
#165 = CARTESIAN_POINT ( 'NONE',  ( 0.000000000000000000, 0.000000000000000000, 3.267717000000000649 ) ) ;
#166 = ORIENTED_EDGE ( 'NONE', *, *, #178, .T. ) ;
#167 = DIRECTION ( 'NONE',  ( -0.000000000000000000, -0.000000000000000000, -1.000000000000000000 ) ) ;
#168 = EDGE_CURVE ( 'NONE', #295, #60, #175, .T. ) ;
#169 = ADVANCED_FACE ( 'NONE', ( #11 ), #26, .T. ) ;
#170 = STYLED_ITEM ( 'NONE', ( #46 ), #155 ) ;
#171 =( CONVERSION_BASED_UNIT ( 'INCH', #254 ) LENGTH_UNIT ( ) NAMED_UNIT ( #53 ) );
#172 = DIRECTION ( 'NONE',  ( 1.000000000000000000, 0.000000000000000000, 0.000000000000000000 ) ) ;
#173 = DIRECTION ( 'NONE',  ( 1.000000000000000000, 0.000000000000000000, -0.000000000000000000 ) ) ;
#174 = EDGE_LOOP ( 'NONE', ( #81, #142, #252, #30 ) ) ;
#175 = LINE ( 'NONE', #285, #291 ) ;
#176 = MECHANICAL_DESIGN_GEOMETRIC_PRESENTATION_REPRESENTATION (  '', ( #170 ), #109 ) ;
#177 = PLANE ( 'NONE',  #208 ) ;
#178 = EDGE_CURVE ( 'NONE', #60, #238, #133, .T. ) ;
#179 = LINE ( 'NONE', #210, #239 ) ;
#180 = VERTEX_POINT ( 'NONE', #199 ) ;
#181 = CARTESIAN_POINT ( 'NONE',  ( -0.2163189644999999606, 0.000000000000000000, 2.649143274697949442E-17 ) ) ;
#182 = ORIENTED_EDGE ( 'NONE', *, *, #56, .F. ) ;
#183 = SURFACE_STYLE_USAGE ( .BOTH. , #15 ) ;
#184 = CARTESIAN_POINT ( 'NONE',  ( 0.000000000000000000, 0.000000000000000000, 0.000000000000000000 ) ) ;
#185 = ORIENTED_EDGE ( 'NONE', *, *, #19, .F. ) ;
#186 = CARTESIAN_POINT ( 'NONE',  ( -0.2362204999999999999, 0.000000000000000000, 3.252717000000002301 ) ) ;
#187 = ORIENTED_EDGE ( 'NONE', *, *, #22, .T. ) ;
#188 = CYLINDRICAL_SURFACE ( 'NONE', #255, 0.2362204999999999999 ) ;
#189 =( NAMED_UNIT ( * ) PLANE_ANGLE_UNIT ( ) SI_UNIT ( $, .RADIAN. ) );
#190 = CARTESIAN_POINT ( 'NONE',  ( 0.000000000000000000, 0.000000000000000000, 0.000000000000000000 ) ) ;
#191 = PRODUCT_RELATED_PRODUCT_CATEGORY ( 'part', '', ( #267 ) ) ;
#192 = UNCERTAINTY_MEASURE_WITH_UNIT (LENGTH_MEASURE( 1.000000000000000082E-05 ), #150, 'distance_accuracy_value', 'NONE');
#193 = CIRCLE ( 'NONE', #90, 0.2362204999999999999 ) ;
#194 = LINE ( 'NONE', #78, #35 ) ;
#195 =( NAMED_UNIT ( * ) SI_UNIT ( $, .STERADIAN. ) SOLID_ANGLE_UNIT ( ) );
#196 =( CONVERSION_BASED_UNIT ( 'INCH', #105 ) LENGTH_UNIT ( ) NAMED_UNIT ( #262 ) );
#197 = VERTEX_POINT ( 'NONE', #24 ) ;
#198 = DIRECTION ( 'NONE',  ( 1.224646799147353454E-16, 0.000000000000000000, 1.000000000000000000 ) ) ;
#199 = CARTESIAN_POINT ( 'NONE',  ( 0.2212205000000019295, 2.801018282243833685E-17, 3.267717000000000649 ) ) ;
#200 = ADVANCED_FACE ( 'NONE', ( #156 ), #27, .T. ) ;
#201 = AXIS2_PLACEMENT_3D ( 'NONE', #297, #93, #39 ) ;
#202 = CARTESIAN_POINT ( 'NONE',  ( 0.2362205000000001665, 2.892866792179874496E-17, 1.293969216463626060 ) ) ;
#203 = DIRECTION ( 'NONE',  ( -1.224646799147353454E-16, -0.000000000000000000, -1.000000000000000000 ) ) ;
#204 = ORIENTED_EDGE ( 'NONE', *, *, #213, .T. ) ;
#205 = CARTESIAN_POINT ( 'NONE',  ( 3.244264831841582330E-33, 0.000000000000000000, 2.649143274697949442E-17 ) ) ;
#206 = DIRECTION ( 'NONE',  ( -0.1736481776669311916, 2.126576849575783316E-17, 0.9848077530122080203 ) ) ;
#207 = AXIS2_PLACEMENT_3D ( 'NONE', #43, #143, #229 ) ;
#208 = AXIS2_PLACEMENT_3D ( 'NONE', #263, #77, #55 ) ;
#209 = PRESENTATION_STYLE_ASSIGNMENT (( #183 ) ) ;
#210 = CARTESIAN_POINT ( 'NONE',  ( 0.2362204999999999999, 2.892866792179872647E-17, 3.267717000000000649 ) ) ;
#211 = AXIS2_PLACEMENT_3D ( 'NONE', #165, #249, #269 ) ;
#212 = PLANE ( 'NONE',  #288 ) ;
#213 = EDGE_CURVE ( 'NONE', #137, #40, #194, .T. ) ;
#214 = STYLED_ITEM ( 'NONE', ( #209 ), #152 ) ;
#215 = ADVANCED_FACE ( 'NONE', ( #131 ), #29, .T. ) ;
#216 = DIRECTION ( 'NONE',  ( -0.7071067811865474617, 0.000000000000000000, -0.7071067811865474617 ) ) ;
#217 = ORIENTED_EDGE ( 'NONE', *, *, #135, .T. ) ;
#218 = CARTESIAN_POINT ( 'NONE',  ( 0.2212205000000019295, 2.709169772307794108E-17, 3.267717000000000649 ) ) ;
#219 = EDGE_LOOP ( 'NONE', ( #247, #187, #1, #110 ) ) ;
#220 = AXIS2_PLACEMENT_3D ( 'NONE', #64, #203, #70 ) ;
#221 = PRESENTATION_LAYER_ASSIGNMENT (  '', '', ( #170 ) ) ;
#222 = ORIENTED_EDGE ( 'NONE', *, *, #231, .T. ) ;
#223 = CARTESIAN_POINT ( 'NONE',  ( -0.2163189644999998495, 2.649143274697949133E-17, 1.181102000000000096 ) ) ;
#224 = DIRECTION ( 'NONE',  ( 0.000000000000000000, 0.000000000000000000, 1.000000000000000000 ) ) ;
#225 = ORIENTED_EDGE ( 'NONE', *, *, #265, .F. ) ;
#226 = ADVANCED_FACE ( 'NONE', ( #151 ), #177, .F. ) ;
#227 = EDGE_LOOP ( 'NONE', ( #139, #3, #217, #289 ) ) ;
#228 = CARTESIAN_POINT ( 'NONE',  ( -0.2362204999999998334, 0.000000000000000000, 1.293969216463626060 ) ) ;
#229 = DIRECTION ( 'NONE',  ( -1.000000000000000000, 0.000000000000000000, 0.000000000000000000 ) ) ;
#230 = CARTESIAN_POINT ( 'NONE',  ( 0.2163189645000000993, 0.000000000000000000, 1.181102000000000096 ) ) ;
#231 = EDGE_CURVE ( 'NONE', #137, #180, #80, .T. ) ;
#232 = CARTESIAN_POINT ( 'NONE',  ( 0.000000000000000000, 0.000000000000000000, 0.000000000000000000 ) ) ;
#233 = CIRCLE ( 'NONE', #145, 0.2362204999999999999 ) ;
#234 = ORIENTED_EDGE ( 'NONE', *, *, #92, .T. ) ;
#235 = CARTESIAN_POINT ( 'NONE',  ( 3.244264831841582330E-33, 0.000000000000000000, 2.649143274697949442E-17 ) ) ;
#236 = DIMENSIONAL_EXPONENTS ( 1.000000000000000000, 0.000000000000000000, 0.000000000000000000, 0.000000000000000000, 0.000000000000000000, 0.000000000000000000, 0.000000000000000000 ) ;
#237 = DIRECTION ( 'NONE',  ( 0.000000000000000000, 0.000000000000000000, 1.000000000000000000 ) ) ;
#238 = VERTEX_POINT ( 'NONE', #153 ) ;
#239 = VECTOR ( 'NONE', #8, 39.37007874015748143 ) ;
#240 = LINE ( 'NONE', #218, #71 ) ;
#241 = ORIENTED_EDGE ( 'NONE', *, *, #272, .F. ) ;
#242 = FACE_OUTER_BOUND ( 'NONE', #69, .T. ) ;
#243 = VECTOR ( 'NONE', #258, 39.37007874015748143 ) ;
#244 = ORIENTED_EDGE ( 'NONE', *, *, #135, .F. ) ;
#245 = ORIENTED_EDGE ( 'NONE', *, *, #231, .F. ) ;
#246 = DIRECTION ( 'NONE',  ( -1.224646799147353454E-16, -0.000000000000000000, -1.000000000000000000 ) ) ;
#247 = ORIENTED_EDGE ( 'NONE', *, *, #168, .F. ) ;
#248 = PRODUCT_DEFINITION_CONTEXT ( 'detailed design', #294, 'design' ) ;
#249 = DIRECTION ( 'NONE',  ( -0.000000000000000000, -0.000000000000000000, -1.000000000000000000 ) ) ;
#250 =( GEOMETRIC_REPRESENTATION_CONTEXT ( 3 ) GLOBAL_UNCERTAINTY_ASSIGNED_CONTEXT ( ( #126 ) ) GLOBAL_UNIT_ASSIGNED_CONTEXT ( ( #196, #284, #195 ) ) REPRESENTATION_CONTEXT ( 'NONE', 'WORKASPACE' ) );
#251 = AXIS2_PLACEMENT_3D ( 'NONE', #107, #198, #82 ) ;
#252 = ORIENTED_EDGE ( 'NONE', *, *, #136, .F. ) ;
#253 = LINE ( 'NONE', #223, #98 ) ;
#254 = LENGTH_MEASURE_WITH_UNIT ( LENGTH_MEASURE( 0.02539999999999999897 ), #7 );
#255 = AXIS2_PLACEMENT_3D ( 'NONE', #61, #167, #140 ) ;
#256 =( LENGTH_UNIT ( ) NAMED_UNIT ( * ) SI_UNIT ( $, .METRE. ) );
#257 = FACE_OUTER_BOUND ( 'NONE', #65, .T. ) ;
#258 = DIRECTION ( 'NONE',  ( -0.000000000000000000, -0.000000000000000000, -1.000000000000000000 ) ) ;
#259 = AXIS2_PLACEMENT_3D ( 'NONE', #232, #290, #125 ) ;
#260 = DIRECTION ( 'NONE',  ( 0.000000000000000000, 0.000000000000000000, -1.000000000000000000 ) ) ;
#261 = ADVANCED_FACE ( 'NONE', ( #257 ), #212, .T. ) ;
#262 = DIMENSIONAL_EXPONENTS ( 1.000000000000000000, 0.000000000000000000, 0.000000000000000000, 0.000000000000000000, 0.000000000000000000, 0.000000000000000000, 0.000000000000000000 ) ;
#263 = CARTESIAN_POINT ( 'NONE',  ( 0.000000000000000000, 0.000000000000000000, 0.000000000000000000 ) ) ;
#264 = CARTESIAN_POINT ( 'NONE',  ( 0.000000000000000000, 0.000000000000000000, 3.267717000000000649 ) ) ;
#265 = EDGE_CURVE ( 'NONE', #160, #108, #179, .T. ) ;
#266 = DIRECTION ( 'NONE',  ( -1.224646799147353454E-16, -0.000000000000000000, -1.000000000000000000 ) ) ;
#267 = PRODUCT ( 'Micro_AEMM-110-3', 'Micro_AEMM-110-3', '', ( #45 ) ) ;
#268 = ORIENTED_EDGE ( 'NONE', *, *, #19, .T. ) ;
#269 = DIRECTION ( 'NONE',  ( -1.000000000000000000, 0.000000000000000000, 0.000000000000000000 ) ) ;
#270 = ORIENTED_EDGE ( 'NONE', *, *, #272, .T. ) ;
#271 = VECTOR ( 'NONE', #276, 39.37007874015748143 ) ;
#272 = EDGE_CURVE ( 'NONE', #160, #40, #233, .T. ) ;
#273 = LINE ( 'NONE', #181, #271 ) ;
#274 = FACE_OUTER_BOUND ( 'NONE', #159, .T. ) ;
#275 = EDGE_LOOP ( 'NONE', ( #185, #245, #204, #241 ) ) ;
#276 = DIRECTION ( 'NONE',  ( -1.224646799147353454E-16, -0.000000000000000000, -1.000000000000000000 ) ) ;
#277 = AXIS2_PLACEMENT_3D ( 'NONE', #13, #266, #17 ) ;
#278 =( NAMED_UNIT ( * ) SI_UNIT ( $, .STERADIAN. ) SOLID_ANGLE_UNIT ( ) );
#279 = SHAPE_DEFINITION_REPRESENTATION ( #280, #155 ) ;
#280 = PRODUCT_DEFINITION_SHAPE ( 'NONE', 'NONE',  #59 ) ;
#281 = PRESENTATION_LAYER_ASSIGNMENT (  '', '', ( #214 ) ) ;
#282 = EDGE_CURVE ( 'NONE', #40, #134, #50, .T. ) ;
#283 = SURFACE_STYLE_USAGE ( .BOTH. , #148 ) ;
#284 =( NAMED_UNIT ( * ) PLANE_ANGLE_UNIT ( ) SI_UNIT ( $, .RADIAN. ) );
#285 = CARTESIAN_POINT ( 'NONE',  ( 0.2163189644999999606, 2.649143274697949133E-17, -2.649143274697949442E-17 ) ) ;
#286 = ADVANCED_FACE ( 'NONE', ( #154 ), #162, .T. ) ;
#287 = DIRECTION ( 'NONE',  ( -1.000000000000000000, 0.000000000000000000, 1.224646799147353454E-16 ) ) ;
#288 = AXIS2_PLACEMENT_3D ( 'NONE', #264, #237, #173 ) ;
#289 = ORIENTED_EDGE ( 'NONE', *, *, #99, .F. ) ;
#290 = DIRECTION ( 'NONE',  ( -1.224646799147353454E-16, -0.000000000000000000, -1.000000000000000000 ) ) ;
#291 = VECTOR ( 'NONE', #130, 39.37007874015748143 ) ;
#292 = ORIENTED_EDGE ( 'NONE', *, *, #22, .F. ) ;
#293 = AXIS2_PLACEMENT_3D ( 'NONE', #97, #44, #74 ) ;
#294 = APPLICATION_CONTEXT ( 'automotive_design' ) ;
#295 = VERTEX_POINT ( 'NONE', #230 ) ;
#296 = DIRECTION ( 'NONE',  ( -1.000000000000000000, 0.000000000000000000, 1.224646799147353454E-16 ) ) ;
#297 = CARTESIAN_POINT ( 'NONE',  ( 1.584655259137388501E-16, 0.000000000000000000, 1.293969216463626060 ) ) ;
#298 = AXIS2_PLACEMENT_3D ( 'NONE', #116, #224, #16 ) ;
#299 = PRODUCT_DEFINITION_FORMATION_WITH_SPECIFIED_SOURCE ( 'ANY', '', #267, .NOT_KNOWN. ) ;
ENDSEC;
END-ISO-10303-21;
