ISO-10303-21;
HEADER;
FILE_DESCRIPTION (( 'STEP AP214' ),
    '1' );
FILE_NAME ('Micro_RNCM-060-2X.STEP',
    '2021-09-03T17:42:03',
    ( '' ),
    ( '' ),
    'SwSTEP 2.0',
    'SolidWorks 2020',
    '' );
FILE_SCHEMA (( 'AUTOMOTIVE_DESIGN' ));
ENDSEC;

DATA;
#1 = LINE ( 'NONE', #77, #49 ) ;
#2 = EDGE_LOOP ( 'NONE', ( #108, #237, #126, #139 ) ) ;
#3 = EDGE_CURVE ( 'NONE', #235, #50, #222, .T. ) ;
#4 = CONICAL_SURFACE ( 'NONE', #58, 0.003936999999999995191, 0.7853981633974503884 ) ;
#5 = ORIENTED_EDGE ( 'NONE', *, *, #223, .F. ) ;
#6 = FACE_OUTER_BOUND ( 'NONE', #101, .T. ) ;
#7 = ORIENTED_EDGE ( 'NONE', *, *, #84, .T. ) ;
#8 = ORIENTED_EDGE ( 'NONE', *, *, #3, .F. ) ;
#9 = DIRECTION ( 'NONE',  ( -1.000000000000000000, 0.0000000000000000000, 0.0000000000000000000 ) ) ;
#10 =( GEOMETRIC_REPRESENTATION_CONTEXT ( 3 ) GLOBAL_UNCERTAINTY_ASSIGNED_CONTEXT ( ( #203 ) ) GLOBAL_UNIT_ASSIGNED_CONTEXT ( ( #76, #247, #39 ) ) REPRESENTATION_CONTEXT ( 'NONE', 'WORKASPACE' ) );
#11 =( LENGTH_UNIT ( ) NAMED_UNIT ( * ) SI_UNIT ( $, .METRE. ) );
#12 = AXIS2_PLACEMENT_3D ( 'NONE', #144, #215, #240 ) ;
#13 = DIRECTION ( 'NONE',  ( 0.0000000000000000000, 0.0000000000000000000, -1.000000000000000000 ) ) ;
#14 = FACE_OUTER_BOUND ( 'NONE', #23, .T. ) ;
#15 = ORIENTED_EDGE ( 'NONE', *, *, #180, .T. ) ;
#16 = SHAPE_DEFINITION_REPRESENTATION ( #221, #17 ) ;
#17 = ADVANCED_BREP_SHAPE_REPRESENTATION ( 'Micro_RNCM-060-2X', ( #129, #33 ), #153 ) ;
#18 = CARTESIAN_POINT ( 'NONE',  ( 0.0000000000000000000, 0.0000000000000000000, 0.0000000000000000000 ) ) ;
#19 = VECTOR ( 'NONE', #87, 39.37007874015748143 ) ;
#20 = LINE ( 'NONE', #43, #37 ) ;
#21 = CARTESIAN_POINT ( 'NONE',  ( 0.1181100000000000066, 1.446430334472939084E-17, 2.129921000000000397 ) ) ;
#22 = CARTESIAN_POINT ( 'NONE',  ( 0.003936999999999995191, 0.0000000000000000000, 0.0000000000000000000 ) ) ;
#23 = EDGE_LOOP ( 'NONE', ( #245, #74, #195, #182 ) ) ;
#24 = CLOSED_SHELL ( 'NONE', ( #213, #30, #131, #42, #141, #236, #165, #35 ) ) ;
#25 = CARTESIAN_POINT ( 'NONE',  ( 0.0000000000000000000, 0.0000000000000000000, 0.0000000000000000000 ) ) ;
#26 = ORIENTED_EDGE ( 'NONE', *, *, #91, .T. ) ;
#27 = ORIENTED_EDGE ( 'NONE', *, *, #117, .T. ) ;
#28 = ORIENTED_EDGE ( 'NONE', *, *, #180, .F. ) ;
#29 = FACE_OUTER_BOUND ( 'NONE', #105, .T. ) ;
#30 = ADVANCED_FACE ( 'NONE', ( #6 ), #4, .T. ) ;
#31 = AXIS2_PLACEMENT_3D ( 'NONE', #18, #111, #47 ) ;
#32 = CIRCLE ( 'NONE', #238, 0.003936999999999995191 ) ;
#33 = AXIS2_PLACEMENT_3D ( 'NONE', #112, #132, #246 ) ;
#34 = DIRECTION ( 'NONE',  ( -0.7071067811865490160, -8.659560562354951347E-17, -0.7071067811865460184 ) ) ;
#35 = ADVANCED_FACE ( 'NONE', ( #29 ), #194, .T. ) ;
#36 = PRODUCT_CONTEXT ( 'NONE', #53, 'mechanical' ) ;
#37 = VECTOR ( 'NONE', #151, 39.37007874015748143 ) ;
#38 = ORIENTED_EDGE ( 'NONE', *, *, #56, .F. ) ;
#39 =( NAMED_UNIT ( * ) SI_UNIT ( $, .STERADIAN. ) SOLID_ANGLE_UNIT ( ) );
#40 = PRODUCT_DEFINITION_CONTEXT ( 'detailed design', #85, 'design' ) ;
#41 = DIMENSIONAL_EXPONENTS ( 1.000000000000000000, 0.0000000000000000000, 0.0000000000000000000, 0.0000000000000000000, 0.0000000000000000000, 0.0000000000000000000, 0.0000000000000000000 ) ;
#42 = ADVANCED_FACE ( 'NONE', ( #218 ), #52, .T. ) ;
#43 = CARTESIAN_POINT ( 'NONE',  ( -0.003936999999999995191, 4.821434448243123477E-19, 0.0000000000000000000 ) ) ;
#44 = VECTOR ( 'NONE', #34, 39.37007874015748143 ) ;
#45 =( CONVERSION_BASED_UNIT ( 'INCH', #59 ) LENGTH_UNIT ( ) NAMED_UNIT ( #41 ) );
#46 = FACE_OUTER_BOUND ( 'NONE', #179, .T. ) ;
#47 = DIRECTION ( 'NONE',  ( 1.000000000000000000, 0.0000000000000000000, 0.0000000000000000000 ) ) ;
#48 = DIRECTION ( 'NONE',  ( 0.0000000000000000000, 0.0000000000000000000, -1.000000000000000000 ) ) ;
#49 = VECTOR ( 'NONE', #62, 39.37007874015748143 ) ;
#50 = VERTEX_POINT ( 'NONE', #83 ) ;
#51 = CARTESIAN_POINT ( 'NONE',  ( 0.1181100000000000066, 1.446430334472939084E-17, 2.244094000000000033 ) ) ;
#52 = CYLINDRICAL_SURFACE ( 'NONE', #125, 0.1181100000000000066 ) ;
#53 = APPLICATION_CONTEXT ( 'automotive_design' ) ;
#54 = LINE ( 'NONE', #51, #216 ) ;
#55 = EDGE_CURVE ( 'NONE', #162, #191, #54, .T. ) ;
#56 = EDGE_CURVE ( 'NONE', #99, #239, #181, .T. ) ;
#57 = ORIENTED_EDGE ( 'NONE', *, *, #127, .F. ) ;
#58 = AXIS2_PLACEMENT_3D ( 'NONE', #81, #142, #198 ) ;
#59 = LENGTH_MEASURE_WITH_UNIT ( LENGTH_MEASURE( 0.02539999999999999897 ), #11 );
#60 = DIRECTION ( 'NONE',  ( -1.000000000000000000, 0.0000000000000000000, 0.0000000000000000000 ) ) ;
#61 = PRESENTATION_STYLE_ASSIGNMENT (( #205 ) ) ;
#62 = DIRECTION ( 'NONE',  ( 0.7071067811865490160, 0.0000000000000000000, 0.7071067811865460184 ) ) ;
#63 = FACE_OUTER_BOUND ( 'NONE', #178, .T. ) ;
#64 = CARTESIAN_POINT ( 'NONE',  ( 0.0000000000000000000, 0.0000000000000000000, 0.0000000000000000000 ) ) ;
#65 = ORIENTED_EDGE ( 'NONE', *, *, #167, .T. ) ;
#66 = ORIENTED_EDGE ( 'NONE', *, *, #220, .T. ) ;
#67 = ORIENTED_EDGE ( 'NONE', *, *, #220, .F. ) ;
#68 = LINE ( 'NONE', #214, #19 ) ;
#69 = CIRCLE ( 'NONE', #97, 0.003936999999999995191 ) ;
#70 = CARTESIAN_POINT ( 'NONE',  ( 0.003936999999999995191, 0.0000000000000000000, 2.244094000000000033 ) ) ;
#71 = ORIENTED_EDGE ( 'NONE', *, *, #55, .T. ) ;
#72 = CARTESIAN_POINT ( 'NONE',  ( 0.0000000000000000000, 0.0000000000000000000, 2.244094000000000033 ) ) ;
#73 = DIRECTION ( 'NONE',  ( -1.000000000000000000, 0.0000000000000000000, 0.0000000000000000000 ) ) ;
#74 = ORIENTED_EDGE ( 'NONE', *, *, #91, .F. ) ;
#75 =( NAMED_UNIT ( * ) PLANE_ANGLE_UNIT ( ) SI_UNIT ( $, .RADIAN. ) );
#76 =( CONVERSION_BASED_UNIT ( 'INCH', #206 ) LENGTH_UNIT ( ) NAMED_UNIT ( #92 ) );
#77 = CARTESIAN_POINT ( 'NONE',  ( 0.003936999999999995191, 0.0000000000000000000, 0.0000000000000000000 ) ) ;
#78 = CARTESIAN_POINT ( 'NONE',  ( 0.0000000000000000000, 0.0000000000000000000, 2.129921000000000397 ) ) ;
#79 = PRESENTATION_LAYER_ASSIGNMENT (  '', '', ( #241 ) ) ;
#80 = DIRECTION ( 'NONE',  ( 1.000000000000000000, 0.0000000000000000000, -0.0000000000000000000 ) ) ;
#81 = CARTESIAN_POINT ( 'NONE',  ( 0.0000000000000000000, 0.0000000000000000000, 0.0000000000000000000 ) ) ;
#82 = LINE ( 'NONE', #159, #44 ) ;
#83 = CARTESIAN_POINT ( 'NONE',  ( -0.003936999999999995191, -7.473223394776851115E-18, 2.244094000000000033 ) ) ;
#84 = EDGE_CURVE ( 'NONE', #121, #162, #232, .T. ) ;
#85 = APPLICATION_CONTEXT ( 'automotive_design' ) ;
#86 = CIRCLE ( 'NONE', #199, 0.1181100000000000066 ) ;
#87 = DIRECTION ( 'NONE',  ( -0.0000000000000000000, -0.0000000000000000000, -1.000000000000000000 ) ) ;
#88 = PRODUCT_RELATED_PRODUCT_CATEGORY ( 'part', '', ( #192 ) ) ;
#89 = AXIS2_PLACEMENT_3D ( 'NONE', #116, #94, #173 ) ;
#90 = COLOUR_RGB ( '',0.7921568627450980005, 0.8196078431372548767, 0.9333333333333333481 ) ;
#91 = EDGE_CURVE ( 'NONE', #239, #99, #69, .T. ) ;
#92 = DIMENSIONAL_EXPONENTS ( 1.000000000000000000, 0.0000000000000000000, 0.0000000000000000000, 0.0000000000000000000, 0.0000000000000000000, 0.0000000000000000000, 0.0000000000000000000 ) ;
#93 = AXIS2_PLACEMENT_3D ( 'NONE', #163, #118, #145 ) ;
#94 = DIRECTION ( 'NONE',  ( -0.0000000000000000000, -0.0000000000000000000, -1.000000000000000000 ) ) ;
#95 = PRODUCT_DEFINITION ( 'UNKNOWN', '', #185, #40 ) ;
#96 = DIRECTION ( 'NONE',  ( -0.0000000000000000000, -0.0000000000000000000, -1.000000000000000000 ) ) ;
#97 = AXIS2_PLACEMENT_3D ( 'NONE', #25, #140, #104 ) ;
#98 = CYLINDRICAL_SURFACE ( 'NONE', #161, 0.1181100000000000066 ) ;
#99 = VERTEX_POINT ( 'NONE', #197 ) ;
#100 = DIRECTION ( 'NONE',  ( -1.000000000000000000, 0.0000000000000000000, 0.0000000000000000000 ) ) ;
#101 = EDGE_LOOP ( 'NONE', ( #38, #65, #15, #5 ) ) ;
#102 = EDGE_CURVE ( 'NONE', #121, #234, #68, .T. ) ;
#103 = CIRCLE ( 'NONE', #89, 0.1181100000000000066 ) ;
#104 = DIRECTION ( 'NONE',  ( -1.000000000000000000, 0.0000000000000000000, 0.0000000000000000000 ) ) ;
#105 = EDGE_LOOP ( 'NONE', ( #8, #202 ) ) ;
#106 = DIRECTION ( 'NONE',  ( -1.000000000000000000, 0.0000000000000000000, 0.0000000000000000000 ) ) ;
#107 = AXIS2_PLACEMENT_3D ( 'NONE', #78, #190, #73 ) ;
#108 = ORIENTED_EDGE ( 'NONE', *, *, #55, .F. ) ;
#109 = UNCERTAINTY_MEASURE_WITH_UNIT (LENGTH_MEASURE( 1.000000000000000082E-05 ), #45, 'distance_accuracy_value', 'NONE');
#110 = SURFACE_SIDE_STYLE ('',( #135 ) ) ;
#111 = DIRECTION ( 'NONE',  ( 0.0000000000000000000, 0.0000000000000000000, 1.000000000000000000 ) ) ;
#112 = CARTESIAN_POINT ( 'NONE',  ( 0.0000000000000000000, 0.0000000000000000000, 0.0000000000000000000 ) ) ;
#113 = SURFACE_STYLE_USAGE ( .BOTH. , #227 ) ;
#114 = PRESENTATION_LAYER_ASSIGNMENT (  '', '', ( #120 ) ) ;
#115 = CARTESIAN_POINT ( 'NONE',  ( 0.003936999999999995191, 0.0000000000000000000, 2.244094000000000033 ) ) ;
#116 = CARTESIAN_POINT ( 'NONE',  ( 0.0000000000000000000, 0.0000000000000000000, 0.1141729999999995387 ) ) ;
#117 = EDGE_CURVE ( 'NONE', #50, #121, #82, .T. ) ;
#118 = DIRECTION ( 'NONE',  ( 0.0000000000000000000, 0.0000000000000000000, -1.000000000000000000 ) ) ;
#119 = CONICAL_SURFACE ( 'NONE', #152, 0.003936999999999995191, 0.7853981633974503884 ) ;
#120 = STYLED_ITEM ( 'NONE', ( #61 ), #17 ) ;
#121 = VERTEX_POINT ( 'NONE', #225 ) ;
#122 = CARTESIAN_POINT ( 'NONE',  ( 0.0000000000000000000, 0.0000000000000000000, 2.244094000000000033 ) ) ;
#123 = DIRECTION ( 'NONE',  ( -1.000000000000000000, 0.0000000000000000000, 0.0000000000000000000 ) ) ;
#124 = EDGE_CURVE ( 'NONE', #50, #235, #32, .T. ) ;
#125 = AXIS2_PLACEMENT_3D ( 'NONE', #122, #196, #9 ) ;
#126 = ORIENTED_EDGE ( 'NONE', *, *, #102, .T. ) ;
#127 = EDGE_CURVE ( 'NONE', #162, #121, #248, .T. ) ;
#128 = CARTESIAN_POINT ( 'NONE',  ( 0.0000000000000000000, 0.0000000000000000000, 2.244094000000000033 ) ) ;
#129 = MANIFOLD_SOLID_BREP ( 'Mirror1', #24 ) ;
#130 = COLOUR_RGB ( '',0.7921568627450980005, 0.8196078431372548767, 0.9333333333333333481 ) ;
#131 = ADVANCED_FACE ( 'NONE', ( #46 ), #98, .T. ) ;
#132 = DIRECTION ( 'NONE',  ( 0.0000000000000000000, 0.0000000000000000000, 1.000000000000000000 ) ) ;
#133 = ORIENTED_EDGE ( 'NONE', *, *, #117, .F. ) ;
#134 = FACE_OUTER_BOUND ( 'NONE', #219, .T. ) ;
#135 = SURFACE_STYLE_FILL_AREA ( #184 ) ;
#136 = DIRECTION ( 'NONE',  ( 0.7071067811865490160, 0.0000000000000000000, -0.7071067811865460184 ) ) ;
#137 = CONICAL_SURFACE ( 'NONE', #201, 0.003936999999999995191, 0.7853981633974503884 ) ;
#138 = FILL_AREA_STYLE ('',( #157 ) ) ;
#139 = ORIENTED_EDGE ( 'NONE', *, *, #204, .F. ) ;
#140 = DIRECTION ( 'NONE',  ( -0.0000000000000000000, -0.0000000000000000000, -1.000000000000000000 ) ) ;
#141 = ADVANCED_FACE ( 'NONE', ( #14 ), #188, .T. ) ;
#142 = DIRECTION ( 'NONE',  ( 0.0000000000000000000, 0.0000000000000000000, 1.000000000000000000 ) ) ;
#143 = MECHANICAL_DESIGN_GEOMETRIC_PRESENTATION_REPRESENTATION (  '', ( #241 ), #10 ) ;
#144 = CARTESIAN_POINT ( 'NONE',  ( 0.0000000000000000000, 0.0000000000000000000, 2.244094000000000033 ) ) ;
#145 = DIRECTION ( 'NONE',  ( -1.000000000000000000, 0.0000000000000000000, 0.0000000000000000000 ) ) ;
#146 = ORIENTED_EDGE ( 'NONE', *, *, #3, .T. ) ;
#147 = AXIS2_PLACEMENT_3D ( 'NONE', #64, #158, #123 ) ;
#148 =( NAMED_UNIT ( * ) SI_UNIT ( $, .STERADIAN. ) SOLID_ANGLE_UNIT ( ) );
#149 = PLANE ( 'NONE',  #183 ) ;
#150 = EDGE_LOOP ( 'NONE', ( #133, #171, #66, #212 ) ) ;
#151 = DIRECTION ( 'NONE',  ( -0.7071067811865490160, 8.659560562354951347E-17, 0.7071067811865460184 ) ) ;
#152 = AXIS2_PLACEMENT_3D ( 'NONE', #249, #231, #244 ) ;
#153 =( GEOMETRIC_REPRESENTATION_CONTEXT ( 3 ) GLOBAL_UNCERTAINTY_ASSIGNED_CONTEXT ( ( #109 ) ) GLOBAL_UNIT_ASSIGNED_CONTEXT ( ( #45, #75, #148 ) ) REPRESENTATION_CONTEXT ( 'NONE', 'WORKASPACE' ) );
#154 = FACE_OUTER_BOUND ( 'NONE', #150, .T. ) ;
#155 =( NAMED_UNIT ( * ) SI_UNIT ( $, .STERADIAN. ) SOLID_ANGLE_UNIT ( ) );
#156 = DIRECTION ( 'NONE',  ( 1.000000000000000000, 0.0000000000000000000, 0.0000000000000000000 ) ) ;
#157 = FILL_AREA_STYLE_COLOUR ( '', #130 ) ;
#158 = DIRECTION ( 'NONE',  ( -0.0000000000000000000, -0.0000000000000000000, -1.000000000000000000 ) ) ;
#159 = CARTESIAN_POINT ( 'NONE',  ( -0.003936999999999995191, -4.821434448243123477E-19, 2.244094000000000033 ) ) ;
#160 = ORIENTED_EDGE ( 'NONE', *, *, #102, .F. ) ;
#161 = AXIS2_PLACEMENT_3D ( 'NONE', #186, #189, #168 ) ;
#162 = VERTEX_POINT ( 'NONE', #21 ) ;
#163 = CARTESIAN_POINT ( 'NONE',  ( 0.0000000000000000000, 0.0000000000000000000, 2.244094000000000033 ) ) ;
#164 = AXIS2_PLACEMENT_3D ( 'NONE', #217, #48, #106 ) ;
#165 = ADVANCED_FACE ( 'NONE', ( #154 ), #137, .T. ) ;
#166 =( LENGTH_UNIT ( ) NAMED_UNIT ( * ) SI_UNIT ( $, .METRE. ) );
#167 = EDGE_CURVE ( 'NONE', #99, #234, #20, .T. ) ;
#168 = DIRECTION ( 'NONE',  ( -1.000000000000000000, 0.0000000000000000000, 0.0000000000000000000 ) ) ;
#169 =( CONVERSION_BASED_UNIT ( 'INCH', #200 ) LENGTH_UNIT ( ) NAMED_UNIT ( #226 ) );
#170 = CARTESIAN_POINT ( 'NONE',  ( 0.1181100000000000066, 1.446430334472939084E-17, 0.1141729999999995387 ) ) ;
#171 = ORIENTED_EDGE ( 'NONE', *, *, #124, .T. ) ;
#172 = APPLICATION_PROTOCOL_DEFINITION ( 'draft international standard', 'automotive_design', 1998, #85 ) ;
#173 = DIRECTION ( 'NONE',  ( -1.000000000000000000, 0.0000000000000000000, 0.0000000000000000000 ) ) ;
#174 = LINE ( 'NONE', #115, #228 ) ;
#175 = DIRECTION ( 'NONE',  ( -0.0000000000000000000, -0.0000000000000000000, -1.000000000000000000 ) ) ;
#176 = MECHANICAL_DESIGN_GEOMETRIC_PRESENTATION_REPRESENTATION (  '', ( #120 ), #242 ) ;
#177 = ORIENTED_EDGE ( 'NONE', *, *, #56, .T. ) ;
#178 = EDGE_LOOP ( 'NONE', ( #146, #27, #57, #67 ) ) ;
#179 = EDGE_LOOP ( 'NONE', ( #7, #71, #28, #160 ) ) ;
#180 = EDGE_CURVE ( 'NONE', #234, #191, #86, .T. ) ;
#181 = CIRCLE ( 'NONE', #147, 0.003936999999999995191 ) ;
#182 = ORIENTED_EDGE ( 'NONE', *, *, #204, .T. ) ;
#183 = AXIS2_PLACEMENT_3D ( 'NONE', #208, #193, #80 ) ;
#184 = FILL_AREA_STYLE ('',( #243 ) ) ;
#185 = PRODUCT_DEFINITION_FORMATION_WITH_SPECIFIED_SOURCE ( 'ANY', '', #192, .NOT_KNOWN. ) ;
#186 = CARTESIAN_POINT ( 'NONE',  ( 0.0000000000000000000, 0.0000000000000000000, 2.244094000000000033 ) ) ;
#187 = PRESENTATION_STYLE_ASSIGNMENT (( #113 ) ) ;
#188 = CONICAL_SURFACE ( 'NONE', #31, 0.003936999999999995191, 0.7853981633974503884 ) ;
#189 = DIRECTION ( 'NONE',  ( -0.0000000000000000000, -0.0000000000000000000, -1.000000000000000000 ) ) ;
#190 = DIRECTION ( 'NONE',  ( 0.0000000000000000000, 0.0000000000000000000, -1.000000000000000000 ) ) ;
#191 = VERTEX_POINT ( 'NONE', #170 ) ;
#192 = PRODUCT ( 'Micro_RNCM-060-2X', 'Micro_RNCM-060-2X', '', ( #36 ) ) ;
#193 = DIRECTION ( 'NONE',  ( 0.0000000000000000000, 0.0000000000000000000, 1.000000000000000000 ) ) ;
#194 = PLANE ( 'NONE',  #12 ) ;
#195 = ORIENTED_EDGE ( 'NONE', *, *, #223, .T. ) ;
#196 = DIRECTION ( 'NONE',  ( -0.0000000000000000000, -0.0000000000000000000, -1.000000000000000000 ) ) ;
#197 = CARTESIAN_POINT ( 'NONE',  ( -0.003936999999999995191, 7.473223394776851115E-18, 0.0000000000000000000 ) ) ;
#198 = DIRECTION ( 'NONE',  ( 1.000000000000000000, 0.0000000000000000000, 0.0000000000000000000 ) ) ;
#199 = AXIS2_PLACEMENT_3D ( 'NONE', #229, #96, #60 ) ;
#200 = LENGTH_MEASURE_WITH_UNIT ( LENGTH_MEASURE( 0.02539999999999999897 ), #166 );
#201 = AXIS2_PLACEMENT_3D ( 'NONE', #72, #13, #156 ) ;
#202 = ORIENTED_EDGE ( 'NONE', *, *, #124, .F. ) ;
#203 = UNCERTAINTY_MEASURE_WITH_UNIT (LENGTH_MEASURE( 1.000000000000000082E-05 ), #76, 'distance_accuracy_value', 'NONE');
#204 = EDGE_CURVE ( 'NONE', #191, #234, #103, .T. ) ;
#205 = SURFACE_STYLE_USAGE ( .BOTH. , #110 ) ;
#206 = LENGTH_MEASURE_WITH_UNIT ( LENGTH_MEASURE( 0.02539999999999999897 ), #233 );
#207 =( NAMED_UNIT ( * ) PLANE_ANGLE_UNIT ( ) SI_UNIT ( $, .RADIAN. ) );
#208 = CARTESIAN_POINT ( 'NONE',  ( 0.0000000000000000000, 0.0000000000000000000, 0.0000000000000000000 ) ) ;
#209 = CARTESIAN_POINT ( 'NONE',  ( -0.1181100000000000066, 0.0000000000000000000, 0.1141729999999995387 ) ) ;
#210 = DIRECTION ( 'NONE',  ( 0.0000000000000000000, 0.0000000000000000000, -1.000000000000000000 ) ) ;
#211 = SURFACE_STYLE_FILL_AREA ( #138 ) ;
#212 = ORIENTED_EDGE ( 'NONE', *, *, #84, .F. ) ;
#213 = ADVANCED_FACE ( 'NONE', ( #63 ), #119, .T. ) ;
#214 = CARTESIAN_POINT ( 'NONE',  ( -0.1181100000000000066, 0.0000000000000000000, 2.244094000000000033 ) ) ;
#215 = DIRECTION ( 'NONE',  ( 0.0000000000000000000, 0.0000000000000000000, 1.000000000000000000 ) ) ;
#216 = VECTOR ( 'NONE', #175, 39.37007874015748143 ) ;
#217 = CARTESIAN_POINT ( 'NONE',  ( 0.0000000000000000000, 0.0000000000000000000, 2.129921000000000397 ) ) ;
#218 = FACE_OUTER_BOUND ( 'NONE', #2, .T. ) ;
#219 = EDGE_LOOP ( 'NONE', ( #26, #177 ) ) ;
#220 = EDGE_CURVE ( 'NONE', #235, #162, #174, .T. ) ;
#221 = PRODUCT_DEFINITION_SHAPE ( 'NONE', 'NONE',  #95 ) ;
#222 = CIRCLE ( 'NONE', #93, 0.003936999999999995191 ) ;
#223 = EDGE_CURVE ( 'NONE', #239, #191, #1, .T. ) ;
#224 = APPLICATION_PROTOCOL_DEFINITION ( 'draft international standard', 'automotive_design', 1998, #53 ) ;
#225 = CARTESIAN_POINT ( 'NONE',  ( -0.1181100000000000066, 0.0000000000000000000, 2.129921000000000397 ) ) ;
#226 = DIMENSIONAL_EXPONENTS ( 1.000000000000000000, 0.0000000000000000000, 0.0000000000000000000, 0.0000000000000000000, 0.0000000000000000000, 0.0000000000000000000, 0.0000000000000000000 ) ;
#227 = SURFACE_SIDE_STYLE ('',( #211 ) ) ;
#228 = VECTOR ( 'NONE', #136, 39.37007874015748143 ) ;
#229 = CARTESIAN_POINT ( 'NONE',  ( 0.0000000000000000000, 0.0000000000000000000, 0.1141729999999995387 ) ) ;
#230 = UNCERTAINTY_MEASURE_WITH_UNIT (LENGTH_MEASURE( 1.000000000000000082E-05 ), #169, 'distance_accuracy_value', 'NONE');
#231 = DIRECTION ( 'NONE',  ( 0.0000000000000000000, 0.0000000000000000000, -1.000000000000000000 ) ) ;
#232 = CIRCLE ( 'NONE', #164, 0.1181100000000000066 ) ;
#233 =( LENGTH_UNIT ( ) NAMED_UNIT ( * ) SI_UNIT ( $, .METRE. ) );
#234 = VERTEX_POINT ( 'NONE', #209 ) ;
#235 = VERTEX_POINT ( 'NONE', #70 ) ;
#236 = ADVANCED_FACE ( 'NONE', ( #134 ), #149, .F. ) ;
#237 = ORIENTED_EDGE ( 'NONE', *, *, #127, .T. ) ;
#238 = AXIS2_PLACEMENT_3D ( 'NONE', #128, #210, #100 ) ;
#239 = VERTEX_POINT ( 'NONE', #22 ) ;
#240 = DIRECTION ( 'NONE',  ( 1.000000000000000000, 0.0000000000000000000, -0.0000000000000000000 ) ) ;
#241 = STYLED_ITEM ( 'NONE', ( #187 ), #129 ) ;
#242 =( GEOMETRIC_REPRESENTATION_CONTEXT ( 3 ) GLOBAL_UNCERTAINTY_ASSIGNED_CONTEXT ( ( #230 ) ) GLOBAL_UNIT_ASSIGNED_CONTEXT ( ( #169, #207, #155 ) ) REPRESENTATION_CONTEXT ( 'NONE', 'WORKASPACE' ) );
#243 = FILL_AREA_STYLE_COLOUR ( '', #90 ) ;
#244 = DIRECTION ( 'NONE',  ( 1.000000000000000000, 0.0000000000000000000, 0.0000000000000000000 ) ) ;
#245 = ORIENTED_EDGE ( 'NONE', *, *, #167, .F. ) ;
#246 = DIRECTION ( 'NONE',  ( 1.000000000000000000, 0.0000000000000000000, 0.0000000000000000000 ) ) ;
#247 =( NAMED_UNIT ( * ) PLANE_ANGLE_UNIT ( ) SI_UNIT ( $, .RADIAN. ) );
#248 = CIRCLE ( 'NONE', #107, 0.1181100000000000066 ) ;
#249 = CARTESIAN_POINT ( 'NONE',  ( 0.0000000000000000000, 0.0000000000000000000, 2.244094000000000033 ) ) ;
ENDSEC;
END-ISO-10303-21;
