ISO-10303-21;
HEADER;
FILE_DESCRIPTION (( 'STEP AP214' ),
    '1' );
FILE_NAME ('Micro_KC-500-750-120X.STEP',
    '2021-09-03T19:59:19',
    ( '' ),
    ( '' ),
    'SwSTEP 2.0',
    'SolidWorks 2020',
    '' );
FILE_SCHEMA (( 'AUTOMOTIVE_DESIGN' ));
ENDSEC;

DATA;
#1 = LINE ( 'NONE', #122, #356 ) ;
#2 = EDGE_LOOP ( 'NONE', ( #5, #141, #34, #131 ) ) ;
#3 = FILL_AREA_STYLE_COLOUR ( '', #118 ) ;
#4 = ORIENTED_EDGE ( 'NONE', *, *, #269, .F. ) ;
#5 = ORIENTED_EDGE ( 'NONE', *, *, #377, .F. ) ;
#6 = ORIENTED_EDGE ( 'NONE', *, *, #312, .F. ) ;
#7 = EDGE_CURVE ( 'NONE', #177, #379, #333, .T. ) ;
#8 = PRODUCT_DEFINITION ( 'UNKNOWN', '', #160, #21 ) ;
#9 = ORIENTED_EDGE ( 'NONE', *, *, #228, .F. ) ;
#10 = VECTOR ( 'NONE', #224, 39.37007874015748143 ) ;
#11 = SURFACE_SIDE_STYLE ('',( #149 ) ) ;
#12 = CARTESIAN_POINT ( 'NONE',  ( 0.0000000000000000000, 0.0000000000000000000, 0.7500000000000001110 ) ) ;
#13 = CARTESIAN_POINT ( 'NONE',  ( 0.0000000000000000000, 0.0000000000000000000, 0.1200000000000000233 ) ) ;
#14 = DIRECTION ( 'NONE',  ( 0.0000000000000000000, 0.0000000000000000000, -1.000000000000000000 ) ) ;
#15 = STYLED_ITEM ( 'NONE', ( #278 ), #112 ) ;
#16 = CONICAL_SURFACE ( 'NONE', #348, 0.2350000000000011524, 0.7853981633974380649 ) ;
#17 = CARTESIAN_POINT ( 'NONE',  ( 0.1250000000000000833, 0.0000000000000000000, 0.7500000000000001110 ) ) ;
#18 = CYLINDRICAL_SURFACE ( 'NONE', #330, 0.2500000000000000000 ) ;
#19 = EDGE_CURVE ( 'NONE', #230, #328, #217, .T. ) ;
#20 = DIRECTION ( 'NONE',  ( 0.0000000000000000000, 0.0000000000000000000, 1.000000000000000000 ) ) ;
#21 = PRODUCT_DEFINITION_CONTEXT ( 'detailed design', #59, 'design' ) ;
#22 = DIRECTION ( 'NONE',  ( -0.0000000000000000000, -0.0000000000000000000, -1.000000000000000000 ) ) ;
#23 = CIRCLE ( 'NONE', #83, 0.1250000000000000833 ) ;
#24 = ORIENTED_EDGE ( 'NONE', *, *, #25, .F. ) ;
#25 = EDGE_CURVE ( 'NONE', #215, #328, #72, .T. ) ;
#26 = FACE_OUTER_BOUND ( 'NONE', #346, .T. ) ;
#27 = ORIENTED_EDGE ( 'NONE', *, *, #156, .F. ) ;
#28 = LINE ( 'NONE', #33, #63 ) ;
#29 = ORIENTED_EDGE ( 'NONE', *, *, #232, .T. ) ;
#30 = DIRECTION ( 'NONE',  ( 1.000000000000000000, 0.0000000000000000000, 0.0000000000000000000 ) ) ;
#31 = ORIENTED_EDGE ( 'NONE', *, *, #263, .T. ) ;
#32 = ADVANCED_FACE ( 'NONE', ( #268 ), #67, .T. ) ;
#33 = CARTESIAN_POINT ( 'NONE',  ( -0.2500000000000000000, 0.0000000000000000000, 3.000000000000000444 ) ) ;
#34 = ORIENTED_EDGE ( 'NONE', *, *, #246, .T. ) ;
#35 = FILL_AREA_STYLE ('',( #3 ) ) ;
#36 = DIRECTION ( 'NONE',  ( -0.7071067811865490160, 8.659560562354951347E-17, 0.7071067811865460184 ) ) ;
#37 = AXIS2_PLACEMENT_3D ( 'NONE', #179, #81, #200 ) ;
#38 = ORIENTED_EDGE ( 'NONE', *, *, #7, .F. ) ;
#39 = ADVANCED_FACE ( 'NONE', ( #45 ), #97, .F. ) ;
#40 = ORIENTED_EDGE ( 'NONE', *, *, #78, .F. ) ;
#41 = EDGE_CURVE ( 'NONE', #363, #73, #158, .T. ) ;
#42 = DIRECTION ( 'NONE',  ( -1.000000000000000000, 0.0000000000000000000, 0.0000000000000000000 ) ) ;
#43 = CONICAL_SURFACE ( 'NONE', #273, 0.1250000000000000833, 0.7853981633974503884 ) ;
#44 = APPLICATION_PROTOCOL_DEFINITION ( 'draft international standard', 'automotive_design', 1998, #364 ) ;
#45 = FACE_OUTER_BOUND ( 'NONE', #360, .T. ) ;
#46 = DIRECTION ( 'NONE',  ( 1.000000000000000000, 0.0000000000000000000, -0.0000000000000000000 ) ) ;
#47 = CARTESIAN_POINT ( 'NONE',  ( 0.0000000000000000000, 0.0000000000000000000, 3.000000000000000444 ) ) ;
#48 = AXIS2_PLACEMENT_3D ( 'NONE', #101, #274, #336 ) ;
#49 = AXIS2_PLACEMENT_3D ( 'NONE', #353, #86, #174 ) ;
#50 = DIRECTION ( 'NONE',  ( 1.000000000000000000, 0.0000000000000000000, -0.0000000000000000000 ) ) ;
#51 = EDGE_CURVE ( 'NONE', #73, #99, #359, .T. ) ;
#52 = DIRECTION ( 'NONE',  ( 0.0000000000000000000, 0.0000000000000000000, 1.000000000000000000 ) ) ;
#53 = DIRECTION ( 'NONE',  ( -0.0000000000000000000, -0.0000000000000000000, -1.000000000000000000 ) ) ;
#54 =( GEOMETRIC_REPRESENTATION_CONTEXT ( 3 ) GLOBAL_UNCERTAINTY_ASSIGNED_CONTEXT ( ( #314 ) ) GLOBAL_UNIT_ASSIGNED_CONTEXT ( ( #226, #110, #343 ) ) REPRESENTATION_CONTEXT ( 'NONE', 'WORKASPACE' ) );
#55 = ORIENTED_EDGE ( 'NONE', *, *, #272, .T. ) ;
#56 = DIRECTION ( 'NONE',  ( 1.000000000000000000, 0.0000000000000000000, 0.0000000000000000000 ) ) ;
#57 = ORIENTED_EDGE ( 'NONE', *, *, #19, .F. ) ;
#58 = CYLINDRICAL_SURFACE ( 'NONE', #375, 0.2500000000000000000 ) ;
#59 = APPLICATION_CONTEXT ( 'automotive_design' ) ;
#60 = ORIENTED_EDGE ( 'NONE', *, *, #25, .T. ) ;
#61 = DIRECTION ( 'NONE',  ( 1.000000000000000000, 0.0000000000000000000, 0.0000000000000000000 ) ) ;
#62 = ORIENTED_EDGE ( 'NONE', *, *, #88, .T. ) ;
#63 = VECTOR ( 'NONE', #344, 39.37007874015748143 ) ;
#64 = DIRECTION ( 'NONE',  ( -0.0000000000000000000, -0.0000000000000000000, -1.000000000000000000 ) ) ;
#65 = EDGE_LOOP ( 'NONE', ( #182, #55 ) ) ;
#66 = SURFACE_STYLE_USAGE ( .BOTH. , #11 ) ;
#67 = CYLINDRICAL_SURFACE ( 'NONE', #184, 0.1250000000000000555 ) ;
#68 = FACE_OUTER_BOUND ( 'NONE', #205, .T. ) ;
#69 = LENGTH_MEASURE_WITH_UNIT ( LENGTH_MEASURE( 0.02539999999999999897 ), #302 );
#70 = DIRECTION ( 'NONE',  ( -0.0000000000000000000, -0.0000000000000000000, -1.000000000000000000 ) ) ;
#71 = SHAPE_DEFINITION_REPRESENTATION ( #113, #298 ) ;
#72 = LINE ( 'NONE', #191, #138 ) ;
#73 = VERTEX_POINT ( 'NONE', #303 ) ;
#74 = CIRCLE ( 'NONE', #280, 0.2500000000000000000 ) ;
#75 = CARTESIAN_POINT ( 'NONE',  ( -0.2350000000000011524, 0.0000000000000000000, 3.000000000000000444 ) ) ;
#76 = FACE_OUTER_BOUND ( 'NONE', #267, .T. ) ;
#77 = CARTESIAN_POINT ( 'NONE',  ( 0.0000000000000000000, 0.0000000000000000000, 3.000000000000000444 ) ) ;
#78 = EDGE_CURVE ( 'NONE', #328, #230, #324, .T. ) ;
#79 = AXIS2_PLACEMENT_3D ( 'NONE', #13, #70, #331 ) ;
#80 = CARTESIAN_POINT ( 'NONE',  ( 0.0000000000000000000, 0.0000000000000000000, 3.000000000000000444 ) ) ;
#81 = DIRECTION ( 'NONE',  ( 0.0000000000000000000, 0.0000000000000000000, 1.000000000000000000 ) ) ;
#82 = CARTESIAN_POINT ( 'NONE',  ( 0.0000000000000000000, 0.0000000000000000000, 3.000000000000000444 ) ) ;
#83 = AXIS2_PLACEMENT_3D ( 'NONE', #198, #316, #256 ) ;
#84 = DIRECTION ( 'NONE',  ( 0.0000000000000000000, 0.0000000000000000000, -1.000000000000000000 ) ) ;
#85 = VERTEX_POINT ( 'NONE', #243 ) ;
#86 = DIRECTION ( 'NONE',  ( 0.0000000000000000000, 0.0000000000000000000, 1.000000000000000000 ) ) ;
#87 = EDGE_CURVE ( 'NONE', #73, #363, #370, .T. ) ;
#88 = EDGE_CURVE ( 'NONE', #85, #115, #212, .T. ) ;
#89 = CARTESIAN_POINT ( 'NONE',  ( 0.0000000000000000000, 0.0000000000000000000, 0.7500000000000001110 ) ) ;
#90 = ORIENTED_EDGE ( 'NONE', *, *, #102, .T. ) ;
#91 = PRESENTATION_LAYER_ASSIGNMENT (  '', '', ( #15 ) ) ;
#92 = APPLICATION_PROTOCOL_DEFINITION ( 'draft international standard', 'automotive_design', 1998, #59 ) ;
#93 = ORIENTED_EDGE ( 'NONE', *, *, #87, .F. ) ;
#94 = ADVANCED_FACE ( 'NONE', ( #68 ), #185, .T. ) ;
#95 =( LENGTH_UNIT ( ) NAMED_UNIT ( * ) SI_UNIT ( $, .METRE. ) );
#96 = CARTESIAN_POINT ( 'NONE',  ( 0.0000000000000000000, 0.0000000000000000000, 0.1199999999999999956 ) ) ;
#97 = PLANE ( 'NONE',  #355 ) ;
#98 = CIRCLE ( 'NONE', #105, 0.2500000000000000000 ) ;
#99 = VERTEX_POINT ( 'NONE', #271 ) ;
#100 =( NAMED_UNIT ( * ) SI_UNIT ( $, .STERADIAN. ) SOLID_ANGLE_UNIT ( ) );
#101 = CARTESIAN_POINT ( 'NONE',  ( 0.0000000000000000000, 0.0000000000000000000, 0.1200000000000000233 ) ) ;
#102 = EDGE_CURVE ( 'NONE', #215, #85, #252, .T. ) ;
#103 = ORIENTED_EDGE ( 'NONE', *, *, #7, .T. ) ;
#104 = VECTOR ( 'NONE', #154, 39.37007874015748854 ) ;
#105 = AXIS2_PLACEMENT_3D ( 'NONE', #220, #14, #338 ) ;
#106 = UNCERTAINTY_MEASURE_WITH_UNIT (LENGTH_MEASURE( 1.000000000000000082E-05 ), #188, 'distance_accuracy_value', 'NONE');
#107 = DIRECTION ( 'NONE',  ( 1.000000000000000000, 0.0000000000000000000, 0.0000000000000000000 ) ) ;
#108 = CLOSED_SHELL ( 'NONE', ( #368, #94, #285, #132, #304, #143, #206, #169, #306, #32, #222, #39, #342 ) ) ;
#109 = PRESENTATION_LAYER_ASSIGNMENT (  '', '', ( #253 ) ) ;
#110 =( NAMED_UNIT ( * ) PLANE_ANGLE_UNIT ( ) SI_UNIT ( $, .RADIAN. ) );
#111 = DIRECTION ( 'NONE',  ( 0.7071067811865402453, 8.659560562354845344E-17, -0.7071067811865546782 ) ) ;
#112 = MANIFOLD_SOLID_BREP ( 'Cut-Revolve1', #108 ) ;
#113 = PRODUCT_DEFINITION_SHAPE ( 'NONE', 'NONE',  #8 ) ;
#114 = CARTESIAN_POINT ( 'NONE',  ( -0.1250000000000000278, 0.0000000000000000000, 0.1200000000000000233 ) ) ;
#115 = VERTEX_POINT ( 'NONE', #369 ) ;
#116 = VECTOR ( 'NONE', #187, 39.37007874015748143 ) ;
#117 = DIRECTION ( 'NONE',  ( -0.0000000000000000000, -0.0000000000000000000, -1.000000000000000000 ) ) ;
#118 = COLOUR_RGB ( '',0.7921568627450980005, 0.8196078431372548767, 0.9333333333333333481 ) ;
#119 = EDGE_LOOP ( 'NONE', ( #9, #365, #103, #145 ) ) ;
#120 = CARTESIAN_POINT ( 'NONE',  ( 0.2500000000000000000, 3.061616997868382402E-17, 0.8749999999999994449 ) ) ;
#121 = ORIENTED_EDGE ( 'NONE', *, *, #225, .F. ) ;
#122 = CARTESIAN_POINT ( 'NONE',  ( 0.2500000000000000000, 3.061616997868382402E-17, 3.000000000000000444 ) ) ;
#123 = ORIENTED_EDGE ( 'NONE', *, *, #219, .F. ) ;
#124 = ORIENTED_EDGE ( 'NONE', *, *, #228, .T. ) ;
#125 = CARTESIAN_POINT ( 'NONE',  ( 0.0000000000000000000, 0.0000000000000000000, 0.0000000000000000000 ) ) ;
#126 = CARTESIAN_POINT ( 'NONE',  ( 0.0000000000000000000, 0.0000000000000000000, 0.0000000000000000000 ) ) ;
#127 = DIRECTION ( 'NONE',  ( -0.0000000000000000000, -0.0000000000000000000, -1.000000000000000000 ) ) ;
#128 = MECHANICAL_DESIGN_GEOMETRIC_PRESENTATION_REPRESENTATION (  '', ( #253 ), #376 ) ;
#129 = DIRECTION ( 'NONE',  ( -0.0000000000000000000, -0.0000000000000000000, -1.000000000000000000 ) ) ;
#130 = DIMENSIONAL_EXPONENTS ( 1.000000000000000000, 0.0000000000000000000, 0.0000000000000000000, 0.0000000000000000000, 0.0000000000000000000, 0.0000000000000000000, 0.0000000000000000000 ) ;
#131 = ORIENTED_EDGE ( 'NONE', *, *, #161, .F. ) ;
#132 = ADVANCED_FACE ( 'NONE', ( #197 ), #16, .T. ) ;
#133 = VECTOR ( 'NONE', #36, 39.37007874015748143 ) ;
#134 =( GEOMETRIC_REPRESENTATION_CONTEXT ( 3 ) GLOBAL_UNCERTAINTY_ASSIGNED_CONTEXT ( ( #221 ) ) GLOBAL_UNIT_ASSIGNED_CONTEXT ( ( #190, #244, #297 ) ) REPRESENTATION_CONTEXT ( 'NONE', 'WORKASPACE' ) );
#135 = CARTESIAN_POINT ( 'NONE',  ( 0.0000000000000000000, 0.0000000000000000000, 0.0000000000000000000 ) ) ;
#136 = LINE ( 'NONE', #164, #10 ) ;
#137 = DIRECTION ( 'NONE',  ( 0.0000000000000000000, 0.0000000000000000000, 1.000000000000000000 ) ) ;
#138 = VECTOR ( 'NONE', #127, 39.37007874015748143 ) ;
#139 = DIRECTION ( 'NONE',  ( 0.0000000000000000000, 0.0000000000000000000, -1.000000000000000000 ) ) ;
#140 = DIRECTION ( 'NONE',  ( 1.000000000000000000, 0.0000000000000000000, 0.0000000000000000000 ) ) ;
#141 = ORIENTED_EDGE ( 'NONE', *, *, #211, .T. ) ;
#142 = DIRECTION ( 'NONE',  ( 0.0000000000000000000, 0.0000000000000000000, 1.000000000000000000 ) ) ;
#143 = ADVANCED_FACE ( 'NONE', ( #371 ), #18, .T. ) ;
#144 = CARTESIAN_POINT ( 'NONE',  ( 0.0000000000000000000, 0.0000000000000000000, 3.000000000000000444 ) ) ;
#145 = ORIENTED_EDGE ( 'NONE', *, *, #211, .F. ) ;
#146 = DIRECTION ( 'NONE',  ( -0.0000000000000000000, -0.0000000000000000000, -1.000000000000000000 ) ) ;
#147 = DIRECTION ( 'NONE',  ( -0.0000000000000000000, -0.0000000000000000000, -1.000000000000000000 ) ) ;
#148 = ORIENTED_EDGE ( 'NONE', *, *, #246, .F. ) ;
#149 = SURFACE_STYLE_FILL_AREA ( #35 ) ;
#150 = AXIS2_PLACEMENT_3D ( 'NONE', #275, #213, #242 ) ;
#151 = EDGE_LOOP ( 'NONE', ( #203, #124, #247, #38 ) ) ;
#152 = VECTOR ( 'NONE', #111, 39.37007874015748854 ) ;
#153 = LENGTH_MEASURE_WITH_UNIT ( LENGTH_MEASURE( 0.02539999999999999897 ), #95 );
#154 = DIRECTION ( 'NONE',  ( -0.7071067811865402453, 0.0000000000000000000, -0.7071067811865546782 ) ) ;
#155 = DIRECTION ( 'NONE',  ( -1.000000000000000000, 0.0000000000000000000, 0.0000000000000000000 ) ) ;
#156 = EDGE_CURVE ( 'NONE', #215, #358, #136, .T. ) ;
#157 = DIRECTION ( 'NONE',  ( 1.000000000000000000, 0.0000000000000000000, -0.0000000000000000000 ) ) ;
#158 = CIRCLE ( 'NONE', #150, 0.2500000000000000555 ) ;
#159 = CIRCLE ( 'NONE', #37, 0.2500000000000000000 ) ;
#160 = PRODUCT_DEFINITION_FORMATION_WITH_SPECIFIED_SOURCE ( 'ANY', '', #281, .NOT_KNOWN. ) ;
#161 = EDGE_CURVE ( 'NONE', #358, #115, #249, .T. ) ;
#162 = CARTESIAN_POINT ( 'NONE',  ( -0.2350000000000011524, 0.0000000000000000000, 3.000000000000000444 ) ) ;
#163 = FILL_AREA_STYLE ('',( #277 ) ) ;
#164 = CARTESIAN_POINT ( 'NONE',  ( 0.1250000000000000833, 0.0000000000000000000, 0.7500000000000001110 ) ) ;
#165 = AXIS2_PLACEMENT_3D ( 'NONE', #96, #295, #42 ) ;
#166 = CONICAL_SURFACE ( 'NONE', #192, 0.2350000000000011524, 0.7853981633974380649 ) ;
#167 = LINE ( 'NONE', #286, #196 ) ;
#168 = DIRECTION ( 'NONE',  ( -1.000000000000000000, 0.0000000000000000000, 0.0000000000000000000 ) ) ;
#169 = ADVANCED_FACE ( 'NONE', ( #341 ), #166, .T. ) ;
#170 = DIRECTION ( 'NONE',  ( -0.0000000000000000000, -0.0000000000000000000, -1.000000000000000000 ) ) ;
#171 = AXIS2_PLACEMENT_3D ( 'NONE', #82, #181, #318 ) ;
#172 = DIRECTION ( 'NONE',  ( 0.0000000000000000000, 0.0000000000000000000, 1.000000000000000000 ) ) ;
#173 = EDGE_LOOP ( 'NONE', ( #323, #237, #293, #372 ) ) ;
#174 = DIRECTION ( 'NONE',  ( 1.000000000000000000, 0.0000000000000000000, 0.0000000000000000000 ) ) ;
#175 = ORIENTED_EDGE ( 'NONE', *, *, #225, .T. ) ;
#176 = CARTESIAN_POINT ( 'NONE',  ( 0.0000000000000000000, 0.0000000000000000000, 3.000000000000000444 ) ) ;
#177 = VERTEX_POINT ( 'NONE', #75 ) ;
#178 = VECTOR ( 'NONE', #117, 39.37007874015748143 ) ;
#179 = CARTESIAN_POINT ( 'NONE',  ( 0.0000000000000000000, 0.0000000000000000000, 0.0000000000000000000 ) ) ;
#180 = ORIENTED_EDGE ( 'NONE', *, *, #269, .T. ) ;
#181 = DIRECTION ( 'NONE',  ( -0.0000000000000000000, -0.0000000000000000000, -1.000000000000000000 ) ) ;
#182 = ORIENTED_EDGE ( 'NONE', *, *, #289, .T. ) ;
#183 = DIRECTION ( 'NONE',  ( -0.0000000000000000000, -0.0000000000000000000, -1.000000000000000000 ) ) ;
#184 = AXIS2_PLACEMENT_3D ( 'NONE', #126, #183, #270 ) ;
#185 = CYLINDRICAL_SURFACE ( 'NONE', #239, 0.1250000000000000555 ) ;
#186 = DIRECTION ( 'NONE',  ( 0.0000000000000000000, 0.0000000000000000000, 1.000000000000000000 ) ) ;
#187 = DIRECTION ( 'NONE',  ( -0.0000000000000000000, -0.0000000000000000000, -1.000000000000000000 ) ) ;
#188 =( CONVERSION_BASED_UNIT ( 'INCH', #153 ) LENGTH_UNIT ( ) NAMED_UNIT ( #194 ) );
#189 = CARTESIAN_POINT ( 'NONE',  ( -0.2500000000000000000, 0.0000000000000000000, 3.000000000000000444 ) ) ;
#190 =( CONVERSION_BASED_UNIT ( 'INCH', #69 ) LENGTH_UNIT ( ) NAMED_UNIT ( #130 ) );
#191 = CARTESIAN_POINT ( 'NONE',  ( 0.1250000000000000555, 1.530808498934192125E-17, 0.0000000000000000000 ) ) ;
#192 = AXIS2_PLACEMENT_3D ( 'NONE', #80, #139, #255 ) ;
#193 = CARTESIAN_POINT ( 'NONE',  ( 0.0000000000000000000, 0.0000000000000000000, 3.000000000000000444 ) ) ;
#194 = DIMENSIONAL_EXPONENTS ( 1.000000000000000000, 0.0000000000000000000, 0.0000000000000000000, 0.0000000000000000000, 0.0000000000000000000, 0.0000000000000000000, 0.0000000000000000000 ) ;
#195 = CARTESIAN_POINT ( 'NONE',  ( 0.2500000000000000555, 0.0000000000000000000, 0.1200000000000000233 ) ) ;
#196 = VECTOR ( 'NONE', #147, 39.37007874015748143 ) ;
#197 = FACE_OUTER_BOUND ( 'NONE', #151, .T. ) ;
#198 = CARTESIAN_POINT ( 'NONE',  ( 0.0000000000000000000, 0.0000000000000000000, 0.7500000000000001110 ) ) ;
#199 = AXIS2_PLACEMENT_3D ( 'NONE', #279, #22, #107 ) ;
#200 = DIRECTION ( 'NONE',  ( 1.000000000000000000, 0.0000000000000000000, 0.0000000000000000000 ) ) ;
#201 = ORIENTED_EDGE ( 'NONE', *, *, #41, .T. ) ;
#202 = FACE_OUTER_BOUND ( 'NONE', #354, .T. ) ;
#203 = ORIENTED_EDGE ( 'NONE', *, *, #272, .F. ) ;
#204 = LINE ( 'NONE', #373, #178 ) ;
#205 = EDGE_LOOP ( 'NONE', ( #180, #60, #57, #121 ) ) ;
#206 = ADVANCED_FACE ( 'NONE', ( #307 ), #248, .T. ) ;
#207 = AXIS2_PLACEMENT_3D ( 'NONE', #195, #137, #50 ) ;
#208 = FACE_OUTER_BOUND ( 'NONE', #210, .T. ) ;
#209 = EDGE_LOOP ( 'NONE', ( #24, #90, #175, #40 ) ) ;
#210 = EDGE_LOOP ( 'NONE', ( #287, #265, #305, #148 ) ) ;
#211 = EDGE_CURVE ( 'NONE', #350, #379, #98, .T. ) ;
#212 = LINE ( 'NONE', #329, #133 ) ;
#213 = DIRECTION ( 'NONE',  ( -0.0000000000000000000, -0.0000000000000000000, -1.000000000000000000 ) ) ;
#214 = CIRCLE ( 'NONE', #231, 0.2350000000000011524 ) ;
#215 = VERTEX_POINT ( 'NONE', #17 ) ;
#216 = LENGTH_MEASURE_WITH_UNIT ( LENGTH_MEASURE( 0.02539999999999999897 ), #250 );
#217 = CIRCLE ( 'NONE', #48, 0.1250000000000000278 ) ;
#218 = AXIS2_PLACEMENT_3D ( 'NONE', #193, #52, #46 ) ;
#219 = EDGE_CURVE ( 'NONE', #327, #99, #317, .T. ) ;
#220 = CARTESIAN_POINT ( 'NONE',  ( 0.0000000000000000000, 0.0000000000000000000, 2.985000000000001208 ) ) ;
#221 = UNCERTAINTY_MEASURE_WITH_UNIT (LENGTH_MEASURE( 1.000000000000000082E-05 ), #190, 'distance_accuracy_value', 'NONE');
#222 = ADVANCED_FACE ( 'NONE', ( #223, #76 ), #339, .T. ) ;
#223 = FACE_BOUND ( 'NONE', #352, .T. ) ;
#224 = DIRECTION ( 'NONE',  ( 0.7071067811865490160, 0.0000000000000000000, 0.7071067811865460184 ) ) ;
#225 = EDGE_CURVE ( 'NONE', #85, #230, #167, .T. ) ;
#226 =( CONVERSION_BASED_UNIT ( 'INCH', #216 ) LENGTH_UNIT ( ) NAMED_UNIT ( #254 ) );
#227 = DIRECTION ( 'NONE',  ( 1.000000000000000000, 0.0000000000000000000, 0.0000000000000000000 ) ) ;
#228 = EDGE_CURVE ( 'NONE', #284, #350, #292, .T. ) ;
#229 = DIRECTION ( 'NONE',  ( 0.0000000000000000000, 0.0000000000000000000, 1.000000000000000000 ) ) ;
#230 = VERTEX_POINT ( 'NONE', #114 ) ;
#231 = AXIS2_PLACEMENT_3D ( 'NONE', #283, #172, #56 ) ;
#232 = EDGE_CURVE ( 'NONE', #115, #358, #74, .T. ) ;
#233 = CARTESIAN_POINT ( 'NONE',  ( 0.2500000000000000000, 3.061616997868382402E-17, 0.0000000000000000000 ) ) ;
#234 = ORIENTED_EDGE ( 'NONE', *, *, #87, .T. ) ;
#235 = CARTESIAN_POINT ( 'NONE',  ( 0.0000000000000000000, 0.0000000000000000000, 3.000000000000000444 ) ) ;
#236 = CARTESIAN_POINT ( 'NONE',  ( 0.2350000000000011524, 2.877919977996294002E-17, 3.000000000000000444 ) ) ;
#237 = ORIENTED_EDGE ( 'NONE', *, *, #102, .F. ) ;
#238 = EDGE_CURVE ( 'NONE', #379, #350, #366, .T. ) ;
#239 = AXIS2_PLACEMENT_3D ( 'NONE', #299, #301, #155 ) ;
#240 = CONICAL_SURFACE ( 'NONE', #49, 0.1250000000000000833, 0.7853981633974503884 ) ;
#241 = DIRECTION ( 'NONE',  ( 0.0000000000000000000, 0.0000000000000000000, 1.000000000000000000 ) ) ;
#242 = DIRECTION ( 'NONE',  ( -1.000000000000000000, 0.0000000000000000000, 0.0000000000000000000 ) ) ;
#243 = CARTESIAN_POINT ( 'NONE',  ( -0.1250000000000000833, 2.296212748401287726E-17, 0.7500000000000001110 ) ) ;
#244 =( NAMED_UNIT ( * ) PLANE_ANGLE_UNIT ( ) SI_UNIT ( $, .RADIAN. ) );
#245 = ORIENTED_EDGE ( 'NONE', *, *, #51, .T. ) ;
#246 = EDGE_CURVE ( 'NONE', #379, #115, #28, .T. ) ;
#247 = ORIENTED_EDGE ( 'NONE', *, *, #238, .F. ) ;
#248 = PLANE ( 'NONE',  #218 ) ;
#249 = CIRCLE ( 'NONE', #199, 0.2500000000000000000 ) ;
#250 =( LENGTH_UNIT ( ) NAMED_UNIT ( * ) SI_UNIT ( $, .METRE. ) );
#251 = SURFACE_SIDE_STYLE ('',( #308 ) ) ;
#252 = CIRCLE ( 'NONE', #347, 0.1250000000000000833 ) ;
#253 = STYLED_ITEM ( 'NONE', ( #335 ), #298 ) ;
#254 = DIMENSIONAL_EXPONENTS ( 1.000000000000000000, 0.0000000000000000000, 0.0000000000000000000, 0.0000000000000000000, 0.0000000000000000000, 0.0000000000000000000, 0.0000000000000000000 ) ;
#255 = DIRECTION ( 'NONE',  ( -1.000000000000000000, 0.0000000000000000000, 0.0000000000000000000 ) ) ;
#256 = DIRECTION ( 'NONE',  ( -1.000000000000000000, 0.0000000000000000000, 0.0000000000000000000 ) ) ;
#257 = EDGE_LOOP ( 'NONE', ( #234, #291, #319, #374 ) ) ;
#258 = CARTESIAN_POINT ( 'NONE',  ( 0.0000000000000000000, 0.0000000000000000000, 0.8749999999999994449 ) ) ;
#259 = ORIENTED_EDGE ( 'NONE', *, *, #78, .T. ) ;
#260 = AXIS2_PLACEMENT_3D ( 'NONE', #266, #84, #227 ) ;
#261 = DIRECTION ( 'NONE',  ( -1.000000000000000000, 0.0000000000000000000, 0.0000000000000000000 ) ) ;
#262 = ORIENTED_EDGE ( 'NONE', *, *, #19, .T. ) ;
#263 = EDGE_CURVE ( 'NONE', #99, #327, #159, .T. ) ;
#264 = DIRECTION ( 'NONE',  ( -1.000000000000000000, 0.0000000000000000000, 0.0000000000000000000 ) ) ;
#265 = ORIENTED_EDGE ( 'NONE', *, *, #377, .T. ) ;
#266 = CARTESIAN_POINT ( 'NONE',  ( 0.0000000000000000000, 0.0000000000000000000, 2.985000000000001208 ) ) ;
#267 = EDGE_LOOP ( 'NONE', ( #93, #362 ) ) ;
#268 = FACE_OUTER_BOUND ( 'NONE', #209, .T. ) ;
#269 = EDGE_CURVE ( 'NONE', #85, #215, #23, .T. ) ;
#270 = DIRECTION ( 'NONE',  ( -1.000000000000000000, 0.0000000000000000000, 0.0000000000000000000 ) ) ;
#271 = CARTESIAN_POINT ( 'NONE',  ( -0.2500000000000000000, 0.0000000000000000000, 0.0000000000000000000 ) ) ;
#272 = EDGE_CURVE ( 'NONE', #284, #177, #214, .T. ) ;
#273 = AXIS2_PLACEMENT_3D ( 'NONE', #89, #142, #61 ) ;
#274 = DIRECTION ( 'NONE',  ( -0.0000000000000000000, -0.0000000000000000000, -1.000000000000000000 ) ) ;
#275 = CARTESIAN_POINT ( 'NONE',  ( 0.0000000000000000000, 0.0000000000000000000, 0.1199999999999999956 ) ) ;
#276 = DIRECTION ( 'NONE',  ( -1.000000000000000000, 0.0000000000000000000, 0.0000000000000000000 ) ) ;
#277 = FILL_AREA_STYLE_COLOUR ( '', #340 ) ;
#278 = PRESENTATION_STYLE_ASSIGNMENT (( #367 ) ) ;
#279 = CARTESIAN_POINT ( 'NONE',  ( 0.0000000000000000000, 0.0000000000000000000, 0.8749999999999994449 ) ) ;
#280 = AXIS2_PLACEMENT_3D ( 'NONE', #258, #53, #140 ) ;
#281 = PRODUCT ( 'Micro_KC-500-750-120X', 'Micro_KC-500-750-120X', '', ( #357 ) ) ;
#282 = CARTESIAN_POINT ( 'NONE',  ( 0.2350000000000011524, 2.969768487932338510E-17, 3.000000000000000444 ) ) ;
#283 = CARTESIAN_POINT ( 'NONE',  ( 0.0000000000000000000, 0.0000000000000000000, 3.000000000000000444 ) ) ;
#284 = VERTEX_POINT ( 'NONE', #282 ) ;
#285 = ADVANCED_FACE ( 'NONE', ( #26 ), #43, .T. ) ;
#286 = CARTESIAN_POINT ( 'NONE',  ( -0.1250000000000000555, 0.0000000000000000000, 0.0000000000000000000 ) ) ;
#287 = ORIENTED_EDGE ( 'NONE', *, *, #238, .T. ) ;
#288 = AXIS2_PLACEMENT_3D ( 'NONE', #135, #20, #309 ) ;
#289 = EDGE_CURVE ( 'NONE', #177, #284, #310, .T. ) ;
#290 = FACE_OUTER_BOUND ( 'NONE', #173, .T. ) ;
#291 = ORIENTED_EDGE ( 'NONE', *, *, #312, .T. ) ;
#292 = LINE ( 'NONE', #236, #152 ) ;
#293 = ORIENTED_EDGE ( 'NONE', *, *, #156, .T. ) ;
#294 = CARTESIAN_POINT ( 'NONE',  ( -0.2500000000000000000, 0.0000000000000000000, 2.985000000000001208 ) ) ;
#295 = DIRECTION ( 'NONE',  ( -0.0000000000000000000, -0.0000000000000000000, -1.000000000000000000 ) ) ;
#296 = AXIS2_PLACEMENT_3D ( 'NONE', #176, #229, #30 ) ;
#297 =( NAMED_UNIT ( * ) SI_UNIT ( $, .STERADIAN. ) SOLID_ANGLE_UNIT ( ) );
#298 = ADVANCED_BREP_SHAPE_REPRESENTATION ( 'Micro_KC-500-750-120X', ( #112, #311 ), #134 ) ;
#299 = CARTESIAN_POINT ( 'NONE',  ( 0.0000000000000000000, 0.0000000000000000000, 0.0000000000000000000 ) ) ;
#300 =( NAMED_UNIT ( * ) PLANE_ANGLE_UNIT ( ) SI_UNIT ( $, .RADIAN. ) );
#301 = DIRECTION ( 'NONE',  ( -0.0000000000000000000, -0.0000000000000000000, -1.000000000000000000 ) ) ;
#302 =( LENGTH_UNIT ( ) NAMED_UNIT ( * ) SI_UNIT ( $, .METRE. ) );
#303 = CARTESIAN_POINT ( 'NONE',  ( -0.2500000000000000555, 0.0000000000000000000, 0.1199999999999999956 ) ) ;
#304 = ADVANCED_FACE ( 'NONE', ( #208 ), #345, .T. ) ;
#305 = ORIENTED_EDGE ( 'NONE', *, *, #232, .F. ) ;
#306 = ADVANCED_FACE ( 'NONE', ( #290 ), #240, .T. ) ;
#307 = FACE_OUTER_BOUND ( 'NONE', #65, .T. ) ;
#308 = SURFACE_STYLE_FILL_AREA ( #163 ) ;
#309 = DIRECTION ( 'NONE',  ( 1.000000000000000000, 0.0000000000000000000, 0.0000000000000000000 ) ) ;
#310 = CIRCLE ( 'NONE', #296, 0.2350000000000011524 ) ;
#311 = AXIS2_PLACEMENT_3D ( 'NONE', #361, #186, #332 ) ;
#312 = EDGE_CURVE ( 'NONE', #363, #327, #204, .T. ) ;
#313 = DIRECTION ( 'NONE',  ( -1.000000000000000000, 0.0000000000000000000, 0.0000000000000000000 ) ) ;
#314 = UNCERTAINTY_MEASURE_WITH_UNIT (LENGTH_MEASURE( 1.000000000000000082E-05 ), #226, 'distance_accuracy_value', 'NONE');
#315 = DIRECTION ( 'NONE',  ( 0.0000000000000000000, 0.0000000000000000000, -1.000000000000000000 ) ) ;
#316 = DIRECTION ( 'NONE',  ( -0.0000000000000000000, -0.0000000000000000000, -1.000000000000000000 ) ) ;
#317 = CIRCLE ( 'NONE', #288, 0.2500000000000000000 ) ;
#318 = DIRECTION ( 'NONE',  ( -1.000000000000000000, 0.0000000000000000000, 0.0000000000000000000 ) ) ;
#319 = ORIENTED_EDGE ( 'NONE', *, *, #219, .T. ) ;
#320 = CARTESIAN_POINT ( 'NONE',  ( 0.2500000000000000000, 3.061616997868382402E-17, 2.985000000000001208 ) ) ;
#321 = ORIENTED_EDGE ( 'NONE', *, *, #263, .F. ) ;
#322 = FACE_OUTER_BOUND ( 'NONE', #257, .T. ) ;
#323 = ORIENTED_EDGE ( 'NONE', *, *, #88, .F. ) ;
#324 = CIRCLE ( 'NONE', #79, 0.1250000000000000278 ) ;
#325 = MECHANICAL_DESIGN_GEOMETRIC_PRESENTATION_REPRESENTATION (  '', ( #15 ), #54 ) ;
#326 = CARTESIAN_POINT ( 'NONE',  ( 0.2500000000000000555, 3.061616997868383018E-17, 0.1199999999999999956 ) ) ;
#327 = VERTEX_POINT ( 'NONE', #233 ) ;
#328 = VERTEX_POINT ( 'NONE', #349 ) ;
#329 = CARTESIAN_POINT ( 'NONE',  ( -0.1250000000000000833, 1.530808498934192433E-17, 0.7500000000000001110 ) ) ;
#330 = AXIS2_PLACEMENT_3D ( 'NONE', #77, #170, #276 ) ;
#331 = DIRECTION ( 'NONE',  ( -1.000000000000000000, 0.0000000000000000000, 0.0000000000000000000 ) ) ;
#332 = DIRECTION ( 'NONE',  ( 1.000000000000000000, 0.0000000000000000000, 0.0000000000000000000 ) ) ;
#333 = LINE ( 'NONE', #162, #104 ) ;
#334 = PRODUCT_RELATED_PRODUCT_CATEGORY ( 'part', '', ( #281 ) ) ;
#335 = PRESENTATION_STYLE_ASSIGNMENT (( #66 ) ) ;
#336 = DIRECTION ( 'NONE',  ( -1.000000000000000000, 0.0000000000000000000, 0.0000000000000000000 ) ) ;
#337 = AXIS2_PLACEMENT_3D ( 'NONE', #144, #146, #261 ) ;
#338 = DIRECTION ( 'NONE',  ( 1.000000000000000000, 0.0000000000000000000, 0.0000000000000000000 ) ) ;
#339 = PLANE ( 'NONE',  #207 ) ;
#340 = COLOUR_RGB ( '',0.7921568627450980005, 0.8196078431372548767, 0.9333333333333333481 ) ;
#341 = FACE_OUTER_BOUND ( 'NONE', #119, .T. ) ;
#342 = ADVANCED_FACE ( 'NONE', ( #202 ), #378, .T. ) ;
#343 =( NAMED_UNIT ( * ) SI_UNIT ( $, .STERADIAN. ) SOLID_ANGLE_UNIT ( ) );
#344 = DIRECTION ( 'NONE',  ( -0.0000000000000000000, -0.0000000000000000000, -1.000000000000000000 ) ) ;
#345 = CYLINDRICAL_SURFACE ( 'NONE', #171, 0.2500000000000000000 ) ;
#346 = EDGE_LOOP ( 'NONE', ( #4, #62, #29, #27 ) ) ;
#347 = AXIS2_PLACEMENT_3D ( 'NONE', #12, #129, #168 ) ;
#348 = AXIS2_PLACEMENT_3D ( 'NONE', #47, #315, #313 ) ;
#349 = CARTESIAN_POINT ( 'NONE',  ( 0.1250000000000000278, 1.530808498934191817E-17, 0.1200000000000000233 ) ) ;
#350 = VERTEX_POINT ( 'NONE', #320 ) ;
#351 = DIRECTION ( 'NONE',  ( -0.0000000000000000000, -0.0000000000000000000, -1.000000000000000000 ) ) ;
#352 = EDGE_LOOP ( 'NONE', ( #262, #259 ) ) ;
#353 = CARTESIAN_POINT ( 'NONE',  ( 0.0000000000000000000, 0.0000000000000000000, 0.7500000000000001110 ) ) ;
#354 = EDGE_LOOP ( 'NONE', ( #6, #201, #245, #31 ) ) ;
#355 = AXIS2_PLACEMENT_3D ( 'NONE', #125, #241, #157 ) ;
#356 = VECTOR ( 'NONE', #64, 39.37007874015748143 ) ;
#357 = PRODUCT_CONTEXT ( 'NONE', #364, 'mechanical' ) ;
#358 = VERTEX_POINT ( 'NONE', #120 ) ;
#359 = LINE ( 'NONE', #189, #116 ) ;
#360 = EDGE_LOOP ( 'NONE', ( #321, #123 ) ) ;
#361 = CARTESIAN_POINT ( 'NONE',  ( 0.0000000000000000000, 0.0000000000000000000, 0.0000000000000000000 ) ) ;
#362 = ORIENTED_EDGE ( 'NONE', *, *, #41, .F. ) ;
#363 = VERTEX_POINT ( 'NONE', #326 ) ;
#364 = APPLICATION_CONTEXT ( 'automotive_design' ) ;
#365 = ORIENTED_EDGE ( 'NONE', *, *, #289, .F. ) ;
#366 = CIRCLE ( 'NONE', #260, 0.2500000000000000000 ) ;
#367 = SURFACE_STYLE_USAGE ( .BOTH. , #251 ) ;
#368 = ADVANCED_FACE ( 'NONE', ( #322 ), #58, .T. ) ;
#369 = CARTESIAN_POINT ( 'NONE',  ( -0.2500000000000000000, 0.0000000000000000000, 0.8749999999999994449 ) ) ;
#370 = CIRCLE ( 'NONE', #165, 0.2500000000000000555 ) ;
#371 = FACE_OUTER_BOUND ( 'NONE', #2, .T. ) ;
#372 = ORIENTED_EDGE ( 'NONE', *, *, #161, .T. ) ;
#373 = CARTESIAN_POINT ( 'NONE',  ( 0.2500000000000000000, 3.061616997868382402E-17, 3.000000000000000444 ) ) ;
#374 = ORIENTED_EDGE ( 'NONE', *, *, #51, .F. ) ;
#375 = AXIS2_PLACEMENT_3D ( 'NONE', #235, #351, #264 ) ;
#376 =( GEOMETRIC_REPRESENTATION_CONTEXT ( 3 ) GLOBAL_UNCERTAINTY_ASSIGNED_CONTEXT ( ( #106 ) ) GLOBAL_UNIT_ASSIGNED_CONTEXT ( ( #188, #300, #100 ) ) REPRESENTATION_CONTEXT ( 'NONE', 'WORKASPACE' ) );
#377 = EDGE_CURVE ( 'NONE', #350, #358, #1, .T. ) ;
#378 = CYLINDRICAL_SURFACE ( 'NONE', #337, 0.2500000000000000000 ) ;
#379 = VERTEX_POINT ( 'NONE', #294 ) ;
ENDSEC;
END-ISO-10303-21;
